0
SECTION
2
HEADER
9
$INSUNITS
70
4
9
$ACADVER
1
AC1014
9
$HANDSEED
5
FFFF
0
ENDSEC
0
SECTION
2
TABLES
0
TABLE
2
VPORT
5
8
100
AcDbSymbolTable
0
ENDTAB
0
TABLE
2
LTYPE
5
5
100
AcDbSymbolTable
0
LTYPE
5
14
100
AcDbSymbolTableRecord
100
AcDbLinetypeTableRecord
2
BYBLOCK
70
0
0
LTYPE
5
15
100
AcDbSymbolTableRecord
100
AcDbLinetypeTableRecord
2
BYLAYER
70
0
0
ENDTAB
0
TABLE
2
LAYER
5
2
100
AcDbSymbolTable
70
2
0
LAYER
5
50
100
AcDbSymbolTableRecord
100
AcDbLayerTableRecord
2
0
70
0
6
CONTINUOUS
0
ENDTAB
0
TABLE
2
STYLE
5
3
100
AcDbSymbolTable
70
1
0
STYLE
5
11
100
AcDbSymbolTableRecord
100
AcDbTextStyleTableRecord
2
STANDARD
70
0
0
ENDTAB
0
TABLE
2
VIEW
5
6
100
AcDbSymbolTable
70
0
0
ENDTAB
0
TABLE
2
UCS
5
7
100
AcDbSymbolTable
70
0
0
ENDTAB
0
TABLE
2
APPID
5
9
100
AcDbSymbolTable
70
2
0
APPID
5
12
100
AcDbSymbolTableRecord
100
AcDbRegAppTableRecord
2
ACAD
70
0
0
ENDTAB
0
TABLE
2
DIMSTYLE
5
A
100
AcDbSymbolTable
70
1
0
ENDTAB
0
TABLE
2
BLOCK_RECORD
5
1
100
AcDbSymbolTable
70
1
0
BLOCK_RECORD
5
1F
100
AcDbSymbolTableRecord
100
AcDbBlockTableRecord
2
*MODEL_SPACE
0
BLOCK_RECORD
5
1B
100
AcDbSymbolTableRecord
100
AcDbBlockTableRecord
2
*PAPER_SPACE
0
ENDTAB
0
ENDSEC
0
SECTION
2
BLOCKS
0
BLOCK
5
20
100
AcDbEntity
100
AcDbBlockBegin
2
*MODEL_SPACE
0
ENDBLK
5
21
100
AcDbEntity
100
AcDbBlockEnd
0
BLOCK
5
1C
100
AcDbEntity
100
AcDbBlockBegin
2
*PAPER_SPACE
0
ENDBLK
5
1D
100
AcDbEntity
100
AcDbBlockEnd
0
ENDSEC
0
SECTION
2
ENTITIES
0
LWPOLYLINE
5
100
100
AcDbEntity
8
0
100
AcDbPolyline
90
4
70
1
43
0.0
10
-692.15000028658551
20
-107.01432577479345
10
-711.20000028658546
20
-107.01432577479345
10
-711.20000028658546
20
-164.16432577479344
10
-692.15000028658551
20
-164.16432577479344
0
LWPOLYLINE
5
101
100
AcDbEntity
8
0
100
AcDbPolyline
90
4
70
1
43
0.0
10
-346.07500028658563
20
356.63608801196563
10
-365.12500028658565
20
356.63608801196563
10
-365.12500028658565
20
299.48608801196565
10
-346.07500028658563
20
299.48608801196576
0
LWPOLYLINE
5
102
100
AcDbEntity
8
0
100
AcDbPolyline
90
4
70
1
43
0.0
10
-2.8658575956796994e-07
20
-107.01432577479341
10
-19.050000286585771
20
-107.01432577479341
10
-19.050000286585771
20
-164.16432577479341
10
-2.8658575956797e-07
20
-164.16432577479341
0
LWPOLYLINE
5
103
100
AcDbEntity
8
0
100
AcDbPolyline
90
4
70
1
43
0.0
10
-692.15000028658551
20
356.63608801196563
10
-711.20000028658546
20
356.63608801196563
10
-711.20000028658546
20
299.48608801196565
10
-692.15000028658551
20
299.48608801196576
0
LWPOLYLINE
5
104
100
AcDbEntity
8
0
100
AcDbPolyline
90
4
70
1
43
0.0
10
-692.15000028658551
20
47.535812154126518
10
-711.20000028658546
20
47.535812154126518
10
-711.20000028658546
20
-9.6141878458734471
10
-692.15000028658551
20
-9.614187845873472
0
LWPOLYLINE
5
105
100
AcDbEntity
8
0
100
AcDbPolyline
90
8
70
1
43
0.0
10
-552.45000028660297
20
-151.46432577479086
10
-504.82500028660297
20
-151.46432577479146
42
0.41421356237307866
10
-503.23750028660299
20
-149.87682577479171
10
-503.23750028660248
20
-146.7018257747896
42
0.4142135623730131
10
-504.8250002866024
20
-145.11432577479007
10
-552.45000028660309
20
-145.11432577478922
42
0.41421356237294754
10
-554.03750028660272
20
-146.70182577478809
10
-554.03750028660295
20
-149.87682577479018
42
0.41421356237323925
0
LWPOLYLINE
5
106
100
AcDbEntity
8
0
100
AcDbPolyline
90
4
70
1
43
0.0
10
-692.15000028658551
20
202.0859500830469
10
-711.20000028658546
20
202.08595008304678
10
-711.20000028658546
20
144.93595008304675
10
-692.15000028658551
20
144.93595008304692
0
LWPOLYLINE
5
107
100
AcDbEntity
8
0
100
AcDbPolyline
90
4
70
1
43
0.0
10
-346.07500028658563
20
-107.01432577479341
10
-365.12500028658565
20
-107.01432577479341
10
-365.12500028658565
20
-164.16432577479341
10
-346.07500028658563
20
-164.16432577479341
0
LWPOLYLINE
5
108
100
AcDbEntity
8
0
100
AcDbPolyline
90
4
70
1
43
0.0
10
-2.8658575956796994e-07
20
356.63608801196563
10
-19.050000286585771
20
356.63608801196563
10
-19.050000286585771
20
299.48608801196565
10
-2.8658575956796973e-07
20
299.48608801196576
0
LWPOLYLINE
5
109
100
AcDbEntity
8
0
100
AcDbPolyline
90
4
70
1
43
0.0
10
-2.8658576178841599e-07
20
202.08595008304695
10
-19.050000286585774
20
202.08595008304681
10
-19.050000286585771
20
144.93595008304678
10
-2.8658575956796984e-07
20
144.93595008304695
0
LWPOLYLINE
5
110
100
AcDbEntity
8
0
100
AcDbPolyline
90
4
70
1
43
0.0
10
-346.07500028658563
20
47.535812154126518
10
-365.12500028658565
20
47.535812154126518
10
-365.12500028658565
20
-9.6141878458734116
10
-346.07500028658563
20
-9.614187845873472
0
LWPOLYLINE
5
111
100
AcDbEntity
8
0
100
AcDbPolyline
90
8
70
1
43
0.0
10
-206.37500028658593
20
-151.46432577479342
10
-158.75000028658599
20
-151.46432577479354
42
0.41421356237308521
10
-157.16250028658601
20
-149.87682577479353
10
-157.16250028658595
20
-146.70182577479139
42
0.41421356237303608
10
-158.75000028658562
20
-145.11432577479144
10
-206.37500028658624
20
-145.11432577479141
42
0.41421356237302948
10
-207.96250028658591
20
-146.70182577479139
10
-207.96250028658591
20
-149.87682577479345
42
0.41421356237309509
0
LWPOLYLINE
5
112
100
AcDbEntity
8
0
100
AcDbPolyline
90
8
70
1
43
0.0
10
-552.45000028660286
20
356.50093902088571
42
-0.41421356237293772
10
-554.03750028660386
20
358.08843902088586
10
-554.03750028660261
20
361.26343902088786
42
-0.41421356237325235
10
-552.45000028660263
20
362.85093902088869
10
-504.82500028660269
20
362.85093902088931
42
-0.41421356237310814
10
-503.23750028660277
20
361.26343902088945
10
-503.23750028660254
20
358.08843902088734
42
-0.41421356237309509
10
-504.82500028660218
20
356.50093902088759
0
LWPOLYLINE
5
113
100
AcDbEntity
8
0
100
AcDbPolyline
90
4
70
1
43
0.0
10
-346.07500028658563
20
202.08595008304695
10
-365.12500028658565
20
202.08595008304681
10
-365.12500028658565
20
144.93595008304678
10
-346.07500028658563
20
144.93595008304695
0
LWPOLYLINE
5
114
100
AcDbEntity
8
0
100
AcDbPolyline
90
4
70
1
43
0.0
10
-2.8658575956796994e-07
20
47.535812154126518
10
-19.050000286585771
20
47.535812154126518
10
-19.050000286585771
20
-9.6141878458734471
10
-2.8658575956796994e-07
20
-9.614187845873472
0
LWPOLYLINE
5
115
100
AcDbEntity
8
0
100
AcDbPolyline
90
8
70
1
43
0.0
10
-158.75000028658576
20
362.85093902089073
10
-206.3750002865857
20
362.85093902089091
42
0.41421356237310814
10
-207.96250028658562
20
361.26343902089081
10
-207.96250028658565
20
358.08843902088881
42
0.41421356237308843
10
-206.37500028658607
20
356.50093902088929
10
-158.75000028658536
20
356.50093902088918
42
0.41421356237310814
10
-157.16250028658578
20
358.08843902088887
10
-157.16250028658592
20
361.26343902089093
42
0.41421356237310814
0
LWPOLYLINE
5
116
100
AcDbEntity
8
0
100
AcDbPolyline
90
10
70
1
43
0.0
10
-635.00000028659451
20
-176.86432577479314
10
-635.00000028659451
20
-192.73932577479317
42
-0.41421356237309392
10
-644.5250002865946
20
-202.26432577479315
10
-736.60000028659454
20
-202.26432577479306
10
-736.60000028659465
20
388.25093902089208
10
25.399999713414303
20
388.25093902089066
10
25.39999971341431
20
-202.26432577479312
10
-66.675000286585757
20
-202.26432577479306
42
-0.41421356237309587
10
-76.200000286585734
20
-192.73932577479312
10
-76.200000286585734
20
-176.86432577479312
0
ENDSEC
0
SECTION
2
OBJECTS
0
DICTIONARY
5
C
100
AcDbDictionary
3
ACAD_GROUP
350
D
3
ACAD_MLINESTYLE
350
17
0
DICTIONARY
5
D
100
AcDbDictionary
0
DICTIONARY
5
1A
330
C
100
AcDbDictionary
0
DICTIONARY
5
17
100
AcDbDictionary
0
ENDSEC
0
EOF
