  0
SECTION
  2
HEADER
  9
$ACADVER
  1
AC1009
  9
$DWGCODEPAGE
  3
ansi_1252
  9
$INSBASE
 10
0.0
 20
0.0
 30
0.0
  9
$EXTMIN
 10
0.0000000000000053
 20
0.0000000000000004
 30
0.0
  9
$EXTMAX
 10
90.64262
 20
44.56365
 30
0.0
  9
$LIMMIN
 10
0.0
 20
0.0
  9
$LIMMAX
 10
12.0
 20
9.0
  9
$ORTHOMODE
 70
     0
  9
$REGENMODE
 70
     1
  9
$FILLMODE
 70
     1
  9
$QTEXTMODE
 70
     0
  9
$MIRRTEXT
 70
     1
  9
$DRAGMODE
 70
     2
  9
$LTSCALE
 40
1.0
  9
$OSMODE
 70
    37
  9
$ATTMODE
 70
     1
  9
$TEXTSIZE
 40
0.2
  9
$TRACEWID
 40
0.05
  9
$TEXTSTYLE
  7
STANDARD
  9
$CLAYER
  8
0
  9
$CELTYPE
  6
BYLAYER
  9
$CECOLOR
 62
   256
  9
$DIMSCALE
 40
1.0
  9
$DIMASZ
 40
0.18
  9
$DIMEXO
 40
0.0625
  9
$DIMDLI
 40
0.38
  9
$DIMRND
 40
0.0
  9
$DIMDLE
 40
0.0
  9
$DIMEXE
 40
0.18
  9
$DIMTP
 40
0.0
  9
$DIMTM
 40
0.0
  9
$DIMTXT
 40
0.18
  9
$DIMCEN
 40
0.09
  9
$DIMTSZ
 40
0.0
  9
$DIMTOL
 70
     0
  9
$DIMLIM
 70
     0
  9
$DIMTIH
 70
     1
  9
$DIMTOH
 70
     1
  9
$DIMSE1
 70
     0
  9
$DIMSE2
 70
     0
  9
$DIMTAD
 70
     0
  9
$DIMZIN
 70
     0
  9
$DIMBLK
  1

  9
$DIMASO
 70
     1
  9
$DIMSHO
 70
     1
  9
$DIMPOST
  1

  9
$DIMAPOST
  1

  9
$DIMALT
 70
     0
  9
$DIMALTD
 70
     2
  9
$DIMALTF
 40
25.4
  9
$DIMLFAC
 40
1.0
  9
$DIMTOFL
 70
     0
  9
$DIMTVP
 40
0.0
  9
$DIMTIX
 70
     0
  9
$DIMSOXD
 70
     0
  9
$DIMSAH
 70
     0
  9
$DIMBLK1
  1

  9
$DIMBLK2
  1

  9
$DIMSTYLE
  2
STANDARD
  9
$DIMCLRD
 70
     0
  9
$DIMCLRE
 70
     0
  9
$DIMCLRT
 70
     0
  9
$DIMTFAC
 40
1.0
  9
$DIMGAP
 40
0.09
  9
$LUNITS
 70
     2
  9
$LUPREC
 70
     4
  9
$SKETCHINC
 40
0.1
  9
$FILLETRAD
 40
0.5
  9
$AUNITS
 70
     0
  9
$AUPREC
 70
     0
  9
$MENU
  1
.
  9
$ELEVATION
 40
0.0
  9
$PELEVATION
 40
0.0
  9
$THICKNESS
 40
0.0
  9
$LIMCHECK
 70
     0
  9
$CHAMFERA
 40
0.0
  9
$CHAMFERB
 40
0.0
  9
$SKPOLY
 70
     0
  9
$TDCREATE
 40
2454910.5
  9
$TDUPDATE
 40
2459293.661540926
  9
$TDINDWG
 40
0.0000000116
  9
$TDUSRTIMER
 40
0.0000000116
  9
$USRTIMER
 70
     1
  9
$ANGBASE
 50
0.0
  9
$ANGDIR
 70
     0
  9
$PDMODE
 70
     0
  9
$PDSIZE
 40
0.0
  9
$PLINEWID
 40
0.0
  9
$COORDS
 70
     1
  9
$SPLFRAME
 70
     0
  9
$SPLINETYPE
 70
     6
  9
$SPLINESEGS
 70
     8
  9
$ATTDIA
 70
     0
  9
$ATTREQ
 70
     1
  9
$HANDLING
 70
     1
  9
$HANDSEED
  5
C0B
  9
$SURFTAB1
 70
     6
  9
$SURFTAB2
 70
     6
  9
$SURFTYPE
 70
     6
  9
$SURFU
 70
     6
  9
$SURFV
 70
     6
  9
$UCSNAME
  2

  9
$UCSORG
 10
0.0
 20
0.0
 30
0.0
  9
$UCSXDIR
 10
1.0
 20
0.0
 30
0.0
  9
$UCSYDIR
 10
0.0
 20
1.0
 30
0.0
  9
$PUCSNAME
  2

  9
$PUCSORG
 10
0.0
 20
0.0
 30
0.0
  9
$PUCSXDIR
 10
1.0
 20
0.0
 30
0.0
  9
$PUCSYDIR
 10
0.0
 20
1.0
 30
0.0
  9
$USERI1
 70
     0
  9
$USERI2
 70
     0
  9
$USERI3
 70
     0
  9
$USERI4
 70
     0
  9
$USERI5
 70
     0
  9
$USERR1
 40
0.0
  9
$USERR2
 40
0.0
  9
$USERR3
 40
0.0
  9
$USERR4
 40
0.0
  9
$USERR5
 40
0.0
  9
$WORLDVIEW
 70
     1
  9
$SHADEDGE
 70
     3
  9
$SHADEDIF
 70
    70
  9
$TILEMODE
 70
     1
  9
$MAXACTVP
 70
    64
  9
$PLIMCHECK
 70
     0
  9
$PEXTMIN
 10
1.000000000000000E+20
 20
1.000000000000000E+20
 30
1.000000000000000E+20
  9
$PEXTMAX
 10
-1.000000000000000E+20
 20
-1.000000000000000E+20
 30
-1.000000000000000E+20
  9
$PLIMMIN
 10
0.0
 20
0.0
  9
$PLIMMAX
 10
12.0
 20
9.0
  9
$UNITMODE
 70
     0
  9
$VISRETAIN
 70
     1
  9
$PLINEGEN
 70
     0
  9
$PSLTSCALE
 70
     1
  0
ENDSEC
  0
SECTION
  2
TABLES
  0
TABLE
  2
VPORT
 70
     1
  0
VPORT
  2
*ACTIVE
 70
     0
 10
0.0
 20
0.0
 11
1.0
 21
1.0
 12
10.42990654205607
 22
4.5
 13
0.0
 23
0.0
 14
0.5
 24
0.5
 15
0.5
 25
0.5
 16
0.0
 26
0.0
 36
1.0
 17
0.0
 27
0.0
 37
0.0
 40
9.0
 41
1.972972972850329
 42
50.0
 43
0.0
 44
0.0
 50
0.0
 51
0.0
 71
     0
 72
   100
 73
     1
 74
     3
 75
     0
 76
     0
 77
     0
 78
     0
  0
ENDTAB
  0
TABLE
  2
LTYPE
 70
     2
  0
LTYPE
  2
CONTINUOUS
 70
     0
  3
Solid line
 72
    65
 73
     0
 40
0.0
  0
LTYPE
  2
CONTINUOUS2
 70
     0
  3
Solid Line
 72
    65
 73
     0
 40
0.0
  0
ENDTAB
  0
TABLE
  2
LAYER
 70
     1
  0
LAYER
  2
0
 70
     0
 62
     7
  6
CONTINUOUS
  0
ENDTAB
  0
TABLE
  2
STYLE
 70
     1
  0
STYLE
  2
STANDARD
 70
     0
 40
0.0
 41
1.0
 50
0.0
 71
     0
 42
0.2
  3
txt
  4

  0
ENDTAB
  0
TABLE
  2
VIEW
 70
     0
  0
ENDTAB
  0
TABLE
  2
UCS
 70
     0
  0
ENDTAB
  0
TABLE
  2
APPID
 70
     1
  0
APPID
  2
ACAD
 70
     0
  0
ENDTAB
  0
TABLE
  2
DIMSTYLE
 70
     1
  0
DIMSTYLE
  2
STANDARD
 70
     0
  3

  4

  5

  6

  7

 40
1.0
 41
0.18
 42
0.0625
 43
0.38
 44
0.18
 45
0.0
 46
0.0
 47
0.0
 48
0.0
140
0.18
141
0.09
142
0.0
143
25.4
144
1.0
145
0.0
146
1.0
147
0.09
 71
     0
 72
     0
 73
     1
 74
     1
 75
     0
 76
     0
 77
     0
 78
     0
170
     0
171
     2
172
     0
173
     0
174
     0
175
     0
176
     0
177
     0
178
     0
  0
ENDTAB
  0
ENDSEC
  0
SECTION
  2
BLOCKS
  0
BLOCK
  8
0
  2
$MODEL_SPACE
 70
     0
 10
0.0
 20
0.0
 30
0.0
  3
$MODEL_SPACE
  1

  0
ENDBLK
  5
21
  8
0
  0
BLOCK
 67
     1
  8
0
  2
$PAPER_SPACE
 70
     0
 10
0.0
 20
0.0
 30
0.0
  3
$PAPER_SPACE
  1

  0
ENDBLK
  5
1D
 67
     1
  8
0
  0
ENDSEC
  0
SECTION
  2
ENTITIES
  0
POLYLINE
  5
6F
  8
0
 66
     1
 10
0.0
 20
0.0
 30
0.0
 70
     1
  0
VERTEX
  5
B8
  8
0
 10
36.48992000000001
 20
36.5709625984252
 30
0.0
  0
VERTEX
  5
B9
  8
0
 10
36.48992000000001
 20
35.6073374015748
 30
0.0
 42
-1.0
  0
VERTEX
  5
BA
  8
0
 10
36.48992000000001
 20
35.35655
 30
0.0
  0
VERTEX
  5
BB
  8
0
 10
35.75742
 20
35.35655
 30
0.0
 42
-1.0
  0
VERTEX
  5
BC
  8
0
 10
35.75738576748577
 20
35.60733739923842
 30
0.0
  0
VERTEX
  5
BD
  8
0
 10
35.75725423251424
 20
36.57096260076158
 30
0.0
 42
-1.0
  0
VERTEX
  5
BE
  8
0
 10
35.75722
 20
36.82175
 30
0.0
  0
VERTEX
  5
BF
  8
0
 10
36.48992000000001
 20
36.82175
 30
0.0
 42
-1.0
  0
SEQEND
  5
BC9
  8
0
  0
POLYLINE
  5
70
  8
0
 66
     1
 10
0.0
 20
0.0
 30
0.0
 70
     1
  0
VERTEX
  5
C0
  8
0
 10
36.48992000000001
 20
38.85655
 30
0.0
  0
VERTEX
  5
C1
  8
0
 10
35.75742
 20
38.85655
 30
0.0
 42
-1.0
  0
VERTEX
  5
C2
  8
0
 10
35.75738576748577
 20
39.10733739923842
 30
0.0
  0
VERTEX
  5
C3
  8
0
 10
35.75725423251424
 20
40.07096260076158
 30
0.0
 42
-1.0
  0
VERTEX
  5
C4
  8
0
 10
35.75722
 20
40.32175
 30
0.0
  0
VERTEX
  5
C5
  8
0
 10
36.48992000000003
 20
40.32175000000002
 30
0.0
 42
-1.0
  0
VERTEX
  5
C6
  8
0
 10
36.48992000000003
 20
40.07096259842523
 30
0.0
  0
VERTEX
  5
C7
  8
0
 10
36.48992000000001
 20
39.1073374015748
 30
0.0
 42
-1.0
  0
SEQEND
  5
BCA
  8
0
  0
POLYLINE
  5
71
  8
0
 66
     1
 10
0.0
 20
0.0
 30
0.0
 70
     1
  0
VERTEX
  5
C8
  8
0
 10
36.48992000000001
 20
31.85655
 30
0.0
  0
VERTEX
  5
C9
  8
0
 10
35.75742
 20
31.85655
 30
0.0
 42
-1.0
  0
VERTEX
  5
CA
  8
0
 10
35.75738576748577
 20
32.10733739923842
 30
0.0
  0
VERTEX
  5
CB
  8
0
 10
35.75725423251424
 20
33.07096260076158
 30
0.0
 42
-1.0
  0
VERTEX
  5
CC
  8
0
 10
35.75722
 20
33.32175
 30
0.0
  0
VERTEX
  5
CD
  8
0
 10
36.48992000000001
 20
33.32175
 30
0.0
 42
-1.0
  0
VERTEX
  5
CE
  8
0
 10
36.48992000000001
 20
33.0709625984252
 30
0.0
  0
VERTEX
  5
CF
  8
0
 10
36.48992000000001
 20
32.1073374015748
 30
0.0
 42
-1.0
  0
SEQEND
  5
BCB
  8
0
  0
POLYLINE
  5
72
  8
0
 66
     1
 10
0.0
 20
0.0
 30
0.0
 70
     1
  0
VERTEX
  5
D0
  8
0
 10
89.64262
 20
37.77955
 30
0.0
  0
VERTEX
  5
D1
  8
0
 10
89.64262
 20
38.51205
 30
0.0
 42
1.0
  0
VERTEX
  5
D2
  8
0
 10
89.3918325984252
 20
38.51205
 30
0.0
  0
VERTEX
  5
D3
  8
0
 10
88.89340740157479
 20
38.51205
 30
0.0
 42
1.0
  0
VERTEX
  5
D4
  8
0
 10
88.64262
 20
38.51205
 30
0.0
  0
VERTEX
  5
D5
  8
0
 10
88.64262
 20
37.77955
 30
0.0
 42
1.0
  0
VERTEX
  5
D6
  8
0
 10
88.89340740157479
 20
37.77955
 30
0.0
  0
VERTEX
  5
D7
  8
0
 10
89.3918325984252
 20
37.77955
 30
0.0
 42
1.0
  0
SEQEND
  5
BCC
  8
0
  0
POLYLINE
  5
73
  8
0
 66
     1
 10
0.0
 20
0.0
 30
0.0
 70
     1
  0
VERTEX
  5
D8
  8
0
 10
78.96672000000001
 20
37.26195
 30
0.0
  0
VERTEX
  5
D9
  8
0
 10
78.96672000000001
 20
38.02925
 30
0.0
  0
VERTEX
  5
DA
  8
0
 10
78.96672000000001
 20
38.06625
 30
0.0
  0
VERTEX
  5
DB
  8
0
 10
78.98151999999999
 20
38.17695
 30
0.0
  0
VERTEX
  5
DC
  8
0
 10
79.02431999999999
 20
38.31455
 30
0.0
  0
VERTEX
  5
DD
  8
0
 10
79.09182000000001
 20
38.43905
 30
0.0
  0
VERTEX
  5
DE
  8
0
 10
79.18122
 20
38.54735
 30
0.0
  0
VERTEX
  5
DF
  8
0
 10
79.28962000000001
 20
38.63675
 30
0.0
  0
VERTEX
  5
E0
  8
0
 10
79.41422
 20
38.70445
 30
0.0
  0
VERTEX
  5
E1
  8
0
 10
79.55152000000001
 20
38.74705
 30
0.0
  0
VERTEX
  5
E2
  8
0
 10
79.66242
 20
38.76195
 30
0.0
  0
VERTEX
  5
E3
  8
0
 10
79.69932
 20
38.76195
 30
0.0
  0
VERTEX
  5
E4
  8
0
 10
79.69932
 20
38.01195
 30
0.0
 42
1.0
  0
VERTEX
  5
E5
  8
0
 10
79.9501074015748
 20
38.01195
 30
0.0
  0
VERTEX
  5
E6
  8
0
 10
80.83312000000001
 20
38.01195
 30
0.0
  0
VERTEX
  5
E7
  8
0
 10
80.85141999999999
 20
38.01195
 30
0.0
  0
VERTEX
  5
E8
  8
0
 10
80.90682000000001
 20
38.00455
 30
0.0
  0
VERTEX
  5
E9
  8
0
 10
80.97551999999999
 20
37.98315
 30
0.0
  0
VERTEX
  5
EA
  8
0
 10
81.03782000000001
 20
37.94945
 30
0.0
  0
VERTEX
  5
EB
  8
0
 10
81.09191999999999
 20
37.90475
 30
0.0
  0
VERTEX
  5
EC
  8
0
 10
81.13672
 20
37.85055
 30
0.0
  0
VERTEX
  5
ED
  8
0
 10
81.17042000000001
 20
37.78815
 30
0.0
  0
VERTEX
  5
EE
  8
0
 10
81.19182
 20
37.71945
 30
0.0
  0
VERTEX
  5
EF
  8
0
 10
81.19932
 20
37.66415
 30
0.0
  0
VERTEX
  5
F0
  8
0
 10
81.19932
 20
37.64565
 30
0.0
  0
VERTEX
  5
F1
  8
0
 10
81.19932
 20
37.62725
 30
0.0
  0
VERTEX
  5
F2
  8
0
 10
81.19182
 20
37.57175
 30
0.0
  0
VERTEX
  5
F3
  8
0
 10
81.17042000000001
 20
37.50305
 30
0.0
  0
VERTEX
  5
F4
  8
0
 10
81.13672
 20
37.44085
 30
0.0
  0
VERTEX
  5
F5
  8
0
 10
81.09191999999999
 20
37.38665
 30
0.0
  0
VERTEX
  5
F6
  8
0
 10
81.03782000000001
 20
37.34195
 30
0.0
  0
VERTEX
  5
F7
  8
0
 10
80.97551999999999
 20
37.30805
 30
0.0
  0
VERTEX
  5
F8
  8
0
 10
80.90682000000001
 20
37.28675
 30
0.0
  0
VERTEX
  5
F9
  8
0
 10
80.85141999999999
 20
37.27925
 30
0.0
  0
VERTEX
  5
FA
  8
0
 10
80.83312000000001
 20
37.27925
 30
0.0
  0
VERTEX
  5
FB
  8
0
 10
79.9501074015748
 20
37.27925
 30
0.0
 42
1.0
  0
VERTEX
  5
FC
  8
0
 10
79.69932
 20
37.27925
 30
0.0
  0
VERTEX
  5
FD
  8
0
 10
79.69932
 20
36.52925
 30
0.0
  0
VERTEX
  5
FE
  8
0
 10
79.66242
 20
36.52925
 30
0.0
  0
VERTEX
  5
FF
  8
0
 10
79.55152000000001
 20
36.54415
 30
0.0
  0
VERTEX
  5
100
  8
0
 10
79.41422
 20
36.58695
 30
0.0
  0
VERTEX
  5
101
  8
0
 10
79.28962000000001
 20
36.65445
 30
0.0
  0
VERTEX
  5
102
  8
0
 10
79.18122
 20
36.74385
 30
0.0
  0
VERTEX
  5
103
  8
0
 10
79.09182000000001
 20
36.85235
 30
0.0
  0
VERTEX
  5
104
  8
0
 10
79.02431999999999
 20
36.97675
 30
0.0
  0
VERTEX
  5
105
  8
0
 10
78.98151999999999
 20
37.11425
 30
0.0
  0
VERTEX
  5
106
  8
0
 10
78.96672000000001
 20
37.22495
 30
0.0
  0
SEQEND
  5
BCD
  8
0
  0
POLYLINE
  5
74
  8
0
 66
     1
 10
0.0
 20
0.0
 30
0.0
 70
     1
  0
VERTEX
  5
107
  8
0
 10
83.49011999999999
 20
34.07745
 30
0.0
  0
VERTEX
  5
108
  8
0
 10
82.74011999999999
 20
34.08265
 30
0.0
 42
1.0
  0
VERTEX
  5
109
  8
0
 10
82.73837231795697
 20
33.83186868810432
 30
0.0
  0
VERTEX
  5
10A
  8
0
 10
82.73222000000001
 20
32.94905
 30
0.0
  0
VERTEX
  5
10B
  8
0
 10
82.73212000000001
 20
32.93055
 30
0.0
  0
VERTEX
  5
10C
  8
0
 10
82.72422
 20
32.87525
 30
0.0
  0
VERTEX
  5
10D
  8
0
 10
82.70241999999999
 20
32.80665
 30
0.0
  0
VERTEX
  5
10E
  8
0
 10
82.66821999999999
 20
32.74455
 30
0.0
  0
VERTEX
  5
10F
  8
0
 10
82.62322
 20
32.69085
 30
0.0
  0
VERTEX
  5
110
  8
0
 10
82.56862000000001
 20
32.64635
 30
0.0
  0
VERTEX
  5
111
  8
0
 10
82.50612000000001
 20
32.61305
 30
0.0
  0
VERTEX
  5
112
  8
0
 10
82.43722
 20
32.59225
 30
0.0
  0
VERTEX
  5
113
  8
0
 10
82.38182
 20
32.58515
 30
0.0
  0
VERTEX
  5
114
  8
0
 10
82.36331999999999
 20
32.58525
 30
0.0
  0
VERTEX
  5
115
  8
0
 10
82.34502
 20
32.58545
 30
0.0
  0
VERTEX
  5
116
  8
0
 10
82.28962000000001
 20
32.59315
 30
0.0
  0
VERTEX
  5
117
  8
0
 10
82.22102000000001
 20
32.61495
 30
0.0
  0
VERTEX
  5
118
  8
0
 10
82.15902
 20
32.64925
 30
0.0
  0
VERTEX
  5
119
  8
0
 10
82.10512
 20
32.69425
 30
0.0
  0
VERTEX
  5
11A
  8
0
 10
82.06072
 20
32.74885
 30
0.0
  0
VERTEX
  5
11B
  8
0
 10
82.02742
 20
32.81135
 30
0.0
  0
VERTEX
  5
11C
  8
0
 10
82.00652
 20
32.88025
 30
0.0
  0
VERTEX
  5
11D
  8
0
 10
81.99942000000001
 20
32.93565
 30
0.0
  0
VERTEX
  5
11E
  8
0
 10
81.99972
 20
32.95415
 30
0.0
  0
VERTEX
  5
11F
  8
0
 10
82.00579443946043
 20
33.83696853491642
 30
0.0
 42
1.0
  0
VERTEX
  5
120
  8
0
 10
82.00752
 20
34.08775
 30
0.0
  0
VERTEX
  5
121
  8
0
 10
81.25762
 20
34.09305
 30
0.0
  0
VERTEX
  5
122
  8
0
 10
81.25782000000001
 20
34.12995
 30
0.0
  0
VERTEX
  5
123
  8
0
 10
81.27351999999999
 20
34.24055
 30
0.0
  0
VERTEX
  5
124
  8
0
 10
81.31711999999999
 20
34.37775
 30
0.0
  0
VERTEX
  5
125
  8
0
 10
81.38561999999999
 20
34.50175
 30
0.0
  0
VERTEX
  5
126
  8
0
 10
81.47572
 20
34.60955
 30
0.0
  0
VERTEX
  5
127
  8
0
 10
81.58472
 20
34.69815
 30
0.0
  0
VERTEX
  5
128
  8
0
 10
81.70962
 20
34.76495
 30
0.0
  0
VERTEX
  5
129
  8
0
 10
81.84742
 20
34.80665
 30
0.0
  0
VERTEX
  5
12A
  8
0
 10
81.95832000000001
 20
34.82065
 30
0.0
  0
VERTEX
  5
12B
  8
0
 10
81.99531999999999
 20
34.82055
 30
0.0
  0
VERTEX
  5
12C
  8
0
 10
82.76262
 20
34.81515
 30
0.0
  0
VERTEX
  5
12D
  8
0
 10
82.79962
 20
34.81485
 30
0.0
  0
VERTEX
  5
12E
  8
0
 10
82.91012
 20
34.79915
 30
0.0
  0
VERTEX
  5
12F
  8
0
 10
83.04741999999999
 20
34.75555
 30
0.0
  0
VERTEX
  5
130
  8
0
 10
83.17142000000001
 20
34.68725
 30
0.0
  0
VERTEX
  5
131
  8
0
 10
83.27922000000001
 20
34.59695
 30
0.0
  0
VERTEX
  5
132
  8
0
 10
83.36782
 20
34.48795
 30
0.0
  0
VERTEX
  5
133
  8
0
 10
83.43441999999999
 20
34.36305
 30
0.0
  0
VERTEX
  5
134
  8
0
 10
83.47622000000001
 20
34.22525
 30
0.0
  0
VERTEX
  5
135
  8
0
 10
83.49032
 20
34.11445
 30
0.0
  0
SEQEND
  5
BCE
  8
0
  0
POLYLINE
  5
75
  8
0
 66
     1
 10
0.0
 20
0.0
 30
0.0
 70
     1
  0
VERTEX
  5
136
  8
0
 10
69.35362
 20
41.65525
 30
0.0
  0
VERTEX
  5
137
  8
0
 10
69.35362
 20
42.15525
 30
0.0
 42
1.0
  0
VERTEX
  5
138
  8
0
 10
69.10283259842521
 20
42.15525
 30
0.0
  0
VERTEX
  5
139
  8
0
 10
68.62102000000002
 20
42.15525
 30
0.0
  0
VERTEX
  5
13A
  8
0
 10
68.62102000000002
 20
42.53905
 30
0.0
  0
VERTEX
  5
13B
  8
0
 10
69.75471999999999
 20
42.53905
 30
0.0
  0
VERTEX
  5
13C
  8
0
 10
69.77322000000001
 20
42.53905
 30
0.0
  0
VERTEX
  5
13D
  8
0
 10
69.82852
 20
42.54635
 30
0.0
  0
VERTEX
  5
13E
  8
0
 10
69.89722
 20
42.56775
 30
0.0
  0
VERTEX
  5
13F
  8
0
 10
69.95942
 20
42.60155
 30
0.0
  0
VERTEX
  5
140
  8
0
 10
70.01362
 20
42.64625
 30
0.0
  0
VERTEX
  5
141
  8
0
 10
70.05832000000001
 20
42.70045
 30
0.0
  0
VERTEX
  5
142
  8
0
 10
70.09222
 20
42.76275
 30
0.0
  0
VERTEX
  5
143
  8
0
 10
70.11352
 20
42.83155
 30
0.0
  0
VERTEX
  5
144
  8
0
 10
70.12102000000002
 20
42.88675
 30
0.0
  0
VERTEX
  5
145
  8
0
 10
70.12102000000002
 20
42.90525
 30
0.0
  0
VERTEX
  5
146
  8
0
 10
70.12102000000002
 20
42.92375
 30
0.0
  0
VERTEX
  5
147
  8
0
 10
70.11352
 20
42.97915
 30
0.0
  0
VERTEX
  5
148
  8
0
 10
70.09222
 20
43.04795
 30
0.0
  0
VERTEX
  5
149
  8
0
 10
70.05832000000001
 20
43.11015
 30
0.0
  0
VERTEX
  5
14A
  8
0
 10
70.01362
 20
43.16425
 30
0.0
  0
VERTEX
  5
14B
  8
0
 10
69.95942
 20
43.20905
 30
0.0
  0
VERTEX
  5
14C
  8
0
 10
69.89722
 20
43.24275
 30
0.0
  0
VERTEX
  5
14D
  8
0
 10
69.82852
 20
43.26415
 30
0.0
  0
VERTEX
  5
14E
  8
0
 10
69.77322000000001
 20
43.27155
 30
0.0
  0
VERTEX
  5
14F
  8
0
 10
69.75471999999999
 20
43.27155
 30
0.0
  0
VERTEX
  5
150
  8
0
 10
68.62102000000002
 20
43.27165
 30
0.0
  0
VERTEX
  5
151
  8
0
 10
68.62102000000002
 20
43.65525
 30
0.0
  0
VERTEX
  5
152
  8
0
 10
69.10283259842521
 20
43.65525
 30
0.0
 42
1.0
  0
VERTEX
  5
153
  8
0
 10
69.35362
 20
43.65525
 30
0.0
  0
VERTEX
  5
154
  8
0
 10
69.35362
 20
44.15525
 30
0.0
  0
VERTEX
  5
155
  8
0
 10
87.88832
 20
44.15515
 30
0.0
  0
VERTEX
  5
156
  8
0
 10
87.88832
 20
43.65515
 30
0.0
 42
1.0
  0
VERTEX
  5
157
  8
0
 10
88.13910740157479
 20
43.65515
 30
0.0
  0
VERTEX
  5
158
  8
0
 10
88.62102000000002
 20
43.65515
 30
0.0
  0
VERTEX
  5
159
  8
0
 10
88.62102000000002
 20
43.27135
 30
0.0
  0
VERTEX
  5
15A
  8
0
 10
87.48742000000001
 20
43.27135
 30
0.0
  0
VERTEX
  5
15B
  8
0
 10
87.46871999999999
 20
43.27135
 30
0.0
  0
VERTEX
  5
15C
  8
0
 10
87.41352
 20
43.26405
 30
0.0
  0
VERTEX
  5
15D
  8
0
 10
87.34472
 20
43.24265
 30
0.0
  0
VERTEX
  5
15E
  8
0
 10
87.28252
 20
43.20885
 30
0.0
  0
VERTEX
  5
15F
  8
0
 10
87.22822
 20
43.16415
 30
0.0
  0
VERTEX
  5
160
  8
0
 10
87.18352000000002
 20
43.10995
 30
0.0
  0
VERTEX
  5
161
  8
0
 10
87.14972
 20
43.04775
 30
0.0
  0
VERTEX
  5
162
  8
0
 10
87.12852000000001
 20
42.97905
 30
0.0
  0
VERTEX
  5
163
  8
0
 10
87.12102000000002
 20
42.92355
 30
0.0
  0
VERTEX
  5
164
  8
0
 10
87.12102000000002
 20
42.90515
 30
0.0
  0
VERTEX
  5
165
  8
0
 10
87.12102000000002
 20
42.88665
 30
0.0
  0
VERTEX
  5
166
  8
0
 10
87.12852000000001
 20
42.83135
 30
0.0
  0
VERTEX
  5
167
  8
0
 10
87.14972
 20
42.76265
 30
0.0
  0
VERTEX
  5
168
  8
0
 10
87.18352000000002
 20
42.70045
 30
0.0
  0
VERTEX
  5
169
  8
0
 10
87.22822
 20
42.64615
 30
0.0
  0
VERTEX
  5
16A
  8
0
 10
87.28252
 20
42.60155
 30
0.0
  0
VERTEX
  5
16B
  8
0
 10
87.34472
 20
42.56765
 30
0.0
  0
VERTEX
  5
16C
  8
0
 10
87.41352
 20
42.54635
 30
0.0
  0
VERTEX
  5
16D
  8
0
 10
87.46871999999999
 20
42.53885
 30
0.0
  0
VERTEX
  5
16E
  8
0
 10
87.48742000000001
 20
42.53885
 30
0.0
  0
VERTEX
  5
16F
  8
0
 10
88.62102000000002
 20
42.53885
 30
0.0
  0
VERTEX
  5
170
  8
0
 10
88.62102000000002
 20
42.15515
 30
0.0
  0
VERTEX
  5
171
  8
0
 10
88.13910740157479
 20
42.15515
 30
0.0
 42
1.0
  0
VERTEX
  5
172
  8
0
 10
87.88832
 20
42.15515
 30
0.0
  0
VERTEX
  5
173
  8
0
 10
87.88832
 20
41.65515
 30
0.0
  0
SEQEND
  5
BCF
  8
0
  0
POLYLINE
  5
76
  8
0
 66
     1
 10
0.0
 20
0.0
 30
0.0
 70
     1
  0
VERTEX
  5
174
  8
0
 10
72.20302000000001
 20
37.17625
 30
0.0
  0
VERTEX
  5
175
  8
0
 10
72.20302000000001
 20
37.13945
 30
0.0
  0
VERTEX
  5
176
  8
0
 10
72.21791999999999
 20
37.02865
 30
0.0
  0
VERTEX
  5
177
  8
0
 10
72.26061999999999
 20
36.89115
 30
0.0
  0
VERTEX
  5
178
  8
0
 10
72.32821999999999
 20
36.76665
 30
0.0
  0
VERTEX
  5
179
  8
0
 10
72.41762
 20
36.65835
 30
0.0
  0
VERTEX
  5
17A
  8
0
 10
72.52601999999999
 20
36.56875
 30
0.0
  0
VERTEX
  5
17B
  8
0
 10
72.65062
 20
36.50125
 30
0.0
  0
VERTEX
  5
17C
  8
0
 10
72.78792000000001
 20
36.45865
 30
0.0
  0
VERTEX
  5
17D
  8
0
 10
72.89872
 20
36.44375
 30
0.0
  0
VERTEX
  5
17E
  8
0
 10
72.93572
 20
36.44375
 30
0.0
  0
VERTEX
  5
17F
  8
0
 10
72.93572
 20
37.19375
 30
0.0
 42
-1.0
  0
VERTEX
  5
180
  8
0
 10
73.1865074015748
 20
37.19375
 30
0.0
  0
VERTEX
  5
181
  8
0
 10
74.06942000000001
 20
37.19375
 30
0.0
  0
VERTEX
  5
182
  8
0
 10
74.08782
 20
37.19375
 30
0.0
  0
VERTEX
  5
183
  8
0
 10
74.14322000000001
 20
37.20125
 30
0.0
  0
VERTEX
  5
184
  8
0
 10
74.21191999999999
 20
37.22245
 30
0.0
  0
VERTEX
  5
185
  8
0
 10
74.27422000000001
 20
37.25625
 30
0.0
  0
VERTEX
  5
186
  8
0
 10
74.32831999999999
 20
37.30095
 30
0.0
  0
VERTEX
  5
187
  8
0
 10
74.37312
 20
37.35525
 30
0.0
  0
VERTEX
  5
188
  8
0
 10
74.40682000000001
 20
37.41745
 30
0.0
  0
VERTEX
  5
189
  8
0
 10
74.42822000000001
 20
37.48605
 30
0.0
  0
VERTEX
  5
18A
  8
0
 10
74.43572
 20
37.54155
 30
0.0
  0
VERTEX
  5
18B
  8
0
 10
74.43572
 20
37.55995
 30
0.0
  0
VERTEX
  5
18C
  8
0
 10
74.43572
 20
37.57845
 30
0.0
  0
VERTEX
  5
18D
  8
0
 10
74.42822000000001
 20
37.63375
 30
0.0
  0
VERTEX
  5
18E
  8
0
 10
74.40682000000001
 20
37.70265
 30
0.0
  0
VERTEX
  5
18F
  8
0
 10
74.37312
 20
37.76485
 30
0.0
  0
VERTEX
  5
190
  8
0
 10
74.32831999999999
 20
37.81905
 30
0.0
  0
VERTEX
  5
191
  8
0
 10
74.27422000000001
 20
37.86375
 30
0.0
  0
VERTEX
  5
192
  8
0
 10
74.21191999999999
 20
37.89745
 30
0.0
  0
VERTEX
  5
193
  8
0
 10
74.14322000000001
 20
37.91885
 30
0.0
  0
VERTEX
  5
194
  8
0
 10
74.08782
 20
37.92625
 30
0.0
  0
VERTEX
  5
195
  8
0
 10
74.06942000000001
 20
37.92625
 30
0.0
  0
VERTEX
  5
196
  8
0
 10
73.1865074015748
 20
37.92625
 30
0.0
 42
-1.0
  0
VERTEX
  5
197
  8
0
 10
72.93572
 20
37.92625
 30
0.0
  0
VERTEX
  5
198
  8
0
 10
72.93572
 20
38.67625
 30
0.0
  0
VERTEX
  5
199
  8
0
 10
72.89872
 20
38.67625
 30
0.0
  0
VERTEX
  5
19A
  8
0
 10
72.78792000000001
 20
38.66135
 30
0.0
  0
VERTEX
  5
19B
  8
0
 10
72.65062
 20
38.61875
 30
0.0
  0
VERTEX
  5
19C
  8
0
 10
72.52601999999999
 20
38.55105
 30
0.0
  0
VERTEX
  5
19D
  8
0
 10
72.41762
 20
38.46165
 30
0.0
  0
VERTEX
  5
19E
  8
0
 10
72.32821999999999
 20
38.35335
 30
0.0
  0
VERTEX
  5
19F
  8
0
 10
72.26061999999999
 20
38.22885
 30
0.0
  0
VERTEX
  5
1A0
  8
0
 10
72.21791999999999
 20
38.09135
 30
0.0
  0
VERTEX
  5
1A1
  8
0
 10
72.20302000000001
 20
37.98065
 30
0.0
  0
VERTEX
  5
1A2
  8
0
 10
72.20302000000001
 20
37.94375
 30
0.0
  0
SEQEND
  5
BD0
  8
0
  0
POLYLINE
  5
77
  8
0
 66
     1
 10
0.0
 20
0.0
 30
0.0
 70
     1
  0
VERTEX
  5
1A3
  8
0
 10
65.91962000000001
 20
37.38085
 30
0.0
  0
VERTEX
  5
1A4
  8
0
 10
65.92501999999999
 20
38.14815
 30
0.0
  0
VERTEX
  5
1A5
  8
0
 10
65.92511999999999
 20
38.18515
 30
0.0
  0
VERTEX
  5
1A6
  8
0
 10
65.94082
 20
38.29565
 30
0.0
  0
VERTEX
  5
1A7
  8
0
 10
65.98442
 20
38.43295
 30
0.0
  0
VERTEX
  5
1A8
  8
0
 10
66.05292
 20
38.55675
 30
0.0
  0
VERTEX
  5
1A9
  8
0
 10
66.14312000000001
 20
38.66475
 30
0.0
  0
VERTEX
  5
1AA
  8
0
 10
66.25222
 20
38.75335
 30
0.0
  0
VERTEX
  5
1AB
  8
0
 10
66.37711999999999
 20
38.81995
 30
0.0
  0
VERTEX
  5
1AC
  8
0
 10
66.51491999999999
 20
38.86175
 30
0.0
  0
VERTEX
  5
1AD
  8
0
 10
66.62572
 20
38.87585
 30
0.0
  0
VERTEX
  5
1AE
  8
0
 10
66.66262
 20
38.87555
 30
0.0
  0
VERTEX
  5
1AF
  8
0
 10
66.65742
 20
38.12555
 30
0.0
 42
1.0
  0
VERTEX
  5
1B0
  8
0
 10
66.90820146613078
 20
38.12382459165933
 30
0.0
  0
VERTEX
  5
1B1
  8
0
 10
67.79112
 20
38.11775
 30
0.0
  0
VERTEX
  5
1B2
  8
0
 10
67.80941999999999
 20
38.11765
 30
0.0
  0
VERTEX
  5
1B3
  8
0
 10
67.86472
 20
38.10985
 30
0.0
  0
VERTEX
  5
1B4
  8
0
 10
67.93352000000002
 20
38.08805
 30
0.0
  0
VERTEX
  5
1B5
  8
0
 10
67.99542
 20
38.05375
 30
0.0
  0
VERTEX
  5
1B6
  8
0
 10
68.04932
 20
38.00875
 30
0.0
  0
VERTEX
  5
1B7
  8
0
 10
68.09371999999999
 20
37.95415
 30
0.0
  0
VERTEX
  5
1B8
  8
0
 10
68.12692000000001
 20
37.89165
 30
0.0
  0
VERTEX
  5
1B9
  8
0
 10
68.14792
 20
37.82275
 30
0.0
  0
VERTEX
  5
1BA
  8
0
 10
68.15502000000001
 20
37.76735
 30
0.0
  0
VERTEX
  5
1BB
  8
0
 10
68.15492
 20
37.74885
 30
0.0
  0
VERTEX
  5
1BC
  8
0
 10
68.15472
 20
37.73045
 30
0.0
  0
VERTEX
  5
1BD
  8
0
 10
68.14681999999999
 20
37.67515
 30
0.0
  0
VERTEX
  5
1BE
  8
0
 10
68.12502
 20
37.60655
 30
0.0
  0
VERTEX
  5
1BF
  8
0
 10
68.09082000000001
 20
37.54455
 30
0.0
  0
VERTEX
  5
1C0
  8
0
 10
68.04571999999999
 20
37.49065
 30
0.0
  0
VERTEX
  5
1C1
  8
0
 10
67.99122
 20
37.44625
 30
0.0
  0
VERTEX
  5
1C2
  8
0
 10
67.92872
 20
37.41305
 30
0.0
  0
VERTEX
  5
1C3
  8
0
 10
67.85991999999999
 20
37.39205
 30
0.0
  0
VERTEX
  5
1C4
  8
0
 10
67.80442
 20
37.38495
 30
0.0
  0
VERTEX
  5
1C5
  8
0
 10
67.78602000010687
 20
37.38514999999894
 30
0.0
  0
VERTEX
  5
1C6
  8
0
 10
66.90300131404382
 20
37.39130262622947
 30
0.0
 42
1.0
  0
VERTEX
  5
1C7
  8
0
 10
66.65222
 20
37.39305
 30
0.0
  0
VERTEX
  5
1C8
  8
0
 10
66.64712
 20
36.64305
 30
0.0
  0
VERTEX
  5
1C9
  8
0
 10
66.61012
 20
36.64335
 30
0.0
  0
VERTEX
  5
1CA
  8
0
 10
66.49942000000001
 20
36.65905
 30
0.0
  0
VERTEX
  5
1CB
  8
0
 10
66.36242000000001
 20
36.70265
 30
0.0
  0
VERTEX
  5
1CC
  8
0
 10
66.23831999999999
 20
36.77115
 30
0.0
  0
VERTEX
  5
1CD
  8
0
 10
66.13062
 20
36.86125
 30
0.0
  0
VERTEX
  5
1CE
  8
0
 10
66.04182
 20
36.97025
 30
0.0
  0
VERTEX
  5
1CF
  8
0
 10
65.97512
 20
37.09525
 30
0.0
  0
VERTEX
  5
1D0
  8
0
 10
65.93352000000002
 20
37.23305
 30
0.0
  0
VERTEX
  5
1D1
  8
0
 10
65.91932
 20
37.34385
 30
0.0
  0
SEQEND
  5
BD1
  8
0
  0
POLYLINE
  5
78
  8
0
 66
     1
 10
0.0
 20
0.0
 30
0.0
 70
     1
  0
VERTEX
  5
1D2
  8
0
 10
61.29825767399873
 20
41.16242419351492
 30
0.0
  0
VERTEX
  5
1D3
  8
0
 10
61.54038232600126
 20
39.93767580648508
 30
0.0
 42
1.0
  0
VERTEX
  5
1D4
  8
0
 10
61.58902
 20
39.69165
 30
0.0
  0
VERTEX
  5
1D5
  8
0
 10
62.30781999999999
 20
39.83375
 30
0.0
 42
1.0
  0
VERTEX
  5
1D6
  8
0
 10
62.25916163929799
 20
40.07977171595702
 30
0.0
  0
VERTEX
  5
1D7
  8
0
 10
62.01692836070201
 20
41.30452828404299
 30
0.0
 42
1.0
  0
VERTEX
  5
1D8
  8
0
 10
61.96827
 20
41.55055
 30
0.0
  0
VERTEX
  5
1D9
  8
0
 10
61.24961999999999
 20
41.40845
 30
0.0
 42
1.0
  0
SEQEND
  5
BD2
  8
0
  0
POLYLINE
  5
79
  8
0
 66
     1
 10
0.0
 20
0.0
 30
0.0
 70
     1
  0
VERTEX
  5
1DA
  8
0
 10
69.64501999999999
 20
32.61975
 30
0.0
  0
VERTEX
  5
1DB
  8
0
 10
69.60812000000001
 20
32.61975
 30
0.0
  0
VERTEX
  5
1DC
  8
0
 10
69.49742
 20
32.63455
 30
0.0
  0
VERTEX
  5
1DD
  8
0
 10
69.35991999999999
 20
32.67735
 30
0.0
  0
VERTEX
  5
1DE
  8
0
 10
69.23542
 20
32.74485
 30
0.0
  0
VERTEX
  5
1DF
  8
0
 10
69.12711999999999
 20
32.83425
 30
0.0
  0
VERTEX
  5
1E0
  8
0
 10
69.03762
 20
32.94275
 30
0.0
  0
VERTEX
  5
1E1
  8
0
 10
68.97002
 20
33.06725
 30
0.0
  0
VERTEX
  5
1E2
  8
0
 10
68.92742000000001
 20
33.20475
 30
0.0
  0
VERTEX
  5
1E3
  8
0
 10
68.91252
 20
33.31545
 30
0.0
  0
VERTEX
  5
1E4
  8
0
 10
68.91252
 20
33.35225
 30
0.0
  0
VERTEX
  5
1E5
  8
0
 10
69.66252
 20
33.35225
 30
0.0
 42
1.0
  0
VERTEX
  5
1E6
  8
0
 10
69.66252
 20
33.6030374015748
 30
0.0
  0
VERTEX
  5
1E7
  8
0
 10
69.66252
 20
34.48595
 30
0.0
  0
VERTEX
  5
1E8
  8
0
 10
69.66252
 20
34.50445
 30
0.0
  0
VERTEX
  5
1E9
  8
0
 10
69.66991999999999
 20
34.55985
 30
0.0
  0
VERTEX
  5
1EA
  8
0
 10
69.69122000000002
 20
34.62855
 30
0.0
  0
VERTEX
  5
1EB
  8
0
 10
69.72502
 20
34.69085
 30
0.0
  0
VERTEX
  5
1EC
  8
0
 10
69.76972
 20
34.74495
 30
0.0
  0
VERTEX
  5
1ED
  8
0
 10
69.82392000000002
 20
34.78975
 30
0.0
  0
VERTEX
  5
1EE
  8
0
 10
69.88612
 20
34.82345
 30
0.0
  0
VERTEX
  5
1EF
  8
0
 10
69.95501999999999
 20
34.84485
 30
0.0
  0
VERTEX
  5
1F0
  8
0
 10
70.01032000000001
 20
34.85225
 30
0.0
  0
VERTEX
  5
1F1
  8
0
 10
70.02871999999999
 20
34.85225
 30
0.0
  0
VERTEX
  5
1F2
  8
0
 10
70.04722000000001
 20
34.85225
 30
0.0
  0
VERTEX
  5
1F3
  8
0
 10
70.10262
 20
34.84485
 30
0.0
  0
VERTEX
  5
1F4
  8
0
 10
70.17142000000001
 20
34.82345
 30
0.0
  0
VERTEX
  5
1F5
  8
0
 10
70.23362
 20
34.78975
 30
0.0
  0
VERTEX
  5
1F6
  8
0
 10
70.28782000000001
 20
34.74495
 30
0.0
  0
VERTEX
  5
1F7
  8
0
 10
70.33251999999999
 20
34.69085
 30
0.0
  0
VERTEX
  5
1F8
  8
0
 10
70.36622
 20
34.62855
 30
0.0
  0
VERTEX
  5
1F9
  8
0
 10
70.38762
 20
34.55985
 30
0.0
  0
VERTEX
  5
1FA
  8
0
 10
70.39501999999999
 20
34.50445
 30
0.0
  0
VERTEX
  5
1FB
  8
0
 10
70.39501999999999
 20
34.48595
 30
0.0
  0
VERTEX
  5
1FC
  8
0
 10
70.39501999999999
 20
33.6030374015748
 30
0.0
 42
1.0
  0
VERTEX
  5
1FD
  8
0
 10
70.39501999999999
 20
33.35225
 30
0.0
  0
VERTEX
  5
1FE
  8
0
 10
71.14501999999999
 20
33.35225
 30
0.0
  0
VERTEX
  5
1FF
  8
0
 10
71.14501999999999
 20
33.31545
 30
0.0
  0
VERTEX
  5
200
  8
0
 10
71.13012
 20
33.20475
 30
0.0
  0
VERTEX
  5
201
  8
0
 10
71.08752000000001
 20
33.06725
 30
0.0
  0
VERTEX
  5
202
  8
0
 10
71.02001999999999
 20
32.94275
 30
0.0
  0
VERTEX
  5
203
  8
0
 10
70.93062
 20
32.83425
 30
0.0
  0
VERTEX
  5
204
  8
0
 10
70.82212000000001
 20
32.74485
 30
0.0
  0
VERTEX
  5
205
  8
0
 10
70.69762
 20
32.67735
 30
0.0
  0
VERTEX
  5
206
  8
0
 10
70.56012000000001
 20
32.63455
 30
0.0
  0
VERTEX
  5
207
  8
0
 10
70.44932
 20
32.61975
 30
0.0
  0
VERTEX
  5
208
  8
0
 10
70.41252
 20
32.61975
 30
0.0
  0
SEQEND
  5
BD3
  8
0
  0
POLYLINE
  5
7A
  8
0
 66
     1
 10
0.0
 20
0.0
 30
0.0
 70
     1
  0
VERTEX
  5
209
  8
0
 10
62.41332
 20
38.19615
 30
0.0
  0
VERTEX
  5
20A
  8
0
 10
61.68072000000001
 20
38.19615
 30
0.0
 42
1.0
  0
VERTEX
  5
20B
  8
0
 10
61.68072000000001
 20
37.94536259842521
 30
0.0
  0
VERTEX
  5
20C
  8
0
 10
61.68072000000001
 20
36.6969374015748
 30
0.0
 42
1.0
  0
VERTEX
  5
20D
  8
0
 10
61.68072000000001
 20
36.44615
 30
0.0
  0
VERTEX
  5
20E
  8
0
 10
62.41332
 20
36.44615
 30
0.0
 42
1.0
  0
VERTEX
  5
20F
  8
0
 10
62.41332
 20
36.6969374015748
 30
0.0
  0
VERTEX
  5
210
  8
0
 10
62.41332
 20
37.94536259842521
 30
0.0
 42
1.0
  0
SEQEND
  5
BD4
  8
0
  0
POLYLINE
  5
7B
  8
0
 66
     1
 10
0.0
 20
0.0
 30
0.0
 70
     1
  0
VERTEX
  5
211
  8
0
 10
88.64262
 20
17.77955
 30
0.0
  0
VERTEX
  5
212
  8
0
 10
88.64262
 20
17.04695
 30
0.0
 42
1.0
  0
VERTEX
  5
213
  8
0
 10
88.89340740157479
 20
17.04695
 30
0.0
  0
VERTEX
  5
214
  8
0
 10
89.3918325984252
 20
17.04695
 30
0.0
 42
1.0
  0
VERTEX
  5
215
  8
0
 10
89.64262
 20
17.04695
 30
0.0
  0
VERTEX
  5
216
  8
0
 10
89.64262
 20
17.77955
 30
0.0
 42
1.0
  0
VERTEX
  5
217
  8
0
 10
89.3918325984252
 20
17.77955
 30
0.0
  0
VERTEX
  5
218
  8
0
 10
88.89340740157479
 20
17.77955
 30
0.0
 42
1.0
  0
SEQEND
  5
BD5
  8
0
  0
POLYLINE
  5
7C
  8
0
 66
     1
 10
0.0
 20
0.0
 30
0.0
 70
     1
  0
VERTEX
  5
219
  8
0
 10
88.51762
 20
16.52955
 30
0.0
  0
VERTEX
  5
21A
  8
0
 10
89.76762
 20
16.52955
 30
0.0
  0
VERTEX
  5
21B
  8
0
 10
89.79192
 20
16.52955
 30
0.0
  0
VERTEX
  5
21C
  8
0
 10
89.86492000000001
 20
16.54915
 30
0.0
  0
VERTEX
  5
21D
  8
0
 10
89.94442000000001
 20
16.60275
 30
0.0
  0
VERTEX
  5
21E
  8
0
 10
89.99792
 20
16.68225
 30
0.0
  0
VERTEX
  5
21F
  8
0
 10
90.01762
 20
16.75525
 30
0.0
  0
VERTEX
  5
220
  8
0
 10
90.01762
 20
16.77955
 30
0.0
  0
VERTEX
  5
221
  8
0
 10
90.01762
 20
18.2612625984252
 30
0.0
 42
-1.0
  0
VERTEX
  5
222
  8
0
 10
90.01762
 20
18.51205
 30
0.0
  0
VERTEX
  5
223
  8
0
 10
90.64262
 20
18.51205
 30
0.0
  0
VERTEX
  5
224
  8
0
 10
90.64262
 20
37.04695
 30
0.0
  0
VERTEX
  5
225
  8
0
 10
90.01762
 20
37.04695
 30
0.0
 42
-1.0
  0
VERTEX
  5
226
  8
0
 10
90.01762
 20
37.2977374015748
 30
0.0
  0
VERTEX
  5
227
  8
0
 10
90.01762
 20
38.77955
 30
0.0
  0
VERTEX
  5
228
  8
0
 10
90.01762
 20
38.80385
 30
0.0
  0
VERTEX
  5
229
  8
0
 10
89.99792
 20
38.87675
 30
0.0
  0
VERTEX
  5
22A
  8
0
 10
89.94442000000001
 20
38.95635
 30
0.0
  0
VERTEX
  5
22B
  8
0
 10
89.86492000000001
 20
39.00985
 30
0.0
  0
VERTEX
  5
22C
  8
0
 10
89.79192
 20
39.02955
 30
0.0
  0
VERTEX
  5
22D
  8
0
 10
89.76762
 20
39.02955
 30
0.0
  0
VERTEX
  5
22E
  8
0
 10
88.51762
 20
39.02955
 30
0.0
  0
VERTEX
  5
22F
  8
0
 10
88.49322000000001
 20
39.02955
 30
0.0
  0
VERTEX
  5
230
  8
0
 10
88.42032
 20
39.00985
 30
0.0
  0
VERTEX
  5
231
  8
0
 10
88.34082000000001
 20
38.95635
 30
0.0
  0
VERTEX
  5
232
  8
0
 10
88.28721999999999
 20
38.87675
 30
0.0
  0
VERTEX
  5
233
  8
0
 10
88.26762
 20
38.80385
 30
0.0
  0
VERTEX
  5
234
  8
0
 10
88.26762
 20
38.77955
 30
0.0
  0
VERTEX
  5
235
  8
0
 10
88.26762
 20
37.2977374015748
 30
0.0
 42
-1.0
  0
VERTEX
  5
236
  8
0
 10
88.26762
 20
37.04695
 30
0.0
  0
VERTEX
  5
237
  8
0
 10
87.64262
 20
37.04695
 30
0.0
  0
VERTEX
  5
238
  8
0
 10
87.64262
 20
18.51205
 30
0.0
  0
VERTEX
  5
239
  8
0
 10
88.26762
 20
18.51205
 30
0.0
 42
-1.0
  0
VERTEX
  5
23A
  8
0
 10
88.26762
 20
18.2612625984252
 30
0.0
  0
VERTEX
  5
23B
  8
0
 10
88.26762
 20
16.77955
 30
0.0
  0
VERTEX
  5
23C
  8
0
 10
88.26762
 20
16.75525
 30
0.0
  0
VERTEX
  5
23D
  8
0
 10
88.28721999999999
 20
16.68225
 30
0.0
  0
VERTEX
  5
23E
  8
0
 10
88.34082000000001
 20
16.60275
 30
0.0
  0
VERTEX
  5
23F
  8
0
 10
88.42032
 20
16.54915
 30
0.0
  0
VERTEX
  5
240
  8
0
 10
88.49322000000001
 20
16.52955
 30
0.0
  0
SEQEND
  5
BD6
  8
0
  0
POLYLINE
  5
7D
  8
0
 66
     1
 10
0.0
 20
0.0
 30
0.0
 70
     1
  0
VERTEX
  5
241
  8
0
 10
55.02472
 20
40.0709625984252
 30
0.0
  0
VERTEX
  5
242
  8
0
 10
55.02472
 20
39.1073374015748
 30
0.0
 42
1.0
  0
VERTEX
  5
243
  8
0
 10
55.02472
 20
38.85655
 30
0.0
  0
VERTEX
  5
244
  8
0
 10
55.75722
 20
38.85655
 30
0.0
 42
1.0
  0
VERTEX
  5
245
  8
0
 10
55.75722
 20
39.1073374015748
 30
0.0
  0
VERTEX
  5
246
  8
0
 10
55.75722
 20
40.0709625984252
 30
0.0
 42
1.0
  0
VERTEX
  5
247
  8
0
 10
55.75722
 20
40.32175
 30
0.0
  0
VERTEX
  5
248
  8
0
 10
55.02472
 20
40.32175
 30
0.0
 42
1.0
  0
SEQEND
  5
BD7
  8
0
  0
POLYLINE
  5
7E
  8
0
 66
     1
 10
0.0
 20
0.0
 30
0.0
 70
     1
  0
VERTEX
  5
249
  8
0
 10
62.41462000000001
 20
34.84425
 30
0.0
  0
VERTEX
  5
24A
  8
0
 10
61.68752000000001
 20
34.93455
 30
0.0
 42
1.0
  0
VERTEX
  5
24B
  8
0
 10
61.65665352512882
 20
34.68566934282137
 30
0.0
  0
VERTEX
  5
24C
  8
0
 10
61.50298647487118
 20
33.44663065717863
 30
0.0
 42
1.0
  0
VERTEX
  5
24D
  8
0
 10
61.47211999999999
 20
33.19775
 30
0.0
  0
VERTEX
  5
24E
  8
0
 10
62.19922
 20
33.10765
 30
0.0
 42
1.0
  0
VERTEX
  5
24F
  8
0
 10
62.23008997582961
 20
33.3565302229606
 30
0.0
  0
VERTEX
  5
250
  8
0
 10
62.3837500241704
 20
34.5953697770394
 30
0.0
 42
1.0
  0
SEQEND
  5
BD8
  8
0
  0
POLYLINE
  5
7F
  8
0
 66
     1
 10
0.0
 20
0.0
 30
0.0
 70
     1
  0
VERTEX
  5
251
  8
0
 10
55.02472
 20
36.5709625984252
 30
0.0
  0
VERTEX
  5
252
  8
0
 10
55.02472
 20
35.6073374015748
 30
0.0
 42
1.0
  0
VERTEX
  5
253
  8
0
 10
55.02472
 20
35.35655
 30
0.0
  0
VERTEX
  5
254
  8
0
 10
55.75722
 20
35.35655
 30
0.0
 42
1.0
  0
VERTEX
  5
255
  8
0
 10
55.75722
 20
35.6073374015748
 30
0.0
  0
VERTEX
  5
256
  8
0
 10
55.75722
 20
36.5709625984252
 30
0.0
 42
1.0
  0
VERTEX
  5
257
  8
0
 10
55.75722
 20
36.82175
 30
0.0
  0
VERTEX
  5
258
  8
0
 10
55.02472
 20
36.82175
 30
0.0
 42
1.0
  0
SEQEND
  5
BD9
  8
0
  0
POLYLINE
  5
80
  8
0
 66
     1
 10
0.0
 20
0.0
 30
0.0
 70
     1
  0
VERTEX
  5
259
  8
0
 10
62.02742000000001
 20
31.16175
 30
0.0
  0
VERTEX
  5
25A
  8
0
 10
61.30941999999999
 20
31.30775
 30
0.0
 42
1.0
  0
VERTEX
  5
25B
  8
0
 10
61.25946516374469
 20
31.06198825537048
 30
0.0
  0
VERTEX
  5
25C
  8
0
 10
61.01077483625529
 20
29.83851174462972
 30
0.0
 42
1.0
  0
VERTEX
  5
25D
  8
0
 10
60.96081999999998
 20
29.5927500000002
 30
0.0
  0
VERTEX
  5
25E
  8
0
 10
61.67871999999991
 20
29.44694999999994
 30
0.0
 42
1.0
  0
VERTEX
  5
25F
  8
0
 10
61.72869419408628
 20
29.69270780906012
 30
0.0
  0
VERTEX
  5
260
  8
0
 10
61.97744580591365
 20
30.91599219093982
 30
0.0
 42
1.0
  0
SEQEND
  5
BDA
  8
0
  0
POLYLINE
  5
81
  8
0
 66
     1
 10
0.0
 20
0.0
 30
0.0
 70
     1
  0
VERTEX
  5
261
  8
0
 10
55.02472
 20
33.0709625984252
 30
0.0
  0
VERTEX
  5
262
  8
0
 10
55.02472
 20
32.1073374015748
 30
0.0
 42
1.0
  0
VERTEX
  5
263
  8
0
 10
55.02472
 20
31.85655
 30
0.0
  0
VERTEX
  5
264
  8
0
 10
55.75722
 20
31.85655
 30
0.0
 42
1.0
  0
VERTEX
  5
265
  8
0
 10
55.75722
 20
32.1073374015748
 30
0.0
  0
VERTEX
  5
266
  8
0
 10
55.75722
 20
33.0709625984252
 30
0.0
 42
1.0
  0
VERTEX
  5
267
  8
0
 10
55.75722
 20
33.32175
 30
0.0
  0
VERTEX
  5
268
  8
0
 10
55.02472
 20
33.32175
 30
0.0
 42
1.0
  0
SEQEND
  5
BDB
  8
0
  0
POLYLINE
  5
82
  8
0
 66
     1
 10
0.0
 20
0.0
 30
0.0
 70
     1
  0
VERTEX
  5
269
  8
0
 10
61.48722000000001
 20
27.84735
 30
0.0
  0
VERTEX
  5
26A
  8
0
 10
60.77352
 20
28.01235
 30
0.0
 42
1.0
  0
VERTEX
  5
26B
  8
0
 10
60.71704120002948
 20
27.76800502677049
 30
0.0
  0
VERTEX
  5
26C
  8
0
 10
60.43589879997054
 20
26.55169497322951
 30
0.0
 42
1.0
  0
VERTEX
  5
26D
  8
0
 10
60.37942000000001
 20
26.30735
 30
0.0
  0
VERTEX
  5
26E
  8
0
 10
61.09322
 20
26.14235
 30
0.0
 42
1.0
  0
VERTEX
  5
26F
  8
0
 10
61.14968519546395
 20
26.38669811742647
 30
0.0
  0
VERTEX
  5
270
  8
0
 10
61.43075480453606
 20
27.60300188257354
 30
0.0
 42
1.0
  0
SEQEND
  5
BDC
  8
0
  0
POLYLINE
  5
83
  8
0
 66
     1
 10
0.0
 20
0.0
 30
0.0
 70
     1
  0
VERTEX
  5
271
  8
0
 10
63.13682
 20
22.15385
 30
0.0
  0
VERTEX
  5
272
  8
0
 10
65.53173259842521
 20
22.15385
 30
0.0
 42
1.0
  0
VERTEX
  5
273
  8
0
 10
65.78252
 20
22.15385
 30
0.0
  0
VERTEX
  5
274
  8
0
 10
65.78252
 20
22.88635
 30
0.0
  0
VERTEX
  5
275
  8
0
 10
67.24781999999999
 20
22.88635
 30
0.0
  0
VERTEX
  5
276
  8
0
 10
67.24781999999999
 20
22.15385
 30
0.0
 42
1.0
  0
VERTEX
  5
277
  8
0
 10
67.49860740157479
 20
22.15385
 30
0.0
  0
VERTEX
  5
278
  8
0
 10
69.03173259842521
 20
22.15385
 30
0.0
 42
1.0
  0
VERTEX
  5
279
  8
0
 10
69.28252
 20
22.15385
 30
0.0
  0
VERTEX
  5
27A
  8
0
 10
69.28252
 20
22.88635
 30
0.0
  0
VERTEX
  5
27B
  8
0
 10
70.74781999999999
 20
22.88635
 30
0.0
  0
VERTEX
  5
27C
  8
0
 10
70.74781999999999
 20
22.15385
 30
0.0
 42
1.0
  0
VERTEX
  5
27D
  8
0
 10
70.99860740157479
 20
22.15385
 30
0.0
  0
VERTEX
  5
27E
  8
0
 10
72.53173259842521
 20
22.15385
 30
0.0
 42
1.0
  0
VERTEX
  5
27F
  8
0
 10
72.78252
 20
22.15385
 30
0.0
  0
VERTEX
  5
280
  8
0
 10
72.78252
 20
22.88635
 30
0.0
  0
VERTEX
  5
281
  8
0
 10
74.24781999999999
 20
22.88635
 30
0.0
  0
VERTEX
  5
282
  8
0
 10
74.24781999999999
 20
22.15385
 30
0.0
 42
1.0
  0
VERTEX
  5
283
  8
0
 10
74.49860740157479
 20
22.15385
 30
0.0
  0
VERTEX
  5
284
  8
0
 10
76.82892000000001
 20
22.15385
 30
0.0
  0
VERTEX
  5
285
  8
0
 10
76.86722
 20
22.15385
 30
0.0
  0
VERTEX
  5
286
  8
0
 10
76.98222000000001
 20
22.16155
 30
0.0
  0
VERTEX
  5
287
  8
0
 10
77.13112000000001
 20
22.18425
 30
0.0
  0
VERTEX
  5
288
  8
0
 10
77.27502000000001
 20
22.22125
 30
0.0
  0
VERTEX
  5
289
  8
0
 10
77.41282000000001
 20
22.27165
 30
0.0
  0
VERTEX
  5
28A
  8
0
 10
77.54392000000001
 20
22.33485
 30
0.0
  0
VERTEX
  5
28B
  8
0
 10
77.66762
 20
22.40995
 30
0.0
  0
VERTEX
  5
28C
  8
0
 10
77.78312
 20
22.49635
 30
0.0
  0
VERTEX
  5
28D
  8
0
 10
77.88962000000001
 20
22.59315
 30
0.0
  0
VERTEX
  5
28E
  8
0
 10
77.98642000000001
 20
22.69975
 30
0.0
  0
VERTEX
  5
28F
  8
0
 10
78.07282000000001
 20
22.81515
 30
0.0
  0
VERTEX
  5
290
  8
0
 10
78.14782
 20
22.93885
 30
0.0
  0
VERTEX
  5
291
  8
0
 10
78.21101999999999
 20
23.06995
 30
0.0
  0
VERTEX
  5
292
  8
0
 10
78.26142000000002
 20
23.20775
 30
0.0
  0
VERTEX
  5
293
  8
0
 10
78.29852
 20
23.35155
 30
0.0
  0
VERTEX
  5
294
  8
0
 10
78.32112000000001
 20
23.50055
 30
0.0
  0
VERTEX
  5
295
  8
0
 10
78.32892000000001
 20
23.61555
 30
0.0
  0
VERTEX
  5
296
  8
0
 10
78.32892000000001
 20
23.65385
 30
0.0
  0
VERTEX
  5
297
  8
0
 10
78.32892000000001
 20
23.71725
 30
0.0
  0
VERTEX
  5
298
  8
0
 10
78.31102000000001
 20
23.88625
 30
0.0
  0
VERTEX
  5
299
  8
0
 10
78.30742000000001
 20
23.90725
 30
0.0
  0
VERTEX
  5
29A
  8
0
 10
77.85741999999999
 20
26.53295
 30
0.0
  0
VERTEX
  5
29B
  8
0
 10
77.84612000000001
 20
26.59905
 30
0.0
  0
VERTEX
  5
29C
  8
0
 10
77.78832
 20
26.79315
 30
0.0
  0
VERTEX
  5
29D
  8
0
 10
77.67712
 20
27.03155
 30
0.0
  0
VERTEX
  5
29E
  8
0
 10
77.52792
 20
27.24385
 30
0.0
  0
VERTEX
  5
29F
  8
0
 10
77.34582
 20
27.42625
 30
0.0
  0
VERTEX
  5
2A0
  8
0
 10
77.13532000000001
 20
27.57495
 30
0.0
  0
VERTEX
  5
2A1
  8
0
 10
76.90082000000001
 20
27.68615
 30
0.0
  0
VERTEX
  5
2A2
  8
0
 10
76.64722
 20
27.75555
 30
0.0
  0
VERTEX
  5
2A3
  8
0
 10
76.44602
 20
27.77955
 30
0.0
  0
VERTEX
  5
2A4
  8
0
 10
76.37892
 20
27.77955
 30
0.0
  0
VERTEX
  5
2A5
  8
0
 10
63.58672000000001
 20
27.77955
 30
0.0
  0
VERTEX
  5
2A6
  8
0
 10
63.51962
 20
27.77955
 30
0.0
  0
VERTEX
  5
2A7
  8
0
 10
63.31852000000001
 20
27.75555
 30
0.0
  0
VERTEX
  5
2A8
  8
0
 10
63.06471999999999
 20
27.68615
 30
0.0
  0
VERTEX
  5
2A9
  8
0
 10
62.83032
 20
27.57495
 30
0.0
  0
VERTEX
  5
2AA
  8
0
 10
62.61972
 20
27.42625
 30
0.0
  0
VERTEX
  5
2AB
  8
0
 10
62.43762000000001
 20
27.24385
 30
0.0
  0
VERTEX
  5
2AC
  8
0
 10
62.28862000000001
 20
27.03155
 30
0.0
  0
VERTEX
  5
2AD
  8
0
 10
62.17722000000001
 20
26.79315
 30
0.0
  0
VERTEX
  5
2AE
  8
0
 10
62.11962
 20
26.59905
 30
0.0
  0
VERTEX
  5
2AF
  8
0
 10
62.10826999999999
 20
26.53295
 30
0.0
  0
VERTEX
  5
2B0
  8
0
 10
61.65832
 20
23.90725
 30
0.0
  0
VERTEX
  5
2B1
  8
0
 10
61.65182000000001
 20
23.86945
 30
0.0
  0
VERTEX
  5
2B2
  8
0
 10
61.64001999999999
 20
23.75475
 30
0.0
  0
VERTEX
  5
2B3
  8
0
 10
61.63722000000001
 20
23.60405
 30
0.0
  0
VERTEX
  5
2B4
  8
0
 10
61.64941999999999
 20
23.45615
 30
0.0
  0
VERTEX
  5
2B5
  8
0
 10
61.67581999999999
 20
23.31175
 30
0.0
  0
VERTEX
  5
2B6
  8
0
 10
61.71602000000001
 20
23.17195
 30
0.0
  0
VERTEX
  5
2B7
  8
0
 10
61.76921999999999
 20
23.03725
 30
0.0
  0
VERTEX
  5
2B8
  8
0
 10
61.83472
 20
22.90885
 30
0.0
  0
VERTEX
  5
2B9
  8
0
 10
61.91221999999999
 20
22.78745
 30
0.0
  0
VERTEX
  5
2BA
  8
0
 10
62.00082
 20
22.67415
 30
0.0
  0
VERTEX
  5
2BB
  8
0
 10
62.10002
 20
22.56945
 30
0.0
  0
VERTEX
  5
2BC
  8
0
 10
62.20931999999999
 20
22.47455
 30
0.0
  0
VERTEX
  5
2BD
  8
0
 10
62.32782
 20
22.39015
 30
0.0
  0
VERTEX
  5
2BE
  8
0
 10
62.45511999999999
 20
22.31725
 30
0.0
  0
VERTEX
  5
2BF
  8
0
 10
62.59062
 20
22.25655
 30
0.0
  0
VERTEX
  5
2C0
  8
0
 10
62.73352
 20
22.20885
 30
0.0
  0
VERTEX
  5
2C1
  8
0
 10
62.84562
 20
22.18175
 30
0.0
  0
VERTEX
  5
2C2
  8
0
 10
62.88332
 20
22.17545
 30
0.0
  0
VERTEX
  5
2C3
  8
0
 10
62.90432000000001
 20
22.17175
 30
0.0
  0
VERTEX
  5
2C4
  8
0
 10
63.07862
 20
22.15385
 30
0.0
  0
SEQEND
  5
BDD
  8
0
  0
POLYLINE
  5
84
  8
0
 66
     1
 10
0.0
 20
0.0
 30
0.0
 70
     1
  0
VERTEX
  5
2C5
  8
0
 10
78.02431999999999
 20
11.95565
 30
0.0
  0
VERTEX
  5
2C6
  8
0
 10
78.31502
 20
11.26425
 30
0.0
 42
1.0
  0
VERTEX
  5
2C7
  8
0
 10
78.54622030901825
 20
11.36141345968783
 30
0.0
  0
VERTEX
  5
2C8
  8
0
 10
79.69711969098176
 20
11.84508654031218
 30
0.0
 42
1.0
  0
VERTEX
  5
2C9
  8
0
 10
79.92832000000001
 20
11.94225
 30
0.0
  0
VERTEX
  5
2CA
  8
0
 10
79.63762
 20
12.63375
 30
0.0
 42
1.0
  0
VERTEX
  5
2CB
  8
0
 10
79.40642480981319
 20
12.53657436095849
 30
0.0
  0
VERTEX
  5
2CC
  8
0
 10
78.2555151901868
 20
12.05282563904151
 30
0.0
 42
1.0
  0
SEQEND
  5
BDE
  8
0
  0
POLYLINE
  5
85
  8
0
 66
     1
 10
0.0
 20
0.0
 30
0.0
 70
     1
  0
VERTEX
  5
2CD
  8
0
 10
87.13082
 20
5.535920000000001
 30
0.0
  0
VERTEX
  5
2CE
  8
0
 10
87.13082
 20
5.49903
 30
0.0
  0
VERTEX
  5
2CF
  8
0
 10
87.14572000000001
 20
5.38829
 30
0.0
  0
VERTEX
  5
2D0
  8
0
 10
87.18832
 20
5.250820000000001
 30
0.0
  0
VERTEX
  5
2D1
  8
0
 10
87.25602
 20
5.126360000000001
 30
0.0
  0
VERTEX
  5
2D2
  8
0
 10
87.34541999999999
 20
5.01796
 30
0.0
  0
VERTEX
  5
2D3
  8
0
 10
87.45372
 20
4.928500000000001
 30
0.0
  0
VERTEX
  5
2D4
  8
0
 10
87.57821999999999
 20
4.860950000000001
 30
0.0
  0
VERTEX
  5
2D5
  8
0
 10
87.71572
 20
4.818250000000001
 30
0.0
  0
VERTEX
  5
2D6
  8
0
 10
87.82642000000001
 20
4.80334
 30
0.0
  0
VERTEX
  5
2D7
  8
0
 10
87.86331999999999
 20
4.80334
 30
0.0
  0
VERTEX
  5
2D8
  8
0
 10
87.86331999999999
 20
5.55334
 30
0.0
 42
-1.0
  0
VERTEX
  5
2D9
  8
0
 10
88.11410740157478
 20
5.55334
 30
0.0
  0
VERTEX
  5
2DA
  8
0
 10
88.99712
 20
5.55334
 30
0.0
  0
VERTEX
  5
2DB
  8
0
 10
89.01552000000001
 20
5.55334
 30
0.0
  0
VERTEX
  5
2DC
  8
0
 10
89.07082
 20
5.560820000000001
 30
0.0
  0
VERTEX
  5
2DD
  8
0
 10
89.13972000000001
 20
5.582140000000001
 30
0.0
  0
VERTEX
  5
2DE
  8
0
 10
89.20182
 20
5.615950000000001
 30
0.0
  0
VERTEX
  5
2DF
  8
0
 10
89.25612000000001
 20
5.660640000000001
 30
0.0
  0
VERTEX
  5
2E0
  8
0
 10
89.30081999999999
 20
5.714850000000001
 30
0.0
  0
VERTEX
  5
2E1
  8
0
 10
89.33462
 20
5.777070000000001
 30
0.0
  0
VERTEX
  5
2E2
  8
0
 10
89.35582
 20
5.845860000000001
 30
0.0
  0
VERTEX
  5
2E3
  8
0
 10
89.36331999999999
 20
5.901210000000001
 30
0.0
  0
VERTEX
  5
2E4
  8
0
 10
89.36331999999999
 20
5.91966
 30
0.0
  0
VERTEX
  5
2E5
  8
0
 10
89.36331999999999
 20
5.938160000000001
 30
0.0
  0
VERTEX
  5
2E6
  8
0
 10
89.35582
 20
5.99349
 30
0.0
  0
VERTEX
  5
2E7
  8
0
 10
89.33462
 20
6.062220000000001
 30
0.0
  0
VERTEX
  5
2E8
  8
0
 10
89.30081999999999
 20
6.124460000000001
 30
0.0
  0
VERTEX
  5
2E9
  8
0
 10
89.25612000000001
 20
6.178660000000001
 30
0.0
  0
VERTEX
  5
2EA
  8
0
 10
89.20182
 20
6.22336
 30
0.0
  0
VERTEX
  5
2EB
  8
0
 10
89.13972000000001
 20
6.25717
 30
0.0
  0
VERTEX
  5
2EC
  8
0
 10
89.07082
 20
6.278490000000001
 30
0.0
  0
VERTEX
  5
2ED
  8
0
 10
89.01552000000001
 20
6.285920000000001
 30
0.0
  0
VERTEX
  5
2EE
  8
0
 10
88.99712
 20
6.285920000000001
 30
0.0
  0
VERTEX
  5
2EF
  8
0
 10
88.11410740157478
 20
6.285920000000001
 30
0.0
 42
-1.0
  0
VERTEX
  5
2F0
  8
0
 10
87.86331999999999
 20
6.285920000000001
 30
0.0
  0
VERTEX
  5
2F1
  8
0
 10
87.86331999999999
 20
7.035920000000001
 30
0.0
  0
VERTEX
  5
2F2
  8
0
 10
87.82642000000001
 20
7.035920000000001
 30
0.0
  0
VERTEX
  5
2F3
  8
0
 10
87.71572
 20
7.021059999999999
 30
0.0
  0
VERTEX
  5
2F4
  8
0
 10
87.57821999999999
 20
6.978349999999999
 30
0.0
  0
VERTEX
  5
2F5
  8
0
 10
87.45372
 20
6.91086
 30
0.0
  0
VERTEX
  5
2F6
  8
0
 10
87.34541999999999
 20
6.82141
 30
0.0
  0
VERTEX
  5
2F7
  8
0
 10
87.25602
 20
6.712949999999999
 30
0.0
  0
VERTEX
  5
2F8
  8
0
 10
87.18832
 20
6.588539999999998
 30
0.0
  0
VERTEX
  5
2F9
  8
0
 10
87.14572000000001
 20
6.45102
 30
0.0
  0
VERTEX
  5
2FA
  8
0
 10
87.13082
 20
6.34028
 30
0.0
  0
VERTEX
  5
2FB
  8
0
 10
87.13082
 20
6.303339999999999
 30
0.0
  0
SEQEND
  5
BDF
  8
0
  0
POLYLINE
  5
86
  8
0
 66
     1
 10
0.0
 20
0.0
 30
0.0
 70
     1
  0
VERTEX
  5
2FC
  8
0
 10
60.90862
 20
24.55665
 30
0.0
  0
VERTEX
  5
2FD
  8
0
 10
60.19221999999999
 20
24.70955
 30
0.0
 42
1.0
  0
VERTEX
  5
2FE
  8
0
 10
60.1398988411644
 20
24.46428113298516
 30
0.0
  0
VERTEX
  5
2FF
  8
0
 10
59.8794411588356
 20
23.24331886701484
 30
0.0
 42
1.0
  0
VERTEX
  5
300
  8
0
 10
59.82712000000001
 20
22.99805
 30
0.0
  0
VERTEX
  5
301
  8
0
 10
60.54352
 20
22.84515
 30
0.0
 42
1.0
  0
VERTEX
  5
302
  8
0
 10
60.59584115883559
 20
23.09041886701484
 30
0.0
  0
VERTEX
  5
303
  8
0
 10
60.85629884116441
 20
24.31138113298517
 30
0.0
 42
1.0
  0
SEQEND
  5
BE0
  8
0
  0
POLYLINE
  5
87
  8
0
 66
     1
 10
0.0
 20
0.0
 30
0.0
 70
     1
  0
VERTEX
  5
304
  8
0
 10
72.73052000000001
 20
13.43425
 30
0.0
  0
VERTEX
  5
305
  8
0
 10
73.20302000000001
 20
13.44525
 30
0.0
  0
VERTEX
  5
306
  8
0
 10
75.56692000000001
 20
13.54885
 30
0.0
  0
VERTEX
  5
307
  8
0
 10
77.93281999999999
 20
13.71875
 30
0.0
  0
VERTEX
  5
308
  8
0
 10
78.40621999999999
 20
13.76245
 30
0.0
  0
VERTEX
  5
309
  8
0
 10
78.44442000000001
 20
13.76615
 30
0.0
  0
VERTEX
  5
30A
  8
0
 10
78.55822
 20
13.78445
 30
0.0
  0
VERTEX
  5
30B
  8
0
 10
78.70442
 20
13.82085
 30
0.0
  0
VERTEX
  5
30C
  8
0
 10
78.84422
 20
13.87085
 30
0.0
  0
VERTEX
  5
30D
  8
0
 10
78.97672
 20
13.93375
 30
0.0
  0
VERTEX
  5
30E
  8
0
 10
79.10141999999999
 20
14.00875
 30
0.0
  0
VERTEX
  5
30F
  8
0
 10
79.21762000000001
 20
14.09495
 30
0.0
  0
VERTEX
  5
310
  8
0
 10
79.32472000000001
 20
14.19155
 30
0.0
  0
VERTEX
  5
311
  8
0
 10
79.42182
 20
14.29775
 30
0.0
  0
VERTEX
  5
312
  8
0
 10
79.50852
 20
14.41275
 30
0.0
  0
VERTEX
  5
313
  8
0
 10
79.58372
 20
14.53585
 30
0.0
  0
VERTEX
  5
314
  8
0
 10
79.64722
 20
14.66585
 30
0.0
  0
VERTEX
  5
315
  8
0
 10
79.69811999999999
 20
14.80225
 30
0.0
  0
VERTEX
  5
316
  8
0
 10
79.73562000000001
 20
14.94405
 30
0.0
  0
VERTEX
  5
317
  8
0
 10
79.75922
 20
15.09055
 30
0.0
  0
VERTEX
  5
318
  8
0
 10
79.76812000000001
 20
15.24095
 30
0.0
  0
VERTEX
  5
319
  8
0
 10
79.76512
 20
15.35625
 30
0.0
  0
VERTEX
  5
31A
  8
0
 10
79.76172
 20
15.39445
 30
0.0
  0
VERTEX
  5
31B
  8
0
 10
79.76071999999999
 20
15.40405
 30
0.0
  0
VERTEX
  5
31C
  8
0
 10
79.74812
 20
15.49995
 30
0.0
  0
VERTEX
  5
31D
  8
0
 10
79.74642
 20
15.5095
 30
0.0
  0
VERTEX
  5
31E
  8
0
 10
79.29942
 20
18.11765
 30
0.0
  0
VERTEX
  5
31F
  8
0
 10
79.29332
 20
18.15345
 30
0.0
  0
VERTEX
  5
320
  8
0
 10
79.26812000000001
 20
18.25985
 30
0.0
  0
VERTEX
  5
321
  8
0
 10
79.22391999999999
 20
18.39595
 30
0.0
  0
VERTEX
  5
322
  8
0
 10
79.16762
 20
18.52555
 30
0.0
  0
VERTEX
  5
323
  8
0
 10
79.10032000000001
 20
18.64805
 30
0.0
  0
VERTEX
  5
324
  8
0
 10
79.02242000000001
 20
18.76295
 30
0.0
  0
VERTEX
  5
325
  8
0
 10
78.93462
 20
18.86925
 30
0.0
  0
VERTEX
  5
326
  8
0
 10
78.83792
 20
18.96705
 30
0.0
  0
VERTEX
  5
327
  8
0
 10
78.73282
 20
19.05545
 30
0.0
  0
VERTEX
  5
328
  8
0
 10
78.62002000000001
 20
19.13375
 30
0.0
  0
VERTEX
  5
329
  8
0
 10
78.50041999999999
 20
19.20165
 30
0.0
  0
VERTEX
  5
32A
  8
0
 10
78.37472
 20
19.25855
 30
0.0
  0
VERTEX
  5
32B
  8
0
 10
78.24361999999999
 20
19.30385
 30
0.0
  0
VERTEX
  5
32C
  8
0
 10
78.10782
 20
19.33695
 30
0.0
  0
VERTEX
  5
32D
  8
0
 10
77.96802
 20
19.35735
 30
0.0
  0
VERTEX
  5
32E
  8
0
 10
77.82512
 20
19.36445
 30
0.0
  0
VERTEX
  5
32F
  8
0
 10
77.71582000000001
 20
19.36095
 30
0.0
  0
VERTEX
  5
330
  8
0
 10
77.67962
 20
19.35765
 30
0.0
  0
VERTEX
  5
331
  8
0
 10
77.26102
 20
19.31805
 30
0.0
  0
VERTEX
  5
332
  8
0
 10
75.16802000000001
 20
19.16295
 30
0.0
  0
VERTEX
  5
333
  8
0
 10
73.07562000000001
 20
19.06525
 30
0.0
  0
VERTEX
  5
334
  8
0
 10
72.65711999999999
 20
19.05435
 30
0.0
  0
VERTEX
  5
335
  8
0
 10
72.61941999999999
 20
19.05335
 30
0.0
  0
VERTEX
  5
336
  8
0
 10
72.50672
 20
19.04295
 30
0.0
  0
VERTEX
  5
337
  8
0
 10
72.36081999999999
 20
19.01725
 30
0.0
  0
VERTEX
  5
338
  8
0
 10
72.22041999999999
 20
18.97775
 30
0.0
  0
VERTEX
  5
339
  8
0
 10
72.08582000000001
 20
18.92545
 30
0.0
  0
VERTEX
  5
33A
  8
0
 10
71.95812000000001
 20
18.86095
 30
0.0
  0
VERTEX
  5
33B
  8
0
 10
71.83762000000002
 20
18.78495
 30
0.0
  0
VERTEX
  5
33C
  8
0
 10
71.72532000000001
 20
18.69835
 30
0.0
  0
VERTEX
  5
33D
  8
0
 10
71.62182000000001
 20
18.60165
 30
0.0
  0
VERTEX
  5
33E
  8
0
 10
71.52781999999999
 20
18.49565
 30
0.0
  0
VERTEX
  5
33F
  8
0
 10
71.44402
 20
18.38115
 30
0.0
  0
VERTEX
  5
340
  8
0
 10
71.37122
 20
18.25875
 30
0.0
  0
VERTEX
  5
341
  8
0
 10
71.31012000000001
 20
18.12925
 30
0.0
  0
VERTEX
  5
342
  8
0
 10
71.26142000000002
 20
17.99345
 30
0.0
  0
VERTEX
  5
343
  8
0
 10
71.22551999999999
 20
17.85195
 30
0.0
  0
VERTEX
  5
344
  8
0
 10
71.20362
 20
17.70555
 30
0.0
  0
VERTEX
  5
345
  8
0
 10
71.19612000000001
 20
17.59265
 30
0.0
  0
VERTEX
  5
346
  8
0
 10
71.19612000000001
 20
17.55485
 30
0.0
  0
VERTEX
  5
347
  8
0
 10
71.19612000000001
 20
14.93385
 30
0.0
  0
VERTEX
  5
348
  8
0
 10
71.19612000000001
 20
14.89565
 30
0.0
  0
VERTEX
  5
349
  8
0
 10
71.20392000000001
 20
14.78055
 30
0.0
  0
VERTEX
  5
34A
  8
0
 10
71.22672
 20
14.63165
 30
0.0
  0
VERTEX
  5
34B
  8
0
 10
71.26362
 20
14.48795
 30
0.0
  0
VERTEX
  5
34C
  8
0
 10
71.31402
 20
14.35015
 30
0.0
  0
VERTEX
  5
34D
  8
0
 10
71.37722
 20
14.21905
 30
0.0
  0
VERTEX
  5
34E
  8
0
 10
71.45241999999999
 20
14.09525
 30
0.0
  0
VERTEX
  5
34F
  8
0
 10
71.53862000000001
 20
13.97985
 30
0.0
  0
VERTEX
  5
350
  8
0
 10
71.63561999999999
 20
13.87335
 30
0.0
  0
VERTEX
  5
351
  8
0
 10
71.74212
 20
13.77655
 30
0.0
  0
VERTEX
  5
352
  8
0
 10
71.85752
 20
13.69015
 30
0.0
  0
VERTEX
  5
353
  8
0
 10
71.98112
 20
13.61495
 30
0.0
  0
VERTEX
  5
354
  8
0
 10
72.11242000000001
 20
13.55175
 30
0.0
  0
VERTEX
  5
355
  8
0
 10
72.25012000000001
 20
13.50135
 30
0.0
  0
VERTEX
  5
356
  8
0
 10
72.39392000000001
 20
13.46445
 30
0.0
  0
VERTEX
  5
357
  8
0
 10
72.54282
 20
13.44165
 30
0.0
  0
VERTEX
  5
358
  8
0
 10
72.65782000000002
 20
13.43385
 30
0.0
  0
VERTEX
  5
359
  8
0
 10
72.69612000000001
 20
13.43385
 30
0.0
  0
VERTEX
  5
35A
  8
0
 10
72.70472000000001
 20
13.43385
 30
0.0
  0
VERTEX
  5
35B
  8
0
 10
72.72762
 20
13.43425
 30
0.0
  0
SEQEND
  5
BE1
  8
0
  0
POLYLINE
  5
88
  8
0
 66
     1
 10
0.0
 20
0.0
 30
0.0
 70
     1
  0
VERTEX
  5
35C
  8
0
 10
82.10221999999999
 20
5.570810000000001
 30
0.0
  0
VERTEX
  5
35D
  8
0
 10
82.10221999999999
 20
6.33822
 30
0.0
  0
VERTEX
  5
35E
  8
0
 10
82.10221999999999
 20
6.375170000000001
 30
0.0
  0
VERTEX
  5
35F
  8
0
 10
82.11712
 20
6.485890000000001
 30
0.0
  0
VERTEX
  5
360
  8
0
 10
82.15972
 20
6.623429999999999
 30
0.0
  0
VERTEX
  5
361
  8
0
 10
82.22742
 20
6.74784
 30
0.0
  0
VERTEX
  5
362
  8
0
 10
82.31682
 20
6.856279999999998
 30
0.0
  0
VERTEX
  5
363
  8
0
 10
82.42511999999999
 20
6.94575
 30
0.0
  0
VERTEX
  5
364
  8
0
 10
82.54962
 20
7.01324
 30
0.0
  0
VERTEX
  5
365
  8
0
 10
82.68712
 20
7.05593
 30
0.0
  0
VERTEX
  5
366
  8
0
 10
82.79782
 20
7.070809999999998
 30
0.0
  0
VERTEX
  5
367
  8
0
 10
82.83472
 20
7.070809999999998
 30
0.0
  0
VERTEX
  5
368
  8
0
 10
82.83472
 20
6.320809999999998
 30
0.0
 42
1.0
  0
VERTEX
  5
369
  8
0
 10
83.0855074015748
 20
6.320809999999998
 30
0.0
  0
VERTEX
  5
36A
  8
0
 10
83.96852000000001
 20
6.320809999999998
 30
0.0
  0
VERTEX
  5
36B
  8
0
 10
83.98692
 20
6.320809999999998
 30
0.0
  0
VERTEX
  5
36C
  8
0
 10
84.04241999999999
 20
6.313359999999999
 30
0.0
  0
VERTEX
  5
36D
  8
0
 10
84.11112
 20
6.29204
 30
0.0
  0
VERTEX
  5
36E
  8
0
 10
84.17331999999999
 20
6.25825
 30
0.0
  0
VERTEX
  5
36F
  8
0
 10
84.22752
 20
6.213540000000001
 30
0.0
  0
VERTEX
  5
370
  8
0
 10
84.27222
 20
6.159350000000001
 30
0.0
  0
VERTEX
  5
371
  8
0
 10
84.30601999999999
 20
6.097110000000001
 30
0.0
  0
VERTEX
  5
372
  8
0
 10
84.32741999999999
 20
6.02838
 30
0.0
  0
VERTEX
  5
373
  8
0
 10
84.33472
 20
5.973040000000001
 30
0.0
  0
VERTEX
  5
374
  8
0
 10
84.33472
 20
5.954540000000001
 30
0.0
  0
VERTEX
  5
375
  8
0
 10
84.33472
 20
5.936090000000001
 30
0.0
  0
VERTEX
  5
376
  8
0
 10
84.32741999999999
 20
5.880750000000001
 30
0.0
  0
VERTEX
  5
377
  8
0
 10
84.30601999999999
 20
5.811960000000001
 30
0.0
  0
VERTEX
  5
378
  8
0
 10
84.27222
 20
5.749720000000001
 30
0.0
  0
VERTEX
  5
379
  8
0
 10
84.22752
 20
5.695530000000001
 30
0.0
  0
VERTEX
  5
37A
  8
0
 10
84.17331999999999
 20
5.65082
 30
0.0
  0
VERTEX
  5
37B
  8
0
 10
84.11112
 20
5.617030000000001
 30
0.0
  0
VERTEX
  5
37C
  8
0
 10
84.04241999999999
 20
5.59571
 30
0.0
  0
VERTEX
  5
37D
  8
0
 10
83.98692
 20
5.588220000000001
 30
0.0
  0
VERTEX
  5
37E
  8
0
 10
83.96852000000001
 20
5.588220000000001
 30
0.0
  0
VERTEX
  5
37F
  8
0
 10
83.0855074015748
 20
5.588220000000001
 30
0.0
 42
1.0
  0
VERTEX
  5
380
  8
0
 10
82.83472
 20
5.588220000000001
 30
0.0
  0
VERTEX
  5
381
  8
0
 10
82.83472
 20
4.838220000000001
 30
0.0
  0
VERTEX
  5
382
  8
0
 10
82.79782
 20
4.838220000000001
 30
0.0
  0
VERTEX
  5
383
  8
0
 10
82.68712
 20
4.853140000000001
 30
0.0
  0
VERTEX
  5
384
  8
0
 10
82.54962
 20
4.895840000000001
 30
0.0
  0
VERTEX
  5
385
  8
0
 10
82.42511999999999
 20
4.963380000000001
 30
0.0
  0
VERTEX
  5
386
  8
0
 10
82.31682
 20
5.05285
 30
0.0
  0
VERTEX
  5
387
  8
0
 10
82.22742
 20
5.16124
 30
0.0
  0
VERTEX
  5
388
  8
0
 10
82.15972
 20
5.2857
 30
0.0
  0
VERTEX
  5
389
  8
0
 10
82.11712
 20
5.42318
 30
0.0
  0
VERTEX
  5
38A
  8
0
 10
82.10221999999999
 20
5.533910000000001
 30
0.0
  0
SEQEND
  5
BE2
  8
0
  0
POLYLINE
  5
89
  8
0
 66
     1
 10
0.0
 20
0.0
 30
0.0
 70
     1
  0
VERTEX
  5
38B
  8
0
 10
87.27642
 20
1.30979
 30
0.0
  0
VERTEX
  5
38C
  8
0
 10
87.27642
 20
2.07716
 30
0.0
  0
VERTEX
  5
38D
  8
0
 10
87.27642
 20
2.114100000000001
 30
0.0
  0
VERTEX
  5
38E
  8
0
 10
87.29122000000001
 20
2.22482
 30
0.0
  0
VERTEX
  5
38F
  8
0
 10
87.33392
 20
2.362360000000001
 30
0.0
  0
VERTEX
  5
390
  8
0
 10
87.40142
 20
2.486820000000001
 30
0.0
  0
VERTEX
  5
391
  8
0
 10
87.49082000000001
 20
2.595210000000001
 30
0.0
  0
VERTEX
  5
392
  8
0
 10
87.59932
 20
2.684680000000001
 30
0.0
  0
VERTEX
  5
393
  8
0
 10
87.72372000000001
 20
2.752230000000001
 30
0.0
  0
VERTEX
  5
394
  8
0
 10
87.86122
 20
2.79492
 30
0.0
  0
VERTEX
  5
395
  8
0
 10
87.97192000000001
 20
2.80979
 30
0.0
  0
VERTEX
  5
396
  8
0
 10
88.00891999999999
 20
2.80979
 30
0.0
  0
VERTEX
  5
397
  8
0
 10
88.00891999999999
 20
2.05979
 30
0.0
 42
1.0
  0
VERTEX
  5
398
  8
0
 10
88.25970740151381
 20
2.059784469714177
 30
0.0
  0
VERTEX
  5
399
  8
0
 10
89.14262
 20
2.059765000000001
 30
0.0
  0
VERTEX
  5
39A
  8
0
 10
89.16112000000001
 20
2.059740000000001
 30
0.0
  0
VERTEX
  5
39B
  8
0
 10
89.21642
 20
2.05231
 30
0.0
  0
VERTEX
  5
39C
  8
0
 10
89.28512
 20
2.03098
 30
0.0
  0
VERTEX
  5
39D
  8
0
 10
89.34742
 20
1.997240000000001
 30
0.0
  0
VERTEX
  5
39E
  8
0
 10
89.40172000000001
 20
1.95248
 30
0.0
  0
VERTEX
  5
39F
  8
0
 10
89.44641999999999
 20
1.898280000000001
 30
0.0
  0
VERTEX
  5
3A0
  8
0
 10
89.48012
 20
1.8361
 30
0.0
  0
VERTEX
  5
3A1
  8
0
 10
89.50142
 20
1.76731
 30
0.0
  0
VERTEX
  5
3A2
  8
0
 10
89.50891999999999
 20
1.711980000000001
 30
0.0
  0
VERTEX
  5
3A3
  8
0
 10
89.50891999999999
 20
1.69348
 30
0.0
  0
VERTEX
  5
3A4
  8
0
 10
89.50891999999999
 20
1.67503
 30
0.0
  0
VERTEX
  5
3A5
  8
0
 10
89.50142
 20
1.619680000000001
 30
0.0
  0
VERTEX
  5
3A6
  8
0
 10
89.48012
 20
1.550890000000001
 30
0.0
  0
VERTEX
  5
3A7
  8
0
 10
89.44641999999999
 20
1.488670000000001
 30
0.0
  0
VERTEX
  5
3A8
  8
0
 10
89.40172000000001
 20
1.434460000000001
 30
0.0
  0
VERTEX
  5
3A9
  8
0
 10
89.34742
 20
1.38975
 30
0.0
  0
VERTEX
  5
3AA
  8
0
 10
89.28512
 20
1.35596
 30
0.0
  0
VERTEX
  5
3AB
  8
0
 10
89.21642
 20
1.33464
 30
0.0
  0
VERTEX
  5
3AC
  8
0
 10
89.16112000000001
 20
1.32716
 30
0.0
  0
VERTEX
  5
3AD
  8
0
 10
89.14262
 20
1.32716
 30
0.0
  0
VERTEX
  5
3AE
  8
0
 10
88.25970740157479
 20
1.32716
 30
0.0
 42
1.0
  0
VERTEX
  5
3AF
  8
0
 10
88.00891999999999
 20
1.32716
 30
0.0
  0
VERTEX
  5
3B0
  8
0
 10
88.00891999999999
 20
0.5771600000000001
 30
0.0
  0
VERTEX
  5
3B1
  8
0
 10
87.97192000000001
 20
0.5771600000000001
 30
0.0
  0
VERTEX
  5
3B2
  8
0
 10
87.86122
 20
0.5920700000000005
 30
0.0
  0
VERTEX
  5
3B3
  8
0
 10
87.72372000000001
 20
0.6347700000000005
 30
0.0
  0
VERTEX
  5
3B4
  8
0
 10
87.59932
 20
0.7023100000000007
 30
0.0
  0
VERTEX
  5
3B5
  8
0
 10
87.49082000000001
 20
0.7917800000000002
 30
0.0
  0
VERTEX
  5
3B6
  8
0
 10
87.40142
 20
0.9001700000000001
 30
0.0
  0
VERTEX
  5
3B7
  8
0
 10
87.33392
 20
1.02463
 30
0.0
  0
VERTEX
  5
3B8
  8
0
 10
87.29122000000001
 20
1.162170000000001
 30
0.0
  0
VERTEX
  5
3B9
  8
0
 10
87.27642
 20
1.27289
 30
0.0
  0
SEQEND
  5
BE3
  8
0
  0
POLYLINE
  5
8A
  8
0
 66
     1
 10
0.0
 20
0.0
 30
0.0
 70
     1
  0
VERTEX
  5
3BA
  8
0
 10
69.14012
 20
11.90785
 30
0.0
  0
VERTEX
  5
3BB
  8
0
 10
69.14012
 20
11.15785
 30
0.0
 42
1.0
  0
VERTEX
  5
3BC
  8
0
 10
69.3909074015748
 20
11.15785
 30
0.0
  0
VERTEX
  5
3BD
  8
0
 10
70.6393325984252
 20
11.15785
 30
0.0
 42
1.0
  0
VERTEX
  5
3BE
  8
0
 10
70.89012
 20
11.15785
 30
0.0
  0
VERTEX
  5
3BF
  8
0
 10
70.89012
 20
11.90785
 30
0.0
 42
1.0
  0
VERTEX
  5
3C0
  8
0
 10
70.6393325984252
 20
11.90785
 30
0.0
  0
VERTEX
  5
3C1
  8
0
 10
69.3909074015748
 20
11.90785
 30
0.0
 42
1.0
  0
SEQEND
  5
BE4
  8
0
  0
POLYLINE
  5
8B
  8
0
 66
     1
 10
0.0
 20
0.0
 30
0.0
 70
     1
  0
VERTEX
  5
3C2
  8
0
 10
76.75471999999999
 20
4.820810000000001
 30
0.0
  0
VERTEX
  5
3C3
  8
0
 10
76.75471999999999
 20
5.588220000000001
 30
0.0
  0
VERTEX
  5
3C4
  8
0
 10
76.75471999999999
 20
5.625170000000001
 30
0.0
  0
VERTEX
  5
3C5
  8
0
 10
76.76962
 20
5.73589
 30
0.0
  0
VERTEX
  5
3C6
  8
0
 10
76.81222
 20
5.873430000000001
 30
0.0
  0
VERTEX
  5
3C7
  8
0
 10
76.87971999999999
 20
5.997840000000001
 30
0.0
  0
VERTEX
  5
3C8
  8
0
 10
76.96922
 20
6.106280000000001
 30
0.0
  0
VERTEX
  5
3C9
  8
0
 10
77.07762
 20
6.19575
 30
0.0
  0
VERTEX
  5
3CA
  8
0
 10
77.20212000000001
 20
6.263240000000001
 30
0.0
  0
VERTEX
  5
3CB
  8
0
 10
77.33962
 20
6.30593
 30
0.0
  0
VERTEX
  5
3CC
  8
0
 10
77.45042000000001
 20
6.320809999999998
 30
0.0
  0
VERTEX
  5
3CD
  8
0
 10
77.48742000000001
 20
6.320809999999998
 30
0.0
  0
VERTEX
  5
3CE
  8
0
 10
77.48742000000001
 20
5.570810000000001
 30
0.0
 42
1.0
  0
VERTEX
  5
3CF
  8
0
 10
77.73820740157481
 20
5.570810000000001
 30
0.0
  0
VERTEX
  5
3D0
  8
0
 10
78.62102000000002
 20
5.570810000000001
 30
0.0
  0
VERTEX
  5
3D1
  8
0
 10
78.63942
 20
5.570810000000001
 30
0.0
  0
VERTEX
  5
3D2
  8
0
 10
78.69471999999999
 20
5.56336
 30
0.0
  0
VERTEX
  5
3D3
  8
0
 10
78.76362
 20
5.542040000000001
 30
0.0
  0
VERTEX
  5
3D4
  8
0
 10
78.82582
 20
5.50825
 30
0.0
  0
VERTEX
  5
3D5
  8
0
 10
78.88002
 20
5.463540000000001
 30
0.0
  0
VERTEX
  5
3D6
  8
0
 10
78.92472000000001
 20
5.409350000000001
 30
0.0
  0
VERTEX
  5
3D7
  8
0
 10
78.95852
 20
5.347110000000001
 30
0.0
  0
VERTEX
  5
3D8
  8
0
 10
78.97991999999999
 20
5.27838
 30
0.0
  0
VERTEX
  5
3D9
  8
0
 10
78.98742000000001
 20
5.223040000000001
 30
0.0
  0
VERTEX
  5
3DA
  8
0
 10
78.98742000000001
 20
5.204540000000001
 30
0.0
  0
VERTEX
  5
3DB
  8
0
 10
78.98742000000001
 20
5.186090000000001
 30
0.0
  0
VERTEX
  5
3DC
  8
0
 10
78.97991999999999
 20
5.130750000000001
 30
0.0
  0
VERTEX
  5
3DD
  8
0
 10
78.95852
 20
5.061960000000001
 30
0.0
  0
VERTEX
  5
3DE
  8
0
 10
78.92472000000001
 20
4.99973
 30
0.0
  0
VERTEX
  5
3DF
  8
0
 10
78.88002
 20
4.945530000000001
 30
0.0
  0
VERTEX
  5
3E0
  8
0
 10
78.82582
 20
4.90082
 30
0.0
  0
VERTEX
  5
3E1
  8
0
 10
78.76362
 20
4.867030000000001
 30
0.0
  0
VERTEX
  5
3E2
  8
0
 10
78.69471999999999
 20
4.84571
 30
0.0
  0
VERTEX
  5
3E3
  8
0
 10
78.63942
 20
4.838220000000001
 30
0.0
  0
VERTEX
  5
3E4
  8
0
 10
78.62102000000002
 20
4.838220000000001
 30
0.0
  0
VERTEX
  5
3E5
  8
0
 10
77.73820740157481
 20
4.838220000000001
 30
0.0
 42
1.0
  0
VERTEX
  5
3E6
  8
0
 10
77.48742000000001
 20
4.838220000000001
 30
0.0
  0
VERTEX
  5
3E7
  8
0
 10
77.48742000000001
 20
4.088220000000001
 30
0.0
  0
VERTEX
  5
3E8
  8
0
 10
77.45042000000001
 20
4.088220000000001
 30
0.0
  0
VERTEX
  5
3E9
  8
0
 10
77.33962
 20
4.103140000000001
 30
0.0
  0
VERTEX
  5
3EA
  8
0
 10
77.20212000000001
 20
4.145840000000001
 30
0.0
  0
VERTEX
  5
3EB
  8
0
 10
77.07762
 20
4.213380000000001
 30
0.0
  0
VERTEX
  5
3EC
  8
0
 10
76.96922
 20
4.30285
 30
0.0
  0
VERTEX
  5
3ED
  8
0
 10
76.87971999999999
 20
4.41124
 30
0.0
  0
VERTEX
  5
3EE
  8
0
 10
76.81222
 20
4.5357
 30
0.0
  0
VERTEX
  5
3EF
  8
0
 10
76.76962
 20
4.67318
 30
0.0
  0
VERTEX
  5
3F0
  8
0
 10
76.75471999999999
 20
4.783910000000001
 30
0.0
  0
SEQEND
  5
BE5
  8
0
  0
POLYLINE
  5
8C
  8
0
 66
     1
 10
0.0
 20
0.0
 30
0.0
 70
     1
  0
VERTEX
  5
3F1
  8
0
 10
83.95112
 20
1.67795
 30
0.0
  0
VERTEX
  5
3F2
  8
0
 10
83.20112
 20
1.683160000000001
 30
0.0
 42
1.0
  0
VERTEX
  5
3F3
  8
0
 10
83.19937245669308
 20
1.432378687137518
 30
0.0
  0
VERTEX
  5
3F4
  8
0
 10
83.19322
 20
0.5494700000000003
 30
0.0
  0
VERTEX
  5
3F5
  8
0
 10
83.19312
 20
0.5310900000000007
 30
0.0
  0
VERTEX
  5
3F6
  8
0
 10
83.18531999999999
 20
0.4757500000000006
 30
0.0
  0
VERTEX
  5
3F7
  8
0
 10
83.16332
 20
0.4071100000000003
 30
0.0
  0
VERTEX
  5
3F8
  8
0
 10
83.12922
 20
0.3451100000000009
 30
0.0
  0
VERTEX
  5
3F9
  8
0
 10
83.08402000000001
 20
0.2912400000000002
 30
0.0
  0
VERTEX
  5
3FA
  8
0
 10
83.02962
 20
0.2468500000000005
 30
0.0
  0
VERTEX
  5
3FB
  8
0
 10
82.96712
 20
0.2135400000000005
 30
0.0
  0
VERTEX
  5
3FC
  8
0
 10
82.89822000000001
 20
0.1926600000000005
 30
0.0
  0
VERTEX
  5
3FD
  8
0
 10
82.84281999999999
 20
0.1856000000000004
 30
0.0
  0
VERTEX
  5
3FE
  8
0
 10
82.82432
 20
0.1857100000000005
 30
0.0
  0
VERTEX
  5
3FF
  8
0
 10
82.80601999999999
 20
0.1858800000000005
 30
0.0
  0
VERTEX
  5
400
  8
0
 10
82.75062
 20
0.1936800000000005
 30
0.0
  0
VERTEX
  5
401
  8
0
 10
82.68191999999999
 20
0.2155000000000005
 30
0.0
  0
VERTEX
  5
402
  8
0
 10
82.62002000000001
 20
0.2497200000000004
 30
0.0
  0
VERTEX
  5
403
  8
0
 10
82.56612000000001
 20
0.2948200000000005
 30
0.0
  0
VERTEX
  5
404
  8
0
 10
82.52171999999999
 20
0.3493400000000007
 30
0.0
  0
VERTEX
  5
405
  8
0
 10
82.48831999999999
 20
0.4118400000000007
 30
0.0
  0
VERTEX
  5
406
  8
0
 10
82.46752000000001
 20
0.4807400000000008
 30
0.0
  0
VERTEX
  5
407
  8
0
 10
82.46042
 20
0.5361400000000005
 30
0.0
  0
VERTEX
  5
408
  8
0
 10
82.46072000000001
 20
0.5545900000000001
 30
0.0
  0
VERTEX
  5
409
  8
0
 10
82.46679446990237
 20
1.437428534706965
 30
0.0
 42
1.0
  0
VERTEX
  5
40A
  8
0
 10
82.46852000000001
 20
1.688210000000001
 30
0.0
  0
VERTEX
  5
40B
  8
0
 10
81.71852000000001
 20
1.69348
 30
0.0
  0
VERTEX
  5
40C
  8
0
 10
81.71871999999999
 20
1.730420000000001
 30
0.0
  0
VERTEX
  5
40D
  8
0
 10
81.73442
 20
1.84104
 30
0.0
  0
VERTEX
  5
40E
  8
0
 10
81.77812
 20
1.97825
 30
0.0
  0
VERTEX
  5
40F
  8
0
 10
81.84642
 20
2.10221
 30
0.0
  0
VERTEX
  5
410
  8
0
 10
81.93672000000001
 20
2.21002
 30
0.0
  0
VERTEX
  5
411
  8
0
 10
82.04571999999999
 20
2.29872
 30
0.0
  0
VERTEX
  5
412
  8
0
 10
82.17062000000001
 20
2.365410000000001
 30
0.0
  0
VERTEX
  5
413
  8
0
 10
82.30852000000002
 20
2.40711
 30
0.0
  0
VERTEX
  5
414
  8
0
 10
82.41932
 20
2.42123
 30
0.0
  0
VERTEX
  5
415
  8
0
 10
82.45622
 20
2.420960000000001
 30
0.0
  0
VERTEX
  5
416
  8
0
 10
83.22362000000001
 20
2.415590000000001
 30
0.0
  0
VERTEX
  5
417
  8
0
 10
83.26042000000001
 20
2.415360000000001
 30
0.0
  0
VERTEX
  5
418
  8
0
 10
83.37111999999999
 20
2.399680000000001
 30
0.0
  0
VERTEX
  5
419
  8
0
 10
83.50832
 20
2.356070000000001
 30
0.0
  0
VERTEX
  5
41A
  8
0
 10
83.63221999999999
 20
2.287660000000001
 30
0.0
  0
VERTEX
  5
41B
  8
0
 10
83.74002000000002
 20
2.197430000000001
 30
0.0
  0
VERTEX
  5
41C
  8
0
 10
83.82872
 20
2.088430000000001
 30
0.0
  0
VERTEX
  5
41D
  8
0
 10
83.89542
 20
1.96349
 30
0.0
  0
VERTEX
  5
41E
  8
0
 10
83.93722
 20
1.825740000000001
 30
0.0
  0
VERTEX
  5
41F
  8
0
 10
83.95122
 20
1.714910000000001
 30
0.0
  0
SEQEND
  5
BE6
  8
0
  0
POLYLINE
  5
8D
  8
0
 66
     1
 10
0.0
 20
0.0
 30
0.0
 70
     1
  0
VERTEX
  5
420
  8
0
 10
61.55622
 20
13.95725
 30
0.0
  0
VERTEX
  5
421
  8
0
 10
62.02042
 20
13.90295
 30
0.0
  0
VERTEX
  5
422
  8
0
 10
64.34121999999999
 20
13.68045
 30
0.0
  0
VERTEX
  5
423
  8
0
 10
66.66182
 20
13.52305
 30
0.0
  0
VERTEX
  5
424
  8
0
 10
67.12602000000001
 20
13.50125
 30
0.0
  0
VERTEX
  5
425
  8
0
 10
67.16422
 20
13.49945
 30
0.0
  0
VERTEX
  5
426
  8
0
 10
67.27941999999999
 20
13.50175
 30
0.0
  0
VERTEX
  5
427
  8
0
 10
67.42931999999999
 20
13.51745
 30
0.0
  0
VERTEX
  5
428
  8
0
 10
67.57462000000001
 20
13.54765
 30
0.0
  0
VERTEX
  5
429
  8
0
 10
67.71462
 20
13.59165
 30
0.0
  0
VERTEX
  5
42A
  8
0
 10
67.84862000000001
 20
13.64865
 30
0.0
  0
VERTEX
  5
42B
  8
0
 10
67.97572
 20
13.71775
 30
0.0
  0
VERTEX
  5
42C
  8
0
 10
68.09502
 20
13.79855
 30
0.0
  0
VERTEX
  5
42D
  8
0
 10
68.20602
 20
13.89045
 30
0.0
  0
VERTEX
  5
42E
  8
0
 10
68.30762000000001
 20
13.99225
 30
0.0
  0
VERTEX
  5
42F
  8
0
 10
68.39931999999999
 20
14.10365
 30
0.0
  0
VERTEX
  5
430
  8
0
 10
68.48012
 20
14.22365
 30
0.0
  0
VERTEX
  5
431
  8
0
 10
68.54942
 20
14.35165
 30
0.0
  0
VERTEX
  5
432
  8
0
 10
68.60622000000001
 20
14.48695
 30
0.0
  0
VERTEX
  5
433
  8
0
 10
68.64992000000001
 20
14.62875
 30
0.0
  0
VERTEX
  5
434
  8
0
 10
68.67962
 20
14.77655
 30
0.0
  0
VERTEX
  5
435
  8
0
 10
68.69282000000001
 20
14.89095
 30
0.0
  0
VERTEX
  5
436
  8
0
 10
68.69462000000001
 20
14.92925
 30
0.0
  0
VERTEX
  5
437
  8
0
 10
68.69492
 20
14.93515
 30
0.0
  0
VERTEX
  5
438
  8
0
 10
68.69612000000001
 20
14.98345
 30
0.0
  0
VERTEX
  5
439
  8
0
 10
68.69612000000001
 20
14.99955
 30
0.0
  0
VERTEX
  5
43A
  8
0
 10
68.69612000000001
 20
17.61415
 30
0.0
  0
VERTEX
  5
43B
  8
0
 10
68.69612000000001
 20
17.65135
 30
0.0
  0
VERTEX
  5
43C
  8
0
 10
68.68892
 20
17.76265
 30
0.0
  0
VERTEX
  5
43D
  8
0
 10
68.66762
 20
17.90695
 30
0.0
  0
VERTEX
  5
43E
  8
0
 10
68.63292000000001
 20
18.04655
 30
0.0
  0
VERTEX
  5
43F
  8
0
 10
68.58542
 20
18.18085
 30
0.0
  0
VERTEX
  5
440
  8
0
 10
68.52582000000001
 20
18.30885
 30
0.0
  0
VERTEX
  5
441
  8
0
 10
68.45501999999999
 20
18.43015
 30
0.0
  0
VERTEX
  5
442
  8
0
 10
68.37352000000001
 20
18.54385
 30
0.0
  0
VERTEX
  5
443
  8
0
 10
68.28172
 20
18.64925
 30
0.0
  0
VERTEX
  5
444
  8
0
 10
68.18072000000001
 20
18.74595
 30
0.0
  0
VERTEX
  5
445
  8
0
 10
68.07102
 20
18.83295
 30
0.0
  0
VERTEX
  5
446
  8
0
 10
67.95331999999999
 20
18.90945
 30
0.0
  0
VERTEX
  5
447
  8
0
 10
67.82821999999999
 20
18.97495
 30
0.0
  0
VERTEX
  5
448
  8
0
 10
67.69641999999999
 20
19.02875
 30
0.0
  0
VERTEX
  5
449
  8
0
 10
67.55852000000002
 20
19.07015
 30
0.0
  0
VERTEX
  5
44A
  8
0
 10
67.41542000000001
 20
19.09835
 30
0.0
  0
VERTEX
  5
44B
  8
0
 10
67.30462
 20
19.11085
 30
0.0
  0
VERTEX
  5
44C
  8
0
 10
67.26751999999999
 20
19.11245
 30
0.0
  0
VERTEX
  5
44D
  8
0
 10
66.85741999999999
 20
19.13205
 30
0.0
  0
VERTEX
  5
44E
  8
0
 10
64.80572000000001
 20
19.27125
 30
0.0
  0
VERTEX
  5
44F
  8
0
 10
62.75352000000001
 20
19.46565
 30
0.0
  0
VERTEX
  5
450
  8
0
 10
62.34291999999999
 20
19.51275
 30
0.0
  0
VERTEX
  5
451
  8
0
 10
62.30622
 20
19.51705
 30
0.0
  0
VERTEX
  5
452
  8
0
 10
62.19551999999999
 20
19.52245
 30
0.0
  0
VERTEX
  5
453
  8
0
 10
62.05052000000001
 20
19.51795
 30
0.0
  0
VERTEX
  5
454
  8
0
 10
61.90852000000001
 20
19.49975
 30
0.0
  0
VERTEX
  5
455
  8
0
 10
61.77042
 20
19.46835
 30
0.0
  0
VERTEX
  5
456
  8
0
 10
61.63692
 20
19.42425
 30
0.0
  0
VERTEX
  5
457
  8
0
 10
61.50891999999999
 20
19.36835
 30
0.0
  0
VERTEX
  5
458
  8
0
 10
61.38692
 20
19.30095
 30
0.0
  0
VERTEX
  5
459
  8
0
 10
61.27191999999999
 20
19.22275
 30
0.0
  0
VERTEX
  5
45A
  8
0
 10
61.16462
 20
19.13425
 30
0.0
  0
VERTEX
  5
45B
  8
0
 10
61.06582
 20
19.03615
 30
0.0
  0
VERTEX
  5
45C
  8
0
 10
60.97612000000001
 20
18.92885
 30
0.0
  0
VERTEX
  5
45D
  8
0
 10
60.89652000000001
 20
18.81305
 30
0.0
  0
VERTEX
  5
45E
  8
0
 10
60.82762
 20
18.68925
 30
0.0
  0
VERTEX
  5
45F
  8
0
 10
60.77032
 20
18.55815
 30
0.0
  0
VERTEX
  5
460
  8
0
 10
60.72532000000001
 20
18.42015
 30
0.0
  0
VERTEX
  5
461
  8
0
 10
60.69942
 20
18.31235
 30
0.0
  0
VERTEX
  5
462
  8
0
 10
60.69332
 20
18.27595
 30
0.0
  0
VERTEX
  5
463
  8
0
 10
60.25192
 20
15.70045
 30
0.0
  0
VERTEX
  5
464
  8
0
 10
60.24542
 20
15.66265
 30
0.0
  0
VERTEX
  5
465
  8
0
 10
60.23362
 20
15.54795
 30
0.0
  0
VERTEX
  5
466
  8
0
 10
60.23081999999999
 20
15.39735
 30
0.0
  0
VERTEX
  5
467
  8
0
 10
60.24312
 20
15.24925
 30
0.0
  0
VERTEX
  5
468
  8
0
 10
60.26942
 20
15.10495
 30
0.0
  0
VERTEX
  5
469
  8
0
 10
60.30962
 20
14.96515
 30
0.0
  0
VERTEX
  5
46A
  8
0
 10
60.36282
 20
14.83055
 30
0.0
  0
VERTEX
  5
46B
  8
0
 10
60.42832
 20
14.70205
 30
0.0
  0
VERTEX
  5
46C
  8
0
 10
60.50582
 20
14.58085
 30
0.0
  0
VERTEX
  5
46D
  8
0
 10
60.59442
 20
14.46735
 30
0.0
  0
VERTEX
  5
46E
  8
0
 10
60.69362000000001
 20
14.36275
 30
0.0
  0
VERTEX
  5
46F
  8
0
 10
60.80292
 20
14.26775
 30
0.0
  0
VERTEX
  5
470
  8
0
 10
60.92142000000001
 20
14.18345
 30
0.0
  0
VERTEX
  5
471
  8
0
 10
61.04872
 20
14.11045
 30
0.0
  0
VERTEX
  5
472
  8
0
 10
61.18422000000001
 20
14.04975
 30
0.0
  0
VERTEX
  5
473
  8
0
 10
61.32712000000001
 20
14.00225
 30
0.0
  0
VERTEX
  5
474
  8
0
 10
61.43922000000001
 20
13.97515
 30
0.0
  0
VERTEX
  5
475
  8
0
 10
61.47712000000001
 20
13.96855
 30
0.0
  0
VERTEX
  5
476
  8
0
 10
61.48362
 20
13.96745
 30
0.0
  0
VERTEX
  5
477
  8
0
 10
61.54962
 20
13.95795
 30
0.0
  0
SEQEND
  5
BE7
  8
0
  0
POLYLINE
  5
8E
  8
0
 66
     1
 10
0.0
 20
0.0
 30
0.0
 70
     1
  0
VERTEX
  5
478
  8
0
 10
49.93372
 20
22.70095
 30
0.0
  0
VERTEX
  5
479
  8
0
 10
49.93372
 20
22.67665
 30
0.0
  0
VERTEX
  5
47A
  8
0
 10
49.95332000000001
 20
22.60365
 30
0.0
  0
VERTEX
  5
47B
  8
0
 10
50.00692
 20
22.52415
 30
0.0
  0
VERTEX
  5
47C
  8
0
 10
50.08642
 20
22.47055
 30
0.0
  0
VERTEX
  5
47D
  8
0
 10
50.15932
 20
22.45095
 30
0.0
  0
VERTEX
  5
47E
  8
0
 10
50.18372
 20
22.45095
 30
0.0
  0
VERTEX
  5
47F
  8
0
 10
50.41622
 20
22.45095
 30
0.0
  0
VERTEX
  5
480
  8
0
 10
50.44052
 20
22.45095
 30
0.0
  0
VERTEX
  5
481
  8
0
 10
50.51362
 20
22.47055
 30
0.0
  0
VERTEX
  5
482
  8
0
 10
50.59302
 20
22.52415
 30
0.0
  0
VERTEX
  5
483
  8
0
 10
50.64652
 20
22.60365
 30
0.0
  0
VERTEX
  5
484
  8
0
 10
50.66622
 20
22.67665
 30
0.0
  0
VERTEX
  5
485
  8
0
 10
50.66622
 20
22.70095
 30
0.0
  0
VERTEX
  5
486
  8
0
 10
50.66622
 20
23.20095
 30
0.0
 42
-1.0
  0
VERTEX
  5
487
  8
0
 10
50.9170074015748
 20
23.20095
 30
0.0
  0
VERTEX
  5
488
  8
0
 10
51.88152
 20
23.20095
 30
0.0
  0
VERTEX
  5
489
  8
0
 10
51.90582
 20
23.20095
 30
0.0
  0
VERTEX
  5
48A
  8
0
 10
51.97872
 20
23.22055
 30
0.0
  0
VERTEX
  5
48B
  8
0
 10
52.05822
 20
23.27415
 30
0.0
  0
VERTEX
  5
48C
  8
0
 10
52.11182
 20
23.35365
 30
0.0
  0
VERTEX
  5
48D
  8
0
 10
52.13152
 20
23.42665
 30
0.0
  0
VERTEX
  5
48E
  8
0
 10
52.13152
 20
23.45095
 30
0.0
  0
VERTEX
  5
48F
  8
0
 10
52.13152
 20
23.95095
 30
0.0
  0
VERTEX
  5
490
  8
0
 10
52.13152
 20
23.97525
 30
0.0
  0
VERTEX
  5
491
  8
0
 10
52.11182
 20
24.04815
 30
0.0
  0
VERTEX
  5
492
  8
0
 10
52.05822
 20
24.12775
 30
0.0
  0
VERTEX
  5
493
  8
0
 10
51.97872
 20
24.18125
 30
0.0
  0
VERTEX
  5
494
  8
0
 10
51.90582
 20
24.20095
 30
0.0
  0
VERTEX
  5
495
  8
0
 10
51.88152
 20
24.20095
 30
0.0
  0
VERTEX
  5
496
  8
0
 10
50.9170074015748
 20
24.20095
 30
0.0
 42
-1.0
  0
VERTEX
  5
497
  8
0
 10
50.66622
 20
24.20095
 30
0.0
  0
VERTEX
  5
498
  8
0
 10
50.66622
 20
24.70095
 30
0.0
  0
VERTEX
  5
499
  8
0
 10
50.66622
 20
24.72525
 30
0.0
  0
VERTEX
  5
49A
  8
0
 10
50.64652
 20
24.79815
 30
0.0
  0
VERTEX
  5
49B
  8
0
 10
50.59302
 20
24.87775
 30
0.0
  0
VERTEX
  5
49C
  8
0
 10
50.51362
 20
24.93125
 30
0.0
  0
VERTEX
  5
49D
  8
0
 10
50.44052
 20
24.95095
 30
0.0
  0
VERTEX
  5
49E
  8
0
 10
50.41622
 20
24.95095
 30
0.0
  0
VERTEX
  5
49F
  8
0
 10
50.18372
 20
24.95095
 30
0.0
  0
VERTEX
  5
4A0
  8
0
 10
50.15932
 20
24.95095
 30
0.0
  0
VERTEX
  5
4A1
  8
0
 10
50.08642
 20
24.93125
 30
0.0
  0
VERTEX
  5
4A2
  8
0
 10
50.00692
 20
24.87775
 30
0.0
  0
VERTEX
  5
4A3
  8
0
 10
49.95332000000001
 20
24.79815
 30
0.0
  0
VERTEX
  5
4A4
  8
0
 10
49.93372
 20
24.72525
 30
0.0
  0
VERTEX
  5
4A5
  8
0
 10
49.93372
 20
24.70095
 30
0.0
  0
SEQEND
  5
BE8
  8
0
  0
POLYLINE
  5
8F
  8
0
 66
     1
 10
0.0
 20
0.0
 30
0.0
 70
     1
  0
VERTEX
  5
4A6
  8
0
 10
52.33472
 20
18.44405
 30
0.0
  0
VERTEX
  5
4A7
  8
0
 10
52.33472
 20
18.41975
 30
0.0
  0
VERTEX
  5
4A8
  8
0
 10
52.35432
 20
18.34665
 30
0.0
  0
VERTEX
  5
4A9
  8
0
 10
52.40792
 20
18.26725
 30
0.0
  0
VERTEX
  5
4AA
  8
0
 10
52.48742
 20
18.21355
 30
0.0
  0
VERTEX
  5
4AB
  8
0
 10
52.56042
 20
18.19405
 30
0.0
  0
VERTEX
  5
4AC
  8
0
 10
52.58472
 20
18.19405
 30
0.0
  0
VERTEX
  5
4AD
  8
0
 10
52.81742
 20
18.19405
 30
0.0
  0
VERTEX
  5
4AE
  8
0
 10
52.84172
 20
18.19405
 30
0.0
  0
VERTEX
  5
4AF
  8
0
 10
52.91462
 20
18.21355
 30
0.0
  0
VERTEX
  5
4B0
  8
0
 10
52.99402
 20
18.26725
 30
0.0
  0
VERTEX
  5
4B1
  8
0
 10
53.04762
 20
18.34665
 30
0.0
  0
VERTEX
  5
4B2
  8
0
 10
53.06742
 20
18.41975
 30
0.0
  0
VERTEX
  5
4B3
  8
0
 10
53.06742
 20
18.44405
 30
0.0
  0
VERTEX
  5
4B4
  8
0
 10
53.06742
 20
18.94405
 30
0.0
 42
-1.0
  0
VERTEX
  5
4B5
  8
0
 10
53.3182074015748
 20
18.94405
 30
0.0
  0
VERTEX
  5
4B6
  8
0
 10
54.28252
 20
18.94405
 30
0.0
  0
VERTEX
  5
4B7
  8
0
 10
54.30682
 20
18.94405
 30
0.0
  0
VERTEX
  5
4B8
  8
0
 10
54.37992
 20
18.96355
 30
0.0
  0
VERTEX
  5
4B9
  8
0
 10
54.45932
 20
19.01725
 30
0.0
  0
VERTEX
  5
4BA
  8
0
 10
54.51292
 20
19.09665
 30
0.0
  0
VERTEX
  5
4BB
  8
0
 10
54.53252
 20
19.16975
 30
0.0
  0
VERTEX
  5
4BC
  8
0
 10
54.53252
 20
19.19405
 30
0.0
  0
VERTEX
  5
4BD
  8
0
 10
54.53252
 20
19.69405
 30
0.0
  0
VERTEX
  5
4BE
  8
0
 10
54.53252
 20
19.71835
 30
0.0
  0
VERTEX
  5
4BF
  8
0
 10
54.51292
 20
19.79125
 30
0.0
  0
VERTEX
  5
4C0
  8
0
 10
54.45932
 20
19.87085
 30
0.0
  0
VERTEX
  5
4C1
  8
0
 10
54.37992
 20
19.92425
 30
0.0
  0
VERTEX
  5
4C2
  8
0
 10
54.30682
 20
19.94405
 30
0.0
  0
VERTEX
  5
4C3
  8
0
 10
54.28252
 20
19.94405
 30
0.0
  0
VERTEX
  5
4C4
  8
0
 10
53.3182074015748
 20
19.94405
 30
0.0
 42
-1.0
  0
VERTEX
  5
4C5
  8
0
 10
53.06742
 20
19.94405
 30
0.0
  0
VERTEX
  5
4C6
  8
0
 10
53.06742
 20
20.44405
 30
0.0
  0
VERTEX
  5
4C7
  8
0
 10
53.06742
 20
20.46835
 30
0.0
  0
VERTEX
  5
4C8
  8
0
 10
53.04762
 20
20.54125
 30
0.0
  0
VERTEX
  5
4C9
  8
0
 10
52.99402
 20
20.62085
 30
0.0
  0
VERTEX
  5
4CA
  8
0
 10
52.91462
 20
20.67425
 30
0.0
  0
VERTEX
  5
4CB
  8
0
 10
52.84172
 20
20.69405
 30
0.0
  0
VERTEX
  5
4CC
  8
0
 10
52.81742
 20
20.69405
 30
0.0
  0
VERTEX
  5
4CD
  8
0
 10
52.58472
 20
20.69405
 30
0.0
  0
VERTEX
  5
4CE
  8
0
 10
52.56042
 20
20.69405
 30
0.0
  0
VERTEX
  5
4CF
  8
0
 10
52.48742
 20
20.67425
 30
0.0
  0
VERTEX
  5
4D0
  8
0
 10
52.40792
 20
20.62085
 30
0.0
  0
VERTEX
  5
4D1
  8
0
 10
52.35432
 20
20.54125
 30
0.0
  0
VERTEX
  5
4D2
  8
0
 10
52.33472
 20
20.46835
 30
0.0
  0
VERTEX
  5
4D3
  8
0
 10
52.33472
 20
20.44405
 30
0.0
  0
SEQEND
  5
BE9
  8
0
  0
POLYLINE
  5
90
  8
0
 66
     1
 10
0.0
 20
0.0
 30
0.0
 70
     1
  0
VERTEX
  5
4D4
  8
0
 10
60.10192000000001
 20
11.94225
 30
0.0
  0
VERTEX
  5
4D5
  8
0
 10
60.39252000000003
 20
12.63374999999998
 30
0.0
 42
-1.0
  0
VERTEX
  5
4D6
  8
0
 10
60.62371519018683
 20
12.53657436095847
 30
0.0
  0
VERTEX
  5
4D7
  8
0
 10
61.77462480981319
 20
12.05282563904151
 30
0.0
 42
-1.0
  0
VERTEX
  5
4D8
  8
0
 10
62.00582
 20
11.95565
 30
0.0
  0
VERTEX
  5
4D9
  8
0
 10
61.71531999999999
 20
11.26425
 30
0.0
 42
-1.0
  0
VERTEX
  5
4DA
  8
0
 10
61.48411754001613
 20
11.36140834130969
 30
0.0
  0
VERTEX
  5
4DB
  8
0
 10
60.33312245998387
 20
11.84509165869031
 30
0.0
 42
-1.0
  0
SEQEND
  5
BEA
  8
0
  0
POLYLINE
  5
91
  8
0
 66
     1
 10
0.0
 20
0.0
 30
0.0
 70
     1
  0
VERTEX
  5
4DC
  8
0
 10
76.36302
 20
0.7325900000000001
 30
0.0
  0
VERTEX
  5
4DD
  8
0
 10
76.36302
 20
1.500000000000001
 30
0.0
  0
VERTEX
  5
4DE
  8
0
 10
76.36302
 20
1.536950000000001
 30
0.0
  0
VERTEX
  5
4DF
  8
0
 10
76.37791999999999
 20
1.64768
 30
0.0
  0
VERTEX
  5
4E0
  8
0
 10
76.42062000000001
 20
1.78521
 30
0.0
  0
VERTEX
  5
4E1
  8
0
 10
76.48822000000001
 20
1.909610000000001
 30
0.0
  0
VERTEX
  5
4E2
  8
0
 10
76.57762
 20
2.018070000000001
 30
0.0
  0
VERTEX
  5
4E3
  8
0
 10
76.68602000000001
 20
2.107530000000001
 30
0.0
  0
VERTEX
  5
4E4
  8
0
 10
76.81042
 20
2.17503
 30
0.0
  0
VERTEX
  5
4E5
  8
0
 10
76.94811999999999
 20
2.217720000000001
 30
0.0
  0
VERTEX
  5
4E6
  8
0
 10
77.05872
 20
2.23259
 30
0.0
  0
VERTEX
  5
4E7
  8
0
 10
77.09572
 20
2.23259
 30
0.0
  0
VERTEX
  5
4E8
  8
0
 10
77.09572
 20
1.48259
 30
0.0
 42
1.0
  0
VERTEX
  5
4E9
  8
0
 10
77.3465074015748
 20
1.48259
 30
0.0
  0
VERTEX
  5
4EA
  8
0
 10
78.22932
 20
1.48259
 30
0.0
  0
VERTEX
  5
4EB
  8
0
 10
78.24781999999999
 20
1.48259
 30
0.0
  0
VERTEX
  5
4EC
  8
0
 10
78.30322000000001
 20
1.475160000000001
 30
0.0
  0
VERTEX
  5
4ED
  8
0
 10
78.37191999999999
 20
1.45384
 30
0.0
  0
VERTEX
  5
4EE
  8
0
 10
78.43422000000001
 20
1.420030000000001
 30
0.0
  0
VERTEX
  5
4EF
  8
0
 10
78.48831999999999
 20
1.37532
 30
0.0
  0
VERTEX
  5
4F0
  8
0
 10
78.53312
 20
1.32113
 30
0.0
  0
VERTEX
  5
4F1
  8
0
 10
78.56692000000001
 20
1.25891
 30
0.0
  0
VERTEX
  5
4F2
  8
0
 10
78.58822
 20
1.190160000000001
 30
0.0
  0
VERTEX
  5
4F3
  8
0
 10
78.59572
 20
1.13482
 30
0.0
  0
VERTEX
  5
4F4
  8
0
 10
78.59572
 20
1.116320000000001
 30
0.0
  0
VERTEX
  5
4F5
  8
0
 10
78.59572
 20
1.097880000000001
 30
0.0
  0
VERTEX
  5
4F6
  8
0
 10
78.58822
 20
1.04253
 30
0.0
  0
VERTEX
  5
4F7
  8
0
 10
78.56692000000001
 20
0.9737400000000003
 30
0.0
  0
VERTEX
  5
4F8
  8
0
 10
78.53312
 20
0.9115200000000003
 30
0.0
  0
VERTEX
  5
4F9
  8
0
 10
78.48831999999999
 20
0.8573200000000005
 30
0.0
  0
VERTEX
  5
4FA
  8
0
 10
78.43422000000001
 20
0.8126100000000003
 30
0.0
  0
VERTEX
  5
4FB
  8
0
 10
78.37191999999999
 20
0.7788100000000009
 30
0.0
  0
VERTEX
  5
4FC
  8
0
 10
78.30322000000001
 20
0.7574900000000007
 30
0.0
  0
VERTEX
  5
4FD
  8
0
 10
78.24781999999999
 20
0.7500000000000009
 30
0.0
  0
VERTEX
  5
4FE
  8
0
 10
78.22932
 20
0.7500000000000009
 30
0.0
  0
VERTEX
  5
4FF
  8
0
 10
77.3465074015748
 20
0.7500000000000009
 30
0.0
 42
1.0
  0
VERTEX
  5
500
  8
0
 10
77.09572
 20
0.7500000000000009
 30
0.0
  0
VERTEX
  5
501
  8
0
 10
77.09572
 20
0.0000000000000004
 30
0.0
  0
VERTEX
  5
502
  8
0
 10
77.05872
 20
0.0000000000000004
 30
0.0
  0
VERTEX
  5
503
  8
0
 10
76.94811999999999
 20
0.0149200000000005
 30
0.0
  0
VERTEX
  5
504
  8
0
 10
76.81042
 20
0.0576100000000004
 30
0.0
  0
VERTEX
  5
505
  8
0
 10
76.68602000000001
 20
0.1251700000000004
 30
0.0
  0
VERTEX
  5
506
  8
0
 10
76.57762
 20
0.2146300000000005
 30
0.0
  0
VERTEX
  5
507
  8
0
 10
76.48822000000001
 20
0.3230300000000002
 30
0.0
  0
VERTEX
  5
508
  8
0
 10
76.42062000000001
 20
0.4474900000000002
 30
0.0
  0
VERTEX
  5
509
  8
0
 10
76.37791999999999
 20
0.5849600000000006
 30
0.0
  0
VERTEX
  5
50A
  8
0
 10
76.36302
 20
0.6957000000000004
 30
0.0
  0
SEQEND
  5
BEB
  8
0
  0
POLYLINE
  5
92
  8
0
 66
     1
 10
0.0
 20
0.0
 30
0.0
 70
     1
  0
VERTEX
  5
50B
  8
0
 10
45.25972
 20
22.69675
 30
0.0
  0
VERTEX
  5
50C
  8
0
 10
45.25972
 20
23.6611625984252
 30
0.0
 42
-1.0
  0
VERTEX
  5
50D
  8
0
 10
45.25972
 20
23.91195
 30
0.0
  0
VERTEX
  5
50E
  8
0
 10
45.75972
 20
23.91195
 30
0.0
  0
VERTEX
  5
50F
  8
0
 10
45.78402
 20
23.91195
 30
0.0
  0
VERTEX
  5
510
  8
0
 10
45.85712
 20
23.93165
 30
0.0
  0
VERTEX
  5
511
  8
0
 10
45.93652
 20
23.98515
 30
0.0
  0
VERTEX
  5
512
  8
0
 10
45.99002
 20
24.06475
 30
0.0
  0
VERTEX
  5
513
  8
0
 10
46.00972
 20
24.13765
 30
0.0
  0
VERTEX
  5
514
  8
0
 10
46.00972
 20
24.16195
 30
0.0
  0
VERTEX
  5
515
  8
0
 10
46.00972
 20
24.39455
 30
0.0
  0
VERTEX
  5
516
  8
0
 10
46.00972
 20
24.41885
 30
0.0
  0
VERTEX
  5
517
  8
0
 10
45.99002
 20
24.49195
 30
0.0
  0
VERTEX
  5
518
  8
0
 10
45.93652
 20
24.57135
 30
0.0
  0
VERTEX
  5
519
  8
0
 10
45.85712
 20
24.62485
 30
0.0
  0
VERTEX
  5
51A
  8
0
 10
45.78402
 20
24.64455
 30
0.0
  0
VERTEX
  5
51B
  8
0
 10
45.75972
 20
24.64455
 30
0.0
  0
VERTEX
  5
51C
  8
0
 10
43.75972
 20
24.64455
 30
0.0
  0
VERTEX
  5
51D
  8
0
 10
43.73542
 20
24.64455
 30
0.0
  0
VERTEX
  5
51E
  8
0
 10
43.66242
 20
24.62485
 30
0.0
  0
VERTEX
  5
51F
  8
0
 10
43.58292
 20
24.57135
 30
0.0
  0
VERTEX
  5
520
  8
0
 10
43.52942
 20
24.49195
 30
0.0
  0
VERTEX
  5
521
  8
0
 10
43.50972
 20
24.41885
 30
0.0
  0
VERTEX
  5
522
  8
0
 10
43.50972
 20
24.39455
 30
0.0
  0
VERTEX
  5
523
  8
0
 10
43.50972
 20
24.16195
 30
0.0
  0
VERTEX
  5
524
  8
0
 10
43.50972
 20
24.13765
 30
0.0
  0
VERTEX
  5
525
  8
0
 10
43.52942
 20
24.06475
 30
0.0
  0
VERTEX
  5
526
  8
0
 10
43.58292
 20
23.98515
 30
0.0
  0
VERTEX
  5
527
  8
0
 10
43.66242
 20
23.93165
 30
0.0
  0
VERTEX
  5
528
  8
0
 10
43.73542
 20
23.91195
 30
0.0
  0
VERTEX
  5
529
  8
0
 10
43.75972
 20
23.91195
 30
0.0
  0
VERTEX
  5
52A
  8
0
 10
44.25972
 20
23.91195
 30
0.0
 42
-1.0
  0
VERTEX
  5
52B
  8
0
 10
44.25972
 20
23.6611625984252
 30
0.0
  0
VERTEX
  5
52C
  8
0
 10
44.25972
 20
22.69675
 30
0.0
  0
VERTEX
  5
52D
  8
0
 10
44.25972
 20
22.67245
 30
0.0
  0
VERTEX
  5
52E
  8
0
 10
44.27942
 20
22.59945
 30
0.0
  0
VERTEX
  5
52F
  8
0
 10
44.33292
 20
22.51995
 30
0.0
  0
VERTEX
  5
530
  8
0
 10
44.41242
 20
22.46635
 30
0.0
  0
VERTEX
  5
531
  8
0
 10
44.48542
 20
22.44675
 30
0.0
  0
VERTEX
  5
532
  8
0
 10
44.50972
 20
22.44675
 30
0.0
  0
VERTEX
  5
533
  8
0
 10
45.00972
 20
22.44675
 30
0.0
  0
VERTEX
  5
534
  8
0
 10
45.03402
 20
22.44675
 30
0.0
  0
VERTEX
  5
535
  8
0
 10
45.10712
 20
22.46635
 30
0.0
  0
VERTEX
  5
536
  8
0
 10
45.18652
 20
22.51995
 30
0.0
  0
VERTEX
  5
537
  8
0
 10
45.24002
 20
22.59945
 30
0.0
  0
VERTEX
  5
538
  8
0
 10
45.25972
 20
22.67245
 30
0.0
  0
SEQEND
  5
BEC
  8
0
  0
POLYLINE
  5
93
  8
0
 66
     1
 10
0.0
 20
0.0
 30
0.0
 70
     1
  0
VERTEX
  5
539
  8
0
 10
36.75722
 20
28.90525
 30
0.0
  0
VERTEX
  5
53A
  8
0
 10
36.75722
 20
28.85485
 30
0.0
  0
VERTEX
  5
53B
  8
0
 10
36.77752
 20
28.70375
 30
0.0
  0
VERTEX
  5
53C
  8
0
 10
36.83582
 20
28.51595
 30
0.0
  0
VERTEX
  5
53D
  8
0
 10
36.92812
 20
28.34605
 30
0.0
  0
VERTEX
  5
53E
  8
0
 10
37.05012
 20
28.19815
 30
0.0
  0
VERTEX
  5
53F
  8
0
 10
37.19802
 20
28.07595
 30
0.0
  0
VERTEX
  5
540
  8
0
 10
37.36802
 20
27.98385
 30
0.0
  0
VERTEX
  5
541
  8
0
 10
37.55572
 20
27.92555
 30
0.0
  0
VERTEX
  5
542
  8
0
 10
37.70682
 20
27.90525
 30
0.0
  0
VERTEX
  5
543
  8
0
 10
37.75722
 20
27.90525
 30
0.0
  0
VERTEX
  5
544
  8
0
 10
53.75722
 20
27.90525
 30
0.0
  0
VERTEX
  5
545
  8
0
 10
53.80762
 20
27.90525
 30
0.0
  0
VERTEX
  5
546
  8
0
 10
53.95872
 20
27.92555
 30
0.0
  0
VERTEX
  5
547
  8
0
 10
54.14652
 20
27.98385
 30
0.0
  0
VERTEX
  5
548
  8
0
 10
54.31642
 20
28.07595
 30
0.0
  0
VERTEX
  5
549
  8
0
 10
54.46432
 20
28.19815
 30
0.0
  0
VERTEX
  5
54A
  8
0
 10
54.58652
 20
28.34605
 30
0.0
  0
VERTEX
  5
54B
  8
0
 10
54.67862
 20
28.51595
 30
0.0
  0
VERTEX
  5
54C
  8
0
 10
54.73692
 20
28.70375
 30
0.0
  0
VERTEX
  5
54D
  8
0
 10
54.75722
 20
28.85485
 30
0.0
  0
VERTEX
  5
54E
  8
0
 10
54.75722
 20
28.90525
 30
0.0
  0
VERTEX
  5
54F
  8
0
 10
54.75722
 20
28.95565
 30
0.0
  0
VERTEX
  5
550
  8
0
 10
54.77752
 20
29.10675
 30
0.0
  0
VERTEX
  5
551
  8
0
 10
54.83582
 20
29.29445
 30
0.0
  0
VERTEX
  5
552
  8
0
 10
54.92812
 20
29.46425
 30
0.0
  0
VERTEX
  5
553
  8
0
 10
55.05012
 20
29.61235
 30
0.0
  0
VERTEX
  5
554
  8
0
 10
55.19802
 20
29.73445
 30
0.0
  0
VERTEX
  5
555
  8
0
 10
55.36812
 20
29.82665
 30
0.0
  0
VERTEX
  5
556
  8
0
 10
55.55572
 20
29.88495
 30
0.0
  0
VERTEX
  5
557
  8
0
 10
55.70682
 20
29.90525
 30
0.0
  0
VERTEX
  5
558
  8
0
 10
55.75722
 20
29.90525
 30
0.0
  0
VERTEX
  5
559
  8
0
 10
55.80762
 20
29.90525
 30
0.0
  0
VERTEX
  5
55A
  8
0
 10
55.95872
 20
29.92555
 30
0.0
  0
VERTEX
  5
55B
  8
0
 10
56.14652
 20
29.98385
 30
0.0
  0
VERTEX
  5
55C
  8
0
 10
56.31642
 20
30.07595
 30
0.0
  0
VERTEX
  5
55D
  8
0
 10
56.46432
 20
30.19815
 30
0.0
  0
VERTEX
  5
55E
  8
0
 10
56.58652
 20
30.34605
 30
0.0
  0
VERTEX
  5
55F
  8
0
 10
56.67862
 20
30.51595
 30
0.0
  0
VERTEX
  5
560
  8
0
 10
56.73692
 20
30.70375
 30
0.0
  0
VERTEX
  5
561
  8
0
 10
56.75722
 20
30.85485
 30
0.0
  0
VERTEX
  5
562
  8
0
 10
56.75722
 20
30.90525
 30
0.0
  0
VERTEX
  5
563
  8
0
 10
56.75722
 20
40.90525
 30
0.0
  0
VERTEX
  5
564
  8
0
 10
56.75722
 20
40.95565
 30
0.0
  0
VERTEX
  5
565
  8
0
 10
56.73692
 20
41.10675
 30
0.0
  0
VERTEX
  5
566
  8
0
 10
56.67862
 20
41.29445
 30
0.0
  0
VERTEX
  5
567
  8
0
 10
56.58652
 20
41.46425
 30
0.0
  0
VERTEX
  5
568
  8
0
 10
56.46432
 20
41.61235
 30
0.0
  0
VERTEX
  5
569
  8
0
 10
56.31642
 20
41.73445
 30
0.0
  0
VERTEX
  5
56A
  8
0
 10
56.14652
 20
41.82665
 30
0.0
  0
VERTEX
  5
56B
  8
0
 10
55.95872
 20
41.88495
 30
0.0
  0
VERTEX
  5
56C
  8
0
 10
55.80762
 20
41.90525
 30
0.0
  0
VERTEX
  5
56D
  8
0
 10
55.75722
 20
41.90525
 30
0.0
  0
VERTEX
  5
56E
  8
0
 10
55.70682
 20
41.90525
 30
0.0
  0
VERTEX
  5
56F
  8
0
 10
55.55572
 20
41.92555
 30
0.0
  0
VERTEX
  5
570
  8
0
 10
55.36812
 20
41.98385
 30
0.0
  0
VERTEX
  5
571
  8
0
 10
55.19802
 20
42.07595
 30
0.0
  0
VERTEX
  5
572
  8
0
 10
55.05012
 20
42.19815
 30
0.0
  0
VERTEX
  5
573
  8
0
 10
54.92812
 20
42.34605
 30
0.0
  0
VERTEX
  5
574
  8
0
 10
54.83582
 20
42.51595
 30
0.0
  0
VERTEX
  5
575
  8
0
 10
54.77752
 20
42.70375
 30
0.0
  0
VERTEX
  5
576
  8
0
 10
54.75722
 20
42.85485
 30
0.0
  0
VERTEX
  5
577
  8
0
 10
54.75722
 20
42.90525
 30
0.0
  0
VERTEX
  5
578
  8
0
 10
54.75722
 20
42.95565
 30
0.0
  0
VERTEX
  5
579
  8
0
 10
54.73692
 20
43.10675
 30
0.0
  0
VERTEX
  5
57A
  8
0
 10
54.67862
 20
43.29445
 30
0.0
  0
VERTEX
  5
57B
  8
0
 10
54.58652
 20
43.46425
 30
0.0
  0
VERTEX
  5
57C
  8
0
 10
54.46432
 20
43.61235
 30
0.0
  0
VERTEX
  5
57D
  8
0
 10
54.31642
 20
43.73445
 30
0.0
  0
VERTEX
  5
57E
  8
0
 10
54.14652
 20
43.82665
 30
0.0
  0
VERTEX
  5
57F
  8
0
 10
53.95872
 20
43.88495
 30
0.0
  0
VERTEX
  5
580
  8
0
 10
53.80762
 20
43.90525
 30
0.0
  0
VERTEX
  5
581
  8
0
 10
53.75722
 20
43.90525
 30
0.0
  0
VERTEX
  5
582
  8
0
 10
37.75722
 20
43.90525
 30
0.0
  0
VERTEX
  5
583
  8
0
 10
37.70682
 20
43.90525
 30
0.0
  0
VERTEX
  5
584
  8
0
 10
37.55572
 20
43.88495
 30
0.0
  0
VERTEX
  5
585
  8
0
 10
37.36802
 20
43.82665
 30
0.0
  0
VERTEX
  5
586
  8
0
 10
37.19802
 20
43.73445
 30
0.0
  0
VERTEX
  5
587
  8
0
 10
37.05012
 20
43.61235
 30
0.0
  0
VERTEX
  5
588
  8
0
 10
36.92812
 20
43.46425
 30
0.0
  0
VERTEX
  5
589
  8
0
 10
36.83582
 20
43.29445
 30
0.0
  0
VERTEX
  5
58A
  8
0
 10
36.77752
 20
43.10675
 30
0.0
  0
VERTEX
  5
58B
  8
0
 10
36.75722
 20
42.95565
 30
0.0
  0
VERTEX
  5
58C
  8
0
 10
36.75722
 20
42.90525
 30
0.0
  0
VERTEX
  5
58D
  8
0
 10
36.75722
 20
42.85485
 30
0.0
  0
VERTEX
  5
58E
  8
0
 10
36.73692
 20
42.70375
 30
0.0
  0
VERTEX
  5
58F
  8
0
 10
36.67862
 20
42.51595
 30
0.0
  0
VERTEX
  5
590
  8
0
 10
36.58652
 20
42.34605
 30
0.0
  0
VERTEX
  5
591
  8
0
 10
36.46432
 20
42.19815
 30
0.0
  0
VERTEX
  5
592
  8
0
 10
36.31642
 20
42.07595
 30
0.0
  0
VERTEX
  5
593
  8
0
 10
36.14652
 20
41.98385
 30
0.0
  0
VERTEX
  5
594
  8
0
 10
35.95872
 20
41.92555
 30
0.0
  0
VERTEX
  5
595
  8
0
 10
35.80762
 20
41.90525
 30
0.0
  0
VERTEX
  5
596
  8
0
 10
35.75722
 20
41.90525
 30
0.0
  0
VERTEX
  5
597
  8
0
 10
35.70682
 20
41.90525
 30
0.0
  0
VERTEX
  5
598
  8
0
 10
35.55572
 20
41.88495
 30
0.0
  0
VERTEX
  5
599
  8
0
 10
35.36802
 20
41.82665
 30
0.0
  0
VERTEX
  5
59A
  8
0
 10
35.19802
 20
41.73445
 30
0.0
  0
VERTEX
  5
59B
  8
0
 10
35.05012
 20
41.61235
 30
0.0
  0
VERTEX
  5
59C
  8
0
 10
34.92812
 20
41.46425
 30
0.0
  0
VERTEX
  5
59D
  8
0
 10
34.83582
 20
41.29445
 30
0.0
  0
VERTEX
  5
59E
  8
0
 10
34.77752
 20
41.10675
 30
0.0
  0
VERTEX
  5
59F
  8
0
 10
34.75722
 20
40.95565
 30
0.0
  0
VERTEX
  5
5A0
  8
0
 10
34.75722
 20
40.90525
 30
0.0
  0
VERTEX
  5
5A1
  8
0
 10
34.75722
 20
30.90525
 30
0.0
  0
VERTEX
  5
5A2
  8
0
 10
34.75722
 20
30.85485
 30
0.0
  0
VERTEX
  5
5A3
  8
0
 10
34.77752
 20
30.70375
 30
0.0
  0
VERTEX
  5
5A4
  8
0
 10
34.83582
 20
30.51595
 30
0.0
  0
VERTEX
  5
5A5
  8
0
 10
34.92812
 20
30.34605
 30
0.0
  0
VERTEX
  5
5A6
  8
0
 10
35.05012
 20
30.19815
 30
0.0
  0
VERTEX
  5
5A7
  8
0
 10
35.19802
 20
30.07595
 30
0.0
  0
VERTEX
  5
5A8
  8
0
 10
35.36802
 20
29.98385
 30
0.0
  0
VERTEX
  5
5A9
  8
0
 10
35.55572
 20
29.92555
 30
0.0
  0
VERTEX
  5
5AA
  8
0
 10
35.70682
 20
29.90525
 30
0.0
  0
VERTEX
  5
5AB
  8
0
 10
35.75722
 20
29.90525
 30
0.0
  0
VERTEX
  5
5AC
  8
0
 10
35.80762
 20
29.90525
 30
0.0
  0
VERTEX
  5
5AD
  8
0
 10
35.95872
 20
29.88495
 30
0.0
  0
VERTEX
  5
5AE
  8
0
 10
36.14652
 20
29.82665
 30
0.0
  0
VERTEX
  5
5AF
  8
0
 10
36.31642
 20
29.73445
 30
0.0
  0
VERTEX
  5
5B0
  8
0
 10
36.46432
 20
29.61235
 30
0.0
  0
VERTEX
  5
5B1
  8
0
 10
36.58652
 20
29.46425
 30
0.0
  0
VERTEX
  5
5B2
  8
0
 10
36.67862
 20
29.29445
 30
0.0
  0
VERTEX
  5
5B3
  8
0
 10
36.73692
 20
29.10675
 30
0.0
  0
VERTEX
  5
5B4
  8
0
 10
36.75722
 20
28.95565
 30
0.0
  0
SEQEND
  5
BED
  8
0
  0
POLYLINE
  5
94
  8
0
 66
     1
 10
0.0
 20
0.0
 30
0.0
 70
     1
  0
VERTEX
  5
5B5
  8
0
 10
46.64862
 20
18.19405
 30
0.0
  0
VERTEX
  5
5B6
  8
0
 10
46.64862
 20
20.19405
 30
0.0
  0
VERTEX
  5
5B7
  8
0
 10
46.64862
 20
20.21835
 30
0.0
  0
VERTEX
  5
5B8
  8
0
 10
46.66822
 20
20.29125
 30
0.0
  0
VERTEX
  5
5B9
  8
0
 10
46.72182
 20
20.37085
 30
0.0
  0
VERTEX
  5
5BA
  8
0
 10
46.80122
 20
20.42425
 30
0.0
  0
VERTEX
  5
5BB
  8
0
 10
46.87422
 20
20.44405
 30
0.0
  0
VERTEX
  5
5BC
  8
0
 10
46.89862
 20
20.44405
 30
0.0
  0
VERTEX
  5
5BD
  8
0
 10
47.13112
 20
20.44405
 30
0.0
  0
VERTEX
  5
5BE
  8
0
 10
47.15542
 20
20.44405
 30
0.0
  0
VERTEX
  5
5BF
  8
0
 10
47.22852
 20
20.42425
 30
0.0
  0
VERTEX
  5
5C0
  8
0
 10
47.30792
 20
20.37085
 30
0.0
  0
VERTEX
  5
5C1
  8
0
 10
47.36152
 20
20.29125
 30
0.0
  0
VERTEX
  5
5C2
  8
0
 10
47.38112
 20
20.21835
 30
0.0
  0
VERTEX
  5
5C3
  8
0
 10
47.38112
 20
20.19405
 30
0.0
  0
VERTEX
  5
5C4
  8
0
 10
47.38112
 20
19.69405
 30
0.0
 42
1.0
  0
VERTEX
  5
5C5
  8
0
 10
47.6319074015748
 20
19.69405
 30
0.0
  0
VERTEX
  5
5C6
  8
0
 10
48.59642
 20
19.69405
 30
0.0
  0
VERTEX
  5
5C7
  8
0
 10
48.62072
 20
19.69405
 30
0.0
  0
VERTEX
  5
5C8
  8
0
 10
48.69362
 20
19.67425
 30
0.0
  0
VERTEX
  5
5C9
  8
0
 10
48.77312
 20
19.62085
 30
0.0
  0
VERTEX
  5
5CA
  8
0
 10
48.82672
 20
19.54125
 30
0.0
  0
VERTEX
  5
5CB
  8
0
 10
48.84642
 20
19.46835
 30
0.0
  0
VERTEX
  5
5CC
  8
0
 10
48.84642
 20
19.44405
 30
0.0
  0
VERTEX
  5
5CD
  8
0
 10
48.84642
 20
18.94405
 30
0.0
  0
VERTEX
  5
5CE
  8
0
 10
48.84642
 20
18.91975
 30
0.0
  0
VERTEX
  5
5CF
  8
0
 10
48.82672
 20
18.84665
 30
0.0
  0
VERTEX
  5
5D0
  8
0
 10
48.77312
 20
18.76725
 30
0.0
  0
VERTEX
  5
5D1
  8
0
 10
48.69362
 20
18.71355
 30
0.0
  0
VERTEX
  5
5D2
  8
0
 10
48.62072
 20
18.69405
 30
0.0
  0
VERTEX
  5
5D3
  8
0
 10
48.59642
 20
18.69405
 30
0.0
  0
VERTEX
  5
5D4
  8
0
 10
47.6319074015748
 20
18.69405
 30
0.0
 42
1.0
  0
VERTEX
  5
5D5
  8
0
 10
47.38112
 20
18.69405
 30
0.0
  0
VERTEX
  5
5D6
  8
0
 10
47.38112
 20
18.19405
 30
0.0
  0
VERTEX
  5
5D7
  8
0
 10
47.38112
 20
18.16975
 30
0.0
  0
VERTEX
  5
5D8
  8
0
 10
47.36152
 20
18.09665
 30
0.0
  0
VERTEX
  5
5D9
  8
0
 10
47.30792
 20
18.01725
 30
0.0
  0
VERTEX
  5
5DA
  8
0
 10
47.22852
 20
17.96355
 30
0.0
  0
VERTEX
  5
5DB
  8
0
 10
47.15542
 20
17.94405
 30
0.0
  0
VERTEX
  5
5DC
  8
0
 10
47.13112
 20
17.94405
 30
0.0
  0
VERTEX
  5
5DD
  8
0
 10
46.89862
 20
17.94405
 30
0.0
  0
VERTEX
  5
5DE
  8
0
 10
46.87422
 20
17.94405
 30
0.0
  0
VERTEX
  5
5DF
  8
0
 10
46.80122
 20
17.96355
 30
0.0
  0
VERTEX
  5
5E0
  8
0
 10
46.72182
 20
18.01725
 30
0.0
  0
VERTEX
  5
5E1
  8
0
 10
46.66822
 20
18.09665
 30
0.0
  0
VERTEX
  5
5E2
  8
0
 10
46.64862
 20
18.16975
 30
0.0
  0
SEQEND
  5
BEE
  8
0
  0
POLYLINE
  5
95
  8
0
 66
     1
 10
0.0
 20
0.0
 30
0.0
 70
     1
  0
VERTEX
  5
5E3
  8
0
 10
40.26462
 20
22.45545
 30
0.0
  0
VERTEX
  5
5E4
  8
0
 10
40.26462
 20
23.4198625984252
 30
0.0
 42
-1.0
  0
VERTEX
  5
5E5
  8
0
 10
40.26462
 20
23.67065
 30
0.0
  0
VERTEX
  5
5E6
  8
0
 10
40.76462
 20
23.67065
 30
0.0
  0
VERTEX
  5
5E7
  8
0
 10
40.78892
 20
23.67065
 30
0.0
  0
VERTEX
  5
5E8
  8
0
 10
40.86182
 20
23.69025
 30
0.0
  0
VERTEX
  5
5E9
  8
0
 10
40.94142
 20
23.74385
 30
0.0
  0
VERTEX
  5
5EA
  8
0
 10
40.99492
 20
23.82335
 30
0.0
  0
VERTEX
  5
5EB
  8
0
 10
41.01462
 20
23.89635
 30
0.0
  0
VERTEX
  5
5EC
  8
0
 10
41.01462
 20
23.92065
 30
0.0
  0
VERTEX
  5
5ED
  8
0
 10
41.01462
 20
24.15315
 30
0.0
  0
VERTEX
  5
5EE
  8
0
 10
41.01462
 20
24.17765
 30
0.0
  0
VERTEX
  5
5EF
  8
0
 10
40.99492
 20
24.25055
 30
0.0
  0
VERTEX
  5
5F0
  8
0
 10
40.94142
 20
24.32995
 30
0.0
  0
VERTEX
  5
5F1
  8
0
 10
40.86182
 20
24.38355
 30
0.0
  0
VERTEX
  5
5F2
  8
0
 10
40.78892
 20
24.40315
 30
0.0
  0
VERTEX
  5
5F3
  8
0
 10
40.76462
 20
24.40315
 30
0.0
  0
VERTEX
  5
5F4
  8
0
 10
38.76462
 20
24.40315
 30
0.0
  0
VERTEX
  5
5F5
  8
0
 10
38.74032
 20
24.40315
 30
0.0
  0
VERTEX
  5
5F6
  8
0
 10
38.66722
 20
24.38355
 30
0.0
  0
VERTEX
  5
5F7
  8
0
 10
38.58782
 20
24.32995
 30
0.0
  0
VERTEX
  5
5F8
  8
0
 10
38.53422
 20
24.25055
 30
0.0
  0
VERTEX
  5
5F9
  8
0
 10
38.51462
 20
24.17765
 30
0.0
  0
VERTEX
  5
5FA
  8
0
 10
38.51462
 20
24.15315
 30
0.0
  0
VERTEX
  5
5FB
  8
0
 10
38.51462
 20
23.92065
 30
0.0
  0
VERTEX
  5
5FC
  8
0
 10
38.51462
 20
23.89635
 30
0.0
  0
VERTEX
  5
5FD
  8
0
 10
38.53422
 20
23.82335
 30
0.0
  0
VERTEX
  5
5FE
  8
0
 10
38.58782
 20
23.74385
 30
0.0
  0
VERTEX
  5
5FF
  8
0
 10
38.66722
 20
23.69025
 30
0.0
  0
VERTEX
  5
600
  8
0
 10
38.74032
 20
23.67065
 30
0.0
  0
VERTEX
  5
601
  8
0
 10
38.76462
 20
23.67065
 30
0.0
  0
VERTEX
  5
602
  8
0
 10
39.26462
 20
23.67065
 30
0.0
 42
-1.0
  0
VERTEX
  5
603
  8
0
 10
39.26462
 20
23.4198625984252
 30
0.0
  0
VERTEX
  5
604
  8
0
 10
39.26462
 20
22.45545
 30
0.0
  0
VERTEX
  5
605
  8
0
 10
39.26462
 20
22.43115
 30
0.0
  0
VERTEX
  5
606
  8
0
 10
39.28422
 20
22.35815
 30
0.0
  0
VERTEX
  5
607
  8
0
 10
39.33782
 20
22.27875
 30
0.0
  0
VERTEX
  5
608
  8
0
 10
39.41722
 20
22.22515
 30
0.0
  0
VERTEX
  5
609
  8
0
 10
39.49032
 20
22.20545
 30
0.0
  0
VERTEX
  5
60A
  8
0
 10
39.51462
 20
22.20545
 30
0.0
  0
VERTEX
  5
60B
  8
0
 10
40.01462
 20
22.20545
 30
0.0
  0
VERTEX
  5
60C
  8
0
 10
40.03892
 20
22.20545
 30
0.0
  0
VERTEX
  5
60D
  8
0
 10
40.11182
 20
22.22515
 30
0.0
  0
VERTEX
  5
60E
  8
0
 10
40.19142
 20
22.27875
 30
0.0
  0
VERTEX
  5
60F
  8
0
 10
40.24492
 20
22.35815
 30
0.0
  0
VERTEX
  5
610
  8
0
 10
40.26462
 20
22.43115
 30
0.0
  0
SEQEND
  5
BEF
  8
0
  0
POLYLINE
  5
96
  8
0
 66
     1
 10
0.0
 20
0.0
 30
0.0
 70
     1
  0
VERTEX
  5
611
  8
0
 10
46.71002
 20
15.78085
 30
0.0
  0
VERTEX
  5
612
  8
0
 10
46.65002
 20
15.79885
 30
0.0
  0
VERTEX
  5
613
  8
0
 10
46.46652
 20
15.84095
 30
0.0
  0
VERTEX
  5
614
  8
0
 10
46.22282
 20
15.87615
 30
0.0
  0
VERTEX
  5
615
  8
0
 10
45.98032
 20
15.88695
 30
0.0
  0
VERTEX
  5
616
  8
0
 10
45.74062
 20
15.87425
 30
0.0
  0
VERTEX
  5
617
  8
0
 10
45.50502
 20
15.83905
 30
0.0
  0
VERTEX
  5
618
  8
0
 10
45.27512
 20
15.78175
 30
0.0
  0
VERTEX
  5
619
  8
0
 10
45.05252
 20
15.70345
 30
0.0
  0
VERTEX
  5
61A
  8
0
 10
44.83852
 20
15.60455
 30
0.0
  0
VERTEX
  5
61B
  8
0
 10
44.63492
 20
15.48625
 30
0.0
  0
VERTEX
  5
61C
  8
0
 10
44.44262000000001
 20
15.34915
 30
0.0
  0
VERTEX
  5
61D
  8
0
 10
44.26372
 20
15.19385
 30
0.0
  0
VERTEX
  5
61E
  8
0
 10
44.09962
 20
15.02135
 30
0.0
  0
VERTEX
  5
61F
  8
0
 10
43.95142
 20
14.83245
 30
0.0
  0
VERTEX
  5
620
  8
0
 10
43.82102
 20
14.62775
 30
0.0
  0
VERTEX
  5
621
  8
0
 10
43.70962
 20
14.40805
 30
0.0
  0
VERTEX
  5
622
  8
0
 10
43.63862
 20
14.23375
 30
0.0
  0
VERTEX
  5
623
  8
0
 10
43.61892
 20
14.17425
 30
0.0
  0
VERTEX
  5
624
  8
0
 10
43.56282
 20
14.00525
 30
0.0
  0
VERTEX
  5
625
  8
0
 10
43.55472
 20
13.98135
 30
0.0
  0
VERTEX
  5
626
  8
0
 10
43.54072
 20
13.90635
 30
0.0
  0
VERTEX
  5
627
  8
0
 10
43.53862
 20
13.80815
 30
0.0
  0
VERTEX
  5
628
  8
0
 10
43.55572
 20
13.71305
 30
0.0
  0
VERTEX
  5
629
  8
0
 10
43.59032
 20
13.62355
 30
0.0
  0
VERTEX
  5
62A
  8
0
 10
43.64122
 20
13.54235
 30
0.0
  0
VERTEX
  5
62B
  8
0
 10
43.70742
 20
13.47175
 30
0.0
  0
VERTEX
  5
62C
  8
0
 10
43.78722
 20
13.41455
 30
0.0
  0
VERTEX
  5
62D
  8
0
 10
43.85582
 20
13.38115
 30
0.0
  0
VERTEX
  5
62E
  8
0
 10
43.87972
 20
13.37305
 30
0.0
  0
VERTEX
  5
62F
  8
0
 10
43.88002
 20
13.37305
 30
0.0
  0
VERTEX
  5
630
  8
0
 10
43.88322
 20
13.37195
 30
0.0
  0
VERTEX
  5
631
  8
0
 10
43.88352
 20
13.37175
 30
0.0
  0
VERTEX
  5
632
  8
0
 10
43.97362
 20
13.34275
 30
0.0
  0
VERTEX
  5
633
  8
0
 10
44.87432
 20
13.05745
 30
0.0
  0
VERTEX
  5
634
  8
0
 10
44.96442
 20
13.02955
 30
0.0
  0
VERTEX
  5
635
  8
0
 10
45.57422
 20
12.84045
 30
0.0
  0
VERTEX
  5
636
  8
0
 10
47.41372
 20
12.30585
 30
0.0
  0
VERTEX
  5
637
  8
0
 10
49.86312
 20
11.65415
 30
0.0
  0
VERTEX
  5
638
  8
0
 10
52.31242
 20
11.07475
 30
0.0
  0
VERTEX
  5
639
  8
0
 10
54.14782
 20
10.68555
 30
0.0
  0
VERTEX
  5
63A
  8
0
 10
54.76182
 20
10.56745
 30
0.0
  0
VERTEX
  5
63B
  8
0
 10
55.29562
 20
10.46485
 30
0.0
  0
VERTEX
  5
63C
  8
0
 10
56.90222
 20
10.18335
 30
0.0
  0
VERTEX
  5
63D
  8
0
 10
59.04292000000001
 20
9.85425
 30
0.0
  0
VERTEX
  5
63E
  8
0
 10
61.18352
 20
9.58025
 30
0.0
  0
VERTEX
  5
63F
  8
0
 10
63.32401999999999
 20
9.361450000000001
 30
0.0
  0
VERTEX
  5
640
  8
0
 10
65.46462
 20
9.19765
 30
0.0
  0
VERTEX
  5
641
  8
0
 10
67.60512
 20
9.08905
 30
0.0
  0
VERTEX
  5
642
  8
0
 10
69.74572
 20
9.03565
 30
0.0
  0
VERTEX
  5
643
  8
0
 10
71.88622000000001
 20
9.03725
 30
0.0
  0
VERTEX
  5
644
  8
0
 10
74.02682000000001
 20
9.09405
 30
0.0
  0
VERTEX
  5
645
  8
0
 10
76.16741999999999
 20
9.205950000000001
 30
0.0
  0
VERTEX
  5
646
  8
0
 10
78.30792
 20
9.37295
 30
0.0
  0
VERTEX
  5
647
  8
0
 10
80.44852
 20
9.59515
 30
0.0
  0
VERTEX
  5
648
  8
0
 10
82.58902
 20
9.87235
 30
0.0
  0
VERTEX
  5
649
  8
0
 10
84.72962000000001
 20
10.20475
 30
0.0
  0
VERTEX
  5
64A
  8
0
 10
86.87012000000001
 20
10.59225
 30
0.0
  0
VERTEX
  5
64B
  8
0
 10
88.47712000000001
 20
10.91765
 30
0.0
  0
VERTEX
  5
64C
  8
0
 10
89.01071999999999
 20
11.03485
 30
0.0
  0
VERTEX
  5
64D
  8
0
 10
89.03532000000001
 20
11.04035
 30
0.0
  0
VERTEX
  5
64E
  8
0
 10
89.10692
 20
11.06645
 30
0.0
  0
VERTEX
  5
64F
  8
0
 10
89.19242
 20
11.11505
 30
0.0
  0
VERTEX
  5
650
  8
0
 10
89.26542
 20
11.17825
 30
0.0
  0
VERTEX
  5
651
  8
0
 10
89.32462000000001
 20
11.25375
 30
0.0
  0
VERTEX
  5
652
  8
0
 10
89.36832000000001
 20
11.33915
 30
0.0
  0
VERTEX
  5
653
  8
0
 10
89.39511999999999
 20
11.43205
 30
0.0
  0
VERTEX
  5
654
  8
0
 10
89.40352000000001
 20
11.52995
 30
0.0
  0
VERTEX
  5
655
  8
0
 10
89.39722
 20
11.60595
 30
0.0
  0
VERTEX
  5
656
  8
0
 10
89.39182
 20
11.63055
 30
0.0
  0
VERTEX
  5
657
  8
0
 10
89.39182
 20
11.63075
 30
0.0
  0
VERTEX
  5
658
  8
0
 10
89.39122
 20
11.63305
 30
0.0
  0
VERTEX
  5
659
  8
0
 10
89.39122
 20
11.63325
 30
0.0
  0
VERTEX
  5
65A
  8
0
 10
89.35262
 20
11.80395
 30
0.0
  0
VERTEX
  5
65B
  8
0
 10
89.33892
 20
11.86515
 30
0.0
  0
VERTEX
  5
65C
  8
0
 10
89.28541999999999
 20
12.04575
 30
0.0
  0
VERTEX
  5
65D
  8
0
 10
89.19622000000001
 20
12.27545
 30
0.0
  0
VERTEX
  5
65E
  8
0
 10
89.08652000000001
 20
12.49205
 30
0.0
  0
VERTEX
  5
65F
  8
0
 10
88.95761999999999
 20
12.69485
 30
0.0
  0
VERTEX
  5
660
  8
0
 10
88.81111999999999
 20
12.88275
 30
0.0
  0
VERTEX
  5
661
  8
0
 10
88.64822000000001
 20
13.05485
 30
0.0
  0
VERTEX
  5
662
  8
0
 10
88.47041999999999
 20
13.21025
 30
0.0
  0
VERTEX
  5
663
  8
0
 10
88.27932000000001
 20
13.34815
 30
0.0
  0
VERTEX
  5
664
  8
0
 10
88.07602
 20
13.46745
 30
0.0
  0
VERTEX
  5
665
  8
0
 10
87.86212
 20
13.56745
 30
0.0
  0
VERTEX
  5
666
  8
0
 10
87.63892000000001
 20
13.64695
 30
0.0
  0
VERTEX
  5
667
  8
0
 10
87.40782000000002
 20
13.70525
 30
0.0
  0
VERTEX
  5
668
  8
0
 10
87.17032
 20
13.74135
 30
0.0
  0
VERTEX
  5
669
  8
0
 10
86.92782
 20
13.75425
 30
0.0
  0
VERTEX
  5
66A
  8
0
 10
86.68172000000001
 20
13.74335
 30
0.0
  0
VERTEX
  5
66B
  8
0
 10
86.49472
 20
13.71925
 30
0.0
  0
VERTEX
  5
66C
  8
0
 10
86.43332000000001
 20
13.70725
 30
0.0
  0
VERTEX
  5
66D
  8
0
 10
86.34862000000001
 20
13.69065
 30
0.0
  0
VERTEX
  5
66E
  8
0
 10
85.50121999999999
 20
13.53015
 30
0.0
  0
VERTEX
  5
66F
  8
0
 10
85.41672
 20
13.51455
 30
0.0
  0
VERTEX
  5
670
  8
0
 10
85.31352000000001
 20
13.49565
 30
0.0
  0
VERTEX
  5
671
  8
0
 10
84.28172
 20
13.31455
 30
0.0
  0
VERTEX
  5
672
  8
0
 10
84.17851999999999
 20
13.29725
 30
0.0
  0
VERTEX
  5
673
  8
0
 10
84.14081999999999
 20
13.29095
 30
0.0
  0
VERTEX
  5
674
  8
0
 10
84.02642
 20
13.27955
 30
0.0
  0
VERTEX
  5
675
  8
0
 10
83.87612000000001
 20
13.27735
 30
0.0
  0
VERTEX
  5
676
  8
0
 10
83.72852
 20
13.28985
 30
0.0
  0
VERTEX
  5
677
  8
0
 10
83.58462
 20
13.31665
 30
0.0
  0
VERTEX
  5
678
  8
0
 10
83.44502
 20
13.35695
 30
0.0
  0
VERTEX
  5
679
  8
0
 10
83.31082
 20
13.41025
 30
0.0
  0
VERTEX
  5
67A
  8
0
 10
83.18281999999999
 20
13.47595
 30
0.0
  0
VERTEX
  5
67B
  8
0
 10
83.06192000000001
 20
13.55355
 30
0.0
  0
VERTEX
  5
67C
  8
0
 10
82.94892000000002
 20
13.64225
 30
0.0
  0
VERTEX
  5
67D
  8
0
 10
82.84461999999999
 20
13.74135
 30
0.0
  0
VERTEX
  5
67E
  8
0
 10
82.75002
 20
13.85045
 30
0.0
  0
VERTEX
  5
67F
  8
0
 10
82.66582
 20
13.96885
 30
0.0
  0
VERTEX
  5
680
  8
0
 10
82.59322
 20
14.09595
 30
0.0
  0
VERTEX
  5
681
  8
0
 10
82.53262000000001
 20
14.23105
 30
0.0
  0
VERTEX
  5
682
  8
0
 10
82.48532
 20
14.37375
 30
0.0
  0
VERTEX
  5
683
  8
0
 10
82.45832000000001
 20
14.48555
 30
0.0
  0
VERTEX
  5
684
  8
0
 10
82.45182
 20
14.52315
 30
0.0
  0
VERTEX
  5
685
  8
0
 10
79.96542
 20
29.03295
 30
0.0
  0
VERTEX
  5
686
  8
0
 10
79.95402000000001
 20
29.09905
 30
0.0
  0
VERTEX
  5
687
  8
0
 10
79.89642
 20
29.29315
 30
0.0
  0
VERTEX
  5
688
  8
0
 10
79.78512
 20
29.53155
 30
0.0
  0
VERTEX
  5
689
  8
0
 10
79.63612
 20
29.74385
 30
0.0
  0
VERTEX
  5
68A
  8
0
 10
79.45392000000001
 20
29.92625
 30
0.0
  0
VERTEX
  5
68B
  8
0
 10
79.24332000000001
 20
30.07495
 30
0.0
  0
VERTEX
  5
68C
  8
0
 10
79.00891999999999
 20
30.18615
 30
0.0
  0
VERTEX
  5
68D
  8
0
 10
78.75532000000001
 20
30.25555
 30
0.0
  0
VERTEX
  5
68E
  8
0
 10
78.55402000000001
 20
30.27955
 30
0.0
  0
VERTEX
  5
68F
  8
0
 10
78.48712
 20
30.27955
 30
0.0
  0
VERTEX
  5
690
  8
0
 10
64.47322
 20
30.27955
 30
0.0
  0
VERTEX
  5
691
  8
0
 10
64.42992000000001
 20
30.27955
 30
0.0
  0
VERTEX
  5
692
  8
0
 10
64.30001999999999
 20
30.28945
 30
0.0
  0
VERTEX
  5
693
  8
0
 10
64.28442000000001
 20
30.29155
 30
0.0
  0
VERTEX
  5
694
  8
0
 10
64.24622
 20
30.29625
 30
0.0
  0
VERTEX
  5
695
  8
0
 10
64.13322
 20
30.31845
 30
0.0
  0
VERTEX
  5
696
  8
0
 10
63.98831999999999
 20
30.35975
 30
0.0
  0
VERTEX
  5
697
  8
0
 10
63.85042000000001
 20
30.41445
 30
0.0
  0
VERTEX
  5
698
  8
0
 10
63.72002000000001
 20
30.48195
 30
0.0
  0
VERTEX
  5
699
  8
0
 10
63.59791999999999
 20
30.56115
 30
0.0
  0
VERTEX
  5
69A
  8
0
 10
63.48462000000001
 20
30.65125
 30
0.0
  0
VERTEX
  5
69B
  8
0
 10
63.38102000000001
 20
30.75135
 30
0.0
  0
VERTEX
  5
69C
  8
0
 10
63.28752
 20
30.86085
 30
0.0
  0
VERTEX
  5
69D
  8
0
 10
63.20492000000002
 20
30.97875
 30
0.0
  0
VERTEX
  5
69E
  8
0
 10
63.13372000000001
 20
31.10415
 30
0.0
  0
VERTEX
  5
69F
  8
0
 10
63.07472000000001
 20
31.23625
 30
0.0
  0
VERTEX
  5
6A0
  8
0
 10
63.02861999999999
 20
31.37425
 30
0.0
  0
VERTEX
  5
6A1
  8
0
 10
62.99602000000002
 20
31.51735
 30
0.0
  0
VERTEX
  5
6A2
  8
0
 10
62.97742
 20
31.66455
 30
0.0
  0
VERTEX
  5
6A3
  8
0
 10
62.97352000000001
 20
31.81525
 30
0.0
  0
VERTEX
  5
6A4
  8
0
 10
62.98042000000001
 20
31.93025
 30
0.0
  0
VERTEX
  5
6A5
  8
0
 10
62.98511999999999
 20
31.96835
 30
0.0
  0
VERTEX
  5
6A6
  8
0
 10
63.00492
 20
32.12335
 30
0.0
  0
VERTEX
  5
6A7
  8
0
 10
63.09612000000001
 20
32.92115
 30
0.0
  0
VERTEX
  5
6A8
  8
0
 10
63.17552000000001
 20
33.74945
 30
0.0
  0
VERTEX
  5
6A9
  8
0
 10
63.18922000000001
 20
33.91975
 30
0.0
  0
VERTEX
  5
6AA
  8
0
 10
63.19672
 20
34.01305
 30
0.0
  0
VERTEX
  5
6AB
  8
0
 10
63.25901999999999
 20
34.97055
 30
0.0
  0
VERTEX
  5
6AC
  8
0
 10
63.26392000000001
 20
35.06845
 30
0.0
  0
VERTEX
  5
6AD
  8
0
 10
63.26862
 20
35.16665
 30
0.0
  0
VERTEX
  5
6AE
  8
0
 10
63.30001999999999
 20
36.17025
 30
0.0
  0
VERTEX
  5
6AF
  8
0
 10
63.30122
 20
36.27295
 30
0.0
  0
VERTEX
  5
6B0
  8
0
 10
63.30261999999999
 20
36.37555
 30
0.0
  0
VERTEX
  5
6B1
  8
0
 10
63.30322000000001
 20
36.89585
 30
0.0
  0
VERTEX
  5
6B2
  8
0
 10
63.29512
 20
37.42545
 30
0.0
  0
VERTEX
  5
6B3
  8
0
 10
63.29222000000001
 20
37.53265
 30
0.0
  0
VERTEX
  5
6B4
  8
0
 10
63.28922
 20
37.63995
 30
0.0
  0
VERTEX
  5
6B5
  8
0
 10
63.26712000000001
 20
38.18305
 30
0.0
  0
VERTEX
  5
6B6
  8
0
 10
63.23462000000001
 20
38.73545
 30
0.0
  0
VERTEX
  5
6B7
  8
0
 10
63.22651999999999
 20
38.84725
 30
0.0
  0
VERTEX
  5
6B8
  8
0
 10
63.21852000000001
 20
38.95915
 30
0.0
  0
VERTEX
  5
6B9
  8
0
 10
63.16922
 20
39.52515
 30
0.0
  0
VERTEX
  5
6BA
  8
0
 10
63.10762
 20
40.09995
 30
0.0
  0
VERTEX
  5
6BB
  8
0
 10
63.09352000000001
 20
40.21635
 30
0.0
  0
VERTEX
  5
6BC
  8
0
 10
63.08642
 20
40.27445
 30
0.0
  0
VERTEX
  5
6BD
  8
0
 10
63.00692000000001
 20
40.86165
 30
0.0
  0
VERTEX
  5
6BE
  8
0
 10
62.99812
 20
40.92095
 30
0.0
  0
VERTEX
  5
6BF
  8
0
 10
62.98931999999999
 20
40.98025
 30
0.0
  0
VERTEX
  5
6C0
  8
0
 10
62.89212000000001
 20
41.57845
 30
0.0
  0
VERTEX
  5
6C1
  8
0
 10
62.88141999999999
 20
41.63875
 30
0.0
  0
VERTEX
  5
6C2
  8
0
 10
62.87072000000001
 20
41.69915
 30
0.0
  0
VERTEX
  5
6C3
  8
0
 10
62.75471999999999
 20
42.30805
 30
0.0
  0
VERTEX
  5
6C4
  8
0
 10
62.74212
 20
42.36955
 30
0.0
  0
VERTEX
  5
6C5
  8
0
 10
62.72942
 20
42.43095
 30
0.0
  0
VERTEX
  5
6C6
  8
0
 10
62.59291999999999
 20
43.05065
 30
0.0
  0
VERTEX
  5
6C7
  8
0
 10
62.57831999999999
 20
43.11315
 30
0.0
  0
VERTEX
  5
6C8
  8
0
 10
62.57751999999999
 20
43.11635
 30
0.0
  0
VERTEX
  5
6C9
  8
0
 10
62.57002
 20
43.14835
 30
0.0
  0
VERTEX
  5
6CA
  8
0
 10
62.56922
 20
43.15165
 30
0.0
  0
VERTEX
  5
6CB
  8
0
 10
62.55941999999999
 20
43.19305
 30
0.0
  0
VERTEX
  5
6CC
  8
0
 10
62.51571999999999
 20
43.31415
 30
0.0
  0
VERTEX
  5
6CD
  8
0
 10
62.43722
 20
43.46205
 30
0.0
  0
VERTEX
  5
6CE
  8
0
 10
62.33652000000001
 20
43.59335
 30
0.0
  0
VERTEX
  5
6CF
  8
0
 10
62.21642
 20
43.70545
 30
0.0
  0
VERTEX
  5
6D0
  8
0
 10
62.07962000000001
 20
43.79655
 30
0.0
  0
VERTEX
  5
6D1
  8
0
 10
61.92862
 20
43.86425
 30
0.0
  0
VERTEX
  5
6D2
  8
0
 10
61.76652000000001
 20
43.90655
 30
0.0
  0
VERTEX
  5
6D3
  8
0
 10
61.63872000000001
 20
43.92115
 30
0.0
  0
VERTEX
  5
6D4
  8
0
 10
61.59617
 20
43.92115
 30
0.0
  0
VERTEX
  5
6D5
  8
0
 10
61.08212
 20
43.92115
 30
0.0
  0
VERTEX
  5
6D6
  8
0
 10
61.03172000000001
 20
43.92115
 30
0.0
  0
VERTEX
  5
6D7
  8
0
 10
60.88042
 20
43.90085
 30
0.0
  0
VERTEX
  5
6D8
  8
0
 10
60.69282000000001
 20
43.84245
 30
0.0
  0
VERTEX
  5
6D9
  8
0
 10
60.52292
 20
43.75025
 30
0.0
  0
VERTEX
  5
6DA
  8
0
 10
60.37492
 20
43.62815
 30
0.0
  0
VERTEX
  5
6DB
  8
0
 10
60.25282
 20
43.48025
 30
0.0
  0
VERTEX
  5
6DC
  8
0
 10
60.16051999999999
 20
43.31025
 30
0.0
  0
VERTEX
  5
6DD
  8
0
 10
60.10242
 20
43.12265
 30
0.0
  0
VERTEX
  5
6DE
  8
0
 10
60.08212
 20
42.97155
 30
0.0
  0
VERTEX
  5
6DF
  8
0
 10
60.08212
 20
42.92115
 30
0.0
  0
VERTEX
  5
6E0
  8
0
 10
60.08212
 20
42.86235
 30
0.0
  0
VERTEX
  5
6E1
  8
0
 10
60.10542000000001
 20
42.70515
 30
0.0
  0
VERTEX
  5
6E2
  8
0
 10
60.11011999999999
 20
42.68585
 30
0.0
  0
VERTEX
  5
6E3
  8
0
 10
60.11302000000001
 20
42.67375
 30
0.0
  0
VERTEX
  5
6E4
  8
0
 10
60.14192
 20
42.55245
 30
0.0
  0
VERTEX
  5
6E5
  8
0
 10
60.14492
 20
42.54045
 30
0.0
  0
VERTEX
  5
6E6
  8
0
 10
60.15812
 20
42.48385
 30
0.0
  0
VERTEX
  5
6E7
  8
0
 10
60.28172000000001
 20
41.92265
 30
0.0
  0
VERTEX
  5
6E8
  8
0
 10
60.29302
 20
41.86695
 30
0.0
  0
VERTEX
  5
6E9
  8
0
 10
60.30462
 20
41.81125
 30
0.0
  0
VERTEX
  5
6EA
  8
0
 10
60.40992
 20
41.25925
 30
0.0
  0
VERTEX
  5
6EB
  8
0
 10
60.41942
 20
41.20445
 30
0.0
  0
VERTEX
  5
6EC
  8
0
 10
60.42922
 20
41.14985
 30
0.0
  0
VERTEX
  5
6ED
  8
0
 10
60.51722000000001
 20
40.60705
 30
0.0
  0
VERTEX
  5
6EE
  8
0
 10
60.52531999999999
 20
40.55335
 30
0.0
  0
VERTEX
  5
6EF
  8
0
 10
60.53322
 20
40.49955
 30
0.0
  0
VERTEX
  5
6F0
  8
0
 10
60.60542000000001
 20
39.96615
 30
0.0
  0
VERTEX
  5
6F1
  8
0
 10
60.61192
 20
39.91315
 30
0.0
  0
VERTEX
  5
6F2
  8
0
 10
60.62492
 20
39.80735
 30
0.0
  0
VERTEX
  5
6F3
  8
0
 10
60.68072000000001
 20
39.28415
 30
0.0
  0
VERTEX
  5
6F4
  8
0
 10
60.72572
 20
38.76815
 30
0.0
  0
VERTEX
  5
6F5
  8
0
 10
60.73312
 20
38.66605
 30
0.0
  0
VERTEX
  5
6F6
  8
0
 10
60.74062000000001
 20
38.56405
 30
0.0
  0
VERTEX
  5
6F7
  8
0
 10
60.79042000000001
 20
37.56175
 30
0.0
  0
VERTEX
  5
6F8
  8
0
 10
60.79321999999999
 20
37.46335
 30
0.0
  0
VERTEX
  5
6F9
  8
0
 10
60.79581999999999
 20
37.36495
 30
0.0
  0
VERTEX
  5
6FA
  8
0
 10
60.80262
 20
36.39955
 30
0.0
  0
VERTEX
  5
6FB
  8
0
 10
60.80152000000001
 20
36.30485
 30
0.0
  0
VERTEX
  5
6FC
  8
0
 10
60.80032
 20
36.21025
 30
0.0
  0
VERTEX
  5
6FD
  8
0
 10
60.77122
 20
35.28165
 30
0.0
  0
VERTEX
  5
6FE
  8
0
 10
60.76682
 20
35.19055
 30
0.0
  0
VERTEX
  5
6FF
  8
0
 10
60.76241999999999
 20
35.09955
 30
0.0
  0
VERTEX
  5
700
  8
0
 10
60.70432
 20
34.20775
 30
0.0
  0
VERTEX
  5
701
  8
0
 10
60.69741999999999
 20
34.12045
 30
0.0
  0
VERTEX
  5
702
  8
0
 10
60.68322000000001
 20
33.94565
 30
0.0
  0
VERTEX
  5
703
  8
0
 10
60.60042
 20
33.09415
 30
0.0
  0
VERTEX
  5
704
  8
0
 10
60.50391999999999
 20
32.27195
 30
0.0
  0
VERTEX
  5
705
  8
0
 10
60.48312
 20
32.11165
 30
0.0
  0
VERTEX
  5
706
  8
0
 10
60.46212
 20
31.95165
 30
0.0
  0
VERTEX
  5
707
  8
0
 10
60.35151999999999
 20
31.17265
 30
0.0
  0
VERTEX
  5
708
  8
0
 10
60.23562000000001
 20
30.42225
 30
0.0
  0
VERTEX
  5
709
  8
0
 10
60.21191999999999
 20
30.27635
 30
0.0
  0
VERTEX
  5
70A
  8
0
 10
60.18832
 20
30.13055
 30
0.0
  0
VERTEX
  5
70B
  8
0
 10
60.06962
 20
29.42235
 30
0.0
  0
VERTEX
  5
70C
  8
0
 10
59.95212000000001
 20
28.74165
 30
0.0
  0
VERTEX
  5
70D
  8
0
 10
59.92922
 20
28.60955
 30
0.0
  0
VERTEX
  5
70E
  8
0
 10
59.92261999999999
 20
28.57245
 30
0.0
  0
VERTEX
  5
70F
  8
0
 10
59.85902
 20
28.20635
 30
0.0
  0
VERTEX
  5
710
  8
0
 10
59.85282000000001
 20
28.17025
 30
0.0
  0
VERTEX
  5
711
  8
0
 10
59.84721999999999
 20
28.13815
 30
0.0
  0
VERTEX
  5
712
  8
0
 10
59.79262
 20
27.82155
 30
0.0
  0
VERTEX
  5
713
  8
0
 10
59.78722
 20
27.79025
 30
0.0
  0
VERTEX
  5
714
  8
0
 10
57.55922
 20
14.78775
 30
0.0
  0
VERTEX
  5
715
  8
0
 10
57.55872
 20
14.78595
 30
0.0
  0
VERTEX
  5
716
  8
0
 10
57.55562
 20
14.76765
 30
0.0
  0
VERTEX
  5
717
  8
0
 10
57.55512
 20
14.76585
 30
0.0
  0
VERTEX
  5
718
  8
0
 10
57.54812
 20
14.72815
 30
0.0
  0
VERTEX
  5
719
  8
0
 10
57.51932
 20
14.61655
 30
0.0
  0
VERTEX
  5
71A
  8
0
 10
57.46972
 20
14.47425
 30
0.0
  0
VERTEX
  5
71B
  8
0
 10
57.40692
 20
14.33975
 30
0.0
  0
VERTEX
  5
71C
  8
0
 10
57.33212
 20
14.21355
 30
0.0
  0
VERTEX
  5
71D
  8
0
 10
57.24602
 20
14.09625
 30
0.0
  0
VERTEX
  5
71E
  8
0
 10
57.14942
 20
13.98845
 30
0.0
  0
VERTEX
  5
71F
  8
0
 10
57.04332
 20
13.89085
 30
0.0
  0
VERTEX
  5
720
  8
0
 10
56.92862
 20
13.80385
 30
0.0
  0
VERTEX
  5
721
  8
0
 10
56.80612
 20
13.72815
 30
0.0
  0
VERTEX
  5
722
  8
0
 10
56.67682
 20
13.66455
 30
0.0
  0
VERTEX
  5
723
  8
0
 10
56.54142
 20
13.61345
 30
0.0
  0
VERTEX
  5
724
  8
0
 10
56.40102
 20
13.57545
 30
0.0
  0
VERTEX
  5
725
  8
0
 10
56.25612
 20
13.55115
 30
0.0
  0
VERTEX
  5
726
  8
0
 10
56.10812
 20
13.54125
 30
0.0
  0
VERTEX
  5
727
  8
0
 10
55.95752
 20
13.54625
 30
0.0
  0
VERTEX
  5
728
  8
0
 10
55.84292
 20
13.55975
 30
0.0
  0
VERTEX
  5
729
  8
0
 10
55.80532
 20
13.56665
 30
0.0
  0
VERTEX
  5
72A
  8
0
 10
55.76782
 20
13.57375
 30
0.0
  0
VERTEX
  5
72B
  8
0
 10
55.39262
 20
13.64475
 30
0.0
  0
VERTEX
  5
72C
  8
0
 10
55.35512
 20
13.65195
 30
0.0
  0
VERTEX
  5
72D
  8
0
 10
55.34492
 20
13.65405
 30
0.0
  0
VERTEX
  5
72E
  8
0
 10
55.24282
 20
13.67375
 30
0.0
  0
VERTEX
  5
72F
  8
0
 10
55.23262
 20
13.67565
 30
0.0
  0
VERTEX
  5
730
  8
0
 10
54.84322
 20
13.75115
 30
0.0
  0
VERTEX
  5
731
  8
0
 10
53.67822
 20
13.99205
 30
0.0
  0
VERTEX
  5
732
  8
0
 10
52.12312
 20
14.33885
 30
0.0
  0
VERTEX
  5
733
  8
0
 10
50.56722
 20
14.71595
 30
0.0
  0
VERTEX
  5
734
  8
0
 10
49.39872
 20
15.01805
 30
0.0
  0
VERTEX
  5
735
  8
0
 10
49.01072
 20
15.12335
 30
0.0
  0
VERTEX
  5
736
  8
0
 10
48.81902
 20
15.17545
 30
0.0
  0
VERTEX
  5
737
  8
0
 10
46.90182
 20
15.72335
 30
0.0
  0
SEQEND
  5
BF0
  8
0
  0
POLYLINE
  5
97
  8
0
 66
     1
 10
0.0
 20
0.0
 30
0.0
 70
     1
  0
VERTEX
  5
738
  8
0
 10
41.08352
 20
18.44405
 30
0.0
  0
VERTEX
  5
739
  8
0
 10
41.08352
 20
20.44405
 30
0.0
  0
VERTEX
  5
73A
  8
0
 10
41.08352
 20
20.46835
 30
0.0
  0
VERTEX
  5
73B
  8
0
 10
41.10322
 20
20.54125
 30
0.0
  0
VERTEX
  5
73C
  8
0
 10
41.15672
 20
20.62085
 30
0.0
  0
VERTEX
  5
73D
  8
0
 10
41.23612
 20
20.67425
 30
0.0
  0
VERTEX
  5
73E
  8
0
 10
41.30922
 20
20.69405
 30
0.0
  0
VERTEX
  5
73F
  8
0
 10
41.33352
 20
20.69405
 30
0.0
  0
VERTEX
  5
740
  8
0
 10
41.56612000000001
 20
20.69405
 30
0.0
  0
VERTEX
  5
741
  8
0
 10
41.59042
 20
20.69405
 30
0.0
  0
VERTEX
  5
742
  8
0
 10
41.66332
 20
20.67425
 30
0.0
  0
VERTEX
  5
743
  8
0
 10
41.74282
 20
20.62085
 30
0.0
  0
VERTEX
  5
744
  8
0
 10
41.79642
 20
20.54125
 30
0.0
  0
VERTEX
  5
745
  8
0
 10
41.81612000000001
 20
20.46835
 30
0.0
  0
VERTEX
  5
746
  8
0
 10
41.81612000000001
 20
20.44405
 30
0.0
  0
VERTEX
  5
747
  8
0
 10
41.81612000000001
 20
19.94405
 30
0.0
 42
1.0
  0
VERTEX
  5
748
  8
0
 10
42.0669074015748
 20
19.94405
 30
0.0
  0
VERTEX
  5
749
  8
0
 10
43.03122
 20
19.94405
 30
0.0
  0
VERTEX
  5
74A
  8
0
 10
43.05552
 20
19.94405
 30
0.0
  0
VERTEX
  5
74B
  8
0
 10
43.12852
 20
19.92425
 30
0.0
  0
VERTEX
  5
74C
  8
0
 10
43.20802
 20
19.87085
 30
0.0
  0
VERTEX
  5
74D
  8
0
 10
43.26152
 20
19.79125
 30
0.0
  0
VERTEX
  5
74E
  8
0
 10
43.28122
 20
19.71835
 30
0.0
  0
VERTEX
  5
74F
  8
0
 10
43.28122
 20
19.69405
 30
0.0
  0
VERTEX
  5
750
  8
0
 10
43.28122
 20
19.19405
 30
0.0
  0
VERTEX
  5
751
  8
0
 10
43.28122
 20
19.16975
 30
0.0
  0
VERTEX
  5
752
  8
0
 10
43.26152
 20
19.09665
 30
0.0
  0
VERTEX
  5
753
  8
0
 10
43.20802
 20
19.01725
 30
0.0
  0
VERTEX
  5
754
  8
0
 10
43.12852
 20
18.96355
 30
0.0
  0
VERTEX
  5
755
  8
0
 10
43.05552
 20
18.94405
 30
0.0
  0
VERTEX
  5
756
  8
0
 10
43.03122
 20
18.94405
 30
0.0
  0
VERTEX
  5
757
  8
0
 10
42.0669074015748
 20
18.94405
 30
0.0
 42
1.0
  0
VERTEX
  5
758
  8
0
 10
41.81612000000001
 20
18.94405
 30
0.0
  0
VERTEX
  5
759
  8
0
 10
41.81612000000001
 20
18.44405
 30
0.0
  0
VERTEX
  5
75A
  8
0
 10
41.81612000000001
 20
18.41975
 30
0.0
  0
VERTEX
  5
75B
  8
0
 10
41.79642
 20
18.34665
 30
0.0
  0
VERTEX
  5
75C
  8
0
 10
41.74282
 20
18.26725
 30
0.0
  0
VERTEX
  5
75D
  8
0
 10
41.66332
 20
18.21355
 30
0.0
  0
VERTEX
  5
75E
  8
0
 10
41.59042
 20
18.19405
 30
0.0
  0
VERTEX
  5
75F
  8
0
 10
41.56612000000001
 20
18.19405
 30
0.0
  0
VERTEX
  5
760
  8
0
 10
41.33352
 20
18.19405
 30
0.0
  0
VERTEX
  5
761
  8
0
 10
41.30922
 20
18.19405
 30
0.0
  0
VERTEX
  5
762
  8
0
 10
41.23612
 20
18.21355
 30
0.0
  0
VERTEX
  5
763
  8
0
 10
41.15672
 20
18.26725
 30
0.0
  0
VERTEX
  5
764
  8
0
 10
41.10322
 20
18.34665
 30
0.0
  0
VERTEX
  5
765
  8
0
 10
41.08352
 20
18.41975
 30
0.0
  0
SEQEND
  5
BF1
  8
0
  0
POLYLINE
  5
98
  8
0
 66
     1
 10
0.0
 20
0.0
 30
0.0
 70
     1
  0
VERTEX
  5
766
  8
0
 10
29.53602
 20
24.56365
 30
0.0
  0
VERTEX
  5
767
  8
0
 10
29.53602
 20
25.0454625984252
 30
0.0
 42
1.0
  0
VERTEX
  5
768
  8
0
 10
29.53602
 20
25.29625
 30
0.0
  0
VERTEX
  5
769
  8
0
 10
29.03602
 20
25.29625
 30
0.0
  0
VERTEX
  5
76A
  8
0
 10
29.03602
 20
43.83095
 30
0.0
  0
VERTEX
  5
76B
  8
0
 10
29.53602
 20
43.83095
 30
0.0
 42
1.0
  0
VERTEX
  5
76C
  8
0
 10
29.53602
 20
44.0817374015748
 30
0.0
  0
VERTEX
  5
76D
  8
0
 10
29.53602
 20
44.56365
 30
0.0
  0
VERTEX
  5
76E
  8
0
 10
29.91972
 20
44.56365
 30
0.0
  0
VERTEX
  5
76F
  8
0
 10
29.91972
 20
43.42985
 30
0.0
  0
VERTEX
  5
770
  8
0
 10
29.91972
 20
43.41155
 30
0.0
  0
VERTEX
  5
771
  8
0
 10
29.92712
 20
43.35615
 30
0.0
  0
VERTEX
  5
772
  8
0
 10
29.94852
 20
43.28735
 30
0.0
  0
VERTEX
  5
773
  8
0
 10
29.98222
 20
43.22515
 30
0.0
  0
VERTEX
  5
774
  8
0
 10
30.02692
 20
43.17095
 30
0.0
  0
VERTEX
  5
775
  8
0
 10
30.08112
 20
43.12625
 30
0.0
  0
VERTEX
  5
776
  8
0
 10
30.14332
 20
43.09235
 30
0.0
  0
VERTEX
  5
777
  8
0
 10
30.21222
 20
43.07115
 30
0.0
  0
VERTEX
  5
778
  8
0
 10
30.26752
 20
43.06365
 30
0.0
  0
VERTEX
  5
779
  8
0
 10
30.28602
 20
43.06365
 30
0.0
  0
VERTEX
  5
77A
  8
0
 10
30.30442
 20
43.06365
 30
0.0
  0
VERTEX
  5
77B
  8
0
 10
30.35992
 20
43.07115
 30
0.0
  0
VERTEX
  5
77C
  8
0
 10
30.42862
 20
43.09235
 30
0.0
  0
VERTEX
  5
77D
  8
0
 10
30.49082
 20
43.12625
 30
0.0
  0
VERTEX
  5
77E
  8
0
 10
30.54502
 20
43.17095
 30
0.0
  0
VERTEX
  5
77F
  8
0
 10
30.58972
 20
43.22515
 30
0.0
  0
VERTEX
  5
780
  8
0
 10
30.62352
 20
43.28735
 30
0.0
  0
VERTEX
  5
781
  8
0
 10
30.64492
 20
43.35615
 30
0.0
  0
VERTEX
  5
782
  8
0
 10
30.65242
 20
43.41155
 30
0.0
  0
VERTEX
  5
783
  8
0
 10
30.65242
 20
43.42985
 30
0.0
  0
VERTEX
  5
784
  8
0
 10
30.65242
 20
44.56365
 30
0.0
  0
VERTEX
  5
785
  8
0
 10
31.03602
 20
44.56365
 30
0.0
  0
VERTEX
  5
786
  8
0
 10
31.03602
 20
44.0817374015748
 30
0.0
 42
1.0
  0
VERTEX
  5
787
  8
0
 10
31.03602
 20
43.83095
 30
0.0
  0
VERTEX
  5
788
  8
0
 10
31.53602
 20
43.83095
 30
0.0
  0
VERTEX
  5
789
  8
0
 10
31.53602
 20
25.29625
 30
0.0
  0
VERTEX
  5
78A
  8
0
 10
31.03602
 20
25.29625
 30
0.0
 42
1.0
  0
VERTEX
  5
78B
  8
0
 10
31.03602
 20
25.0454625984252
 30
0.0
  0
VERTEX
  5
78C
  8
0
 10
31.03602
 20
24.56365
 30
0.0
  0
VERTEX
  5
78D
  8
0
 10
30.65242
 20
24.56365
 30
0.0
  0
VERTEX
  5
78E
  8
0
 10
30.65242
 20
25.69725
 30
0.0
  0
VERTEX
  5
78F
  8
0
 10
30.65242
 20
25.71585
 30
0.0
  0
VERTEX
  5
790
  8
0
 10
30.64492
 20
25.77105
 30
0.0
  0
VERTEX
  5
791
  8
0
 10
30.62352
 20
25.83985
 30
0.0
  0
VERTEX
  5
792
  8
0
 10
30.58972
 20
25.90205
 30
0.0
  0
VERTEX
  5
793
  8
0
 10
30.54502
 20
25.95635
 30
0.0
  0
VERTEX
  5
794
  8
0
 10
30.49082
 20
26.00115
 30
0.0
  0
VERTEX
  5
795
  8
0
 10
30.42862
 20
26.03485
 30
0.0
  0
VERTEX
  5
796
  8
0
 10
30.35992
 20
26.05615
 30
0.0
  0
VERTEX
  5
797
  8
0
 10
30.30442
 20
26.06365
 30
0.0
  0
VERTEX
  5
798
  8
0
 10
30.28602
 20
26.06365
 30
0.0
  0
VERTEX
  5
799
  8
0
 10
30.26752
 20
26.06365
 30
0.0
  0
VERTEX
  5
79A
  8
0
 10
30.21222
 20
26.05615
 30
0.0
  0
VERTEX
  5
79B
  8
0
 10
30.14332
 20
26.03485
 30
0.0
  0
VERTEX
  5
79C
  8
0
 10
30.08112
 20
26.00115
 30
0.0
  0
VERTEX
  5
79D
  8
0
 10
30.02692
 20
25.95635
 30
0.0
  0
VERTEX
  5
79E
  8
0
 10
29.98222
 20
25.90205
 30
0.0
  0
VERTEX
  5
79F
  8
0
 10
29.94852
 20
25.83985
 30
0.0
  0
VERTEX
  5
7A0
  8
0
 10
29.92712
 20
25.77105
 30
0.0
  0
VERTEX
  5
7A1
  8
0
 10
29.91972
 20
25.71585
 30
0.0
  0
VERTEX
  5
7A2
  8
0
 10
29.91972
 20
25.69725
 30
0.0
  0
VERTEX
  5
7A3
  8
0
 10
29.91972
 20
24.56365
 30
0.0
  0
SEQEND
  5
BF2
  8
0
  0
POLYLINE
  5
99
  8
0
 66
     1
 10
0.0
 20
0.0
 30
0.0
 70
     1
  0
VERTEX
  5
7A4
  8
0
 10
50.89322
 20
3.838220000000001
 30
0.0
  0
VERTEX
  5
7A5
  8
0
 10
51.3749325984252
 20
3.838220000000001
 30
0.0
 42
-1.0
  0
VERTEX
  5
7A6
  8
0
 10
51.62572
 20
3.838220000000001
 30
0.0
  0
VERTEX
  5
7A7
  8
0
 10
51.62572
 20
3.338220000000001
 30
0.0
  0
VERTEX
  5
7A8
  8
0
 10
52.80352
 20
3.338220000000001
 30
0.0
  0
VERTEX
  5
7A9
  8
0
 10
52.84392
 20
3.338220000000001
 30
0.0
  0
VERTEX
  5
7AA
  8
0
 10
52.96502
 20
3.320360000000001
 30
0.0
  0
VERTEX
  5
7AB
  8
0
 10
52.97932
 20
3.316790000000001
 30
0.0
  0
VERTEX
  5
7AC
  8
0
 10
53.22572
 20
3.255860000000001
 30
0.0
  0
VERTEX
  5
7AD
  8
0
 10
53.96852
 20
3.087460000000001
 30
0.0
  0
VERTEX
  5
7AE
  8
0
 10
54.95782
 20
2.88867
 30
0.0
  0
VERTEX
  5
7AF
  8
0
 10
55.94692
 20
2.720490000000001
 30
0.0
  0
VERTEX
  5
7B0
  8
0
 10
56.93622
 20
2.582910000000001
 30
0.0
  0
VERTEX
  5
7B1
  8
0
 10
57.92542
 20
2.475860000000001
 30
0.0
  0
VERTEX
  5
7B2
  8
0
 10
58.91472
 20
2.399420000000001
 30
0.0
  0
VERTEX
  5
7B3
  8
0
 10
59.90392
 20
2.35357
 30
0.0
  0
VERTEX
  5
7B4
  8
0
 10
60.89322
 20
2.338270000000001
 30
0.0
  0
VERTEX
  5
7B5
  8
0
 10
61.88242
 20
2.35357
 30
0.0
  0
VERTEX
  5
7B6
  8
0
 10
62.87172000000001
 20
2.399420000000001
 30
0.0
  0
VERTEX
  5
7B7
  8
0
 10
63.86081999999999
 20
2.475860000000001
 30
0.0
  0
VERTEX
  5
7B8
  8
0
 10
64.85012
 20
2.582910000000001
 30
0.0
  0
VERTEX
  5
7B9
  8
0
 10
65.83932000000001
 20
2.720490000000001
 30
0.0
  0
VERTEX
  5
7BA
  8
0
 10
66.82862
 20
2.88867
 30
0.0
  0
VERTEX
  5
7BB
  8
0
 10
67.81782000000001
 20
3.087460000000001
 30
0.0
  0
VERTEX
  5
7BC
  8
0
 10
68.56062
 20
3.255860000000001
 30
0.0
  0
VERTEX
  5
7BD
  8
0
 10
68.80691999999999
 20
3.316790000000001
 30
0.0
  0
VERTEX
  5
7BE
  8
0
 10
68.82141999999999
 20
3.320360000000001
 30
0.0
  0
VERTEX
  5
7BF
  8
0
 10
68.93892
 20
3.338220000000001
 30
0.0
  0
VERTEX
  5
7C0
  8
0
 10
68.98292000000001
 20
3.338220000000001
 30
0.0
  0
VERTEX
  5
7C1
  8
0
 10
70.16051999999999
 20
3.338220000000001
 30
0.0
  0
VERTEX
  5
7C2
  8
0
 10
70.16051999999999
 20
3.838220000000001
 30
0.0
 42
-1.0
  0
VERTEX
  5
7C3
  8
0
 10
70.41130740157479
 20
3.838220000000001
 30
0.0
  0
VERTEX
  5
7C4
  8
0
 10
70.89322000000001
 20
3.838220000000001
 30
0.0
  0
VERTEX
  5
7C5
  8
0
 10
70.89322000000001
 20
4.221950000000001
 30
0.0
  0
VERTEX
  5
7C6
  8
0
 10
69.75942
 20
4.221950000000001
 30
0.0
  0
VERTEX
  5
7C7
  8
0
 10
69.74101999999999
 20
4.221950000000001
 30
0.0
  0
VERTEX
  5
7C8
  8
0
 10
69.68572
 20
4.229430000000001
 30
0.0
  0
VERTEX
  5
7C9
  8
0
 10
69.61681999999999
 20
4.250770000000001
 30
0.0
  0
VERTEX
  5
7CA
  8
0
 10
69.55462
 20
4.2845
 30
0.0
  0
VERTEX
  5
7CB
  8
0
 10
69.50041999999999
 20
4.329270000000001
 30
0.0
  0
VERTEX
  5
7CC
  8
0
 10
69.45572000000001
 20
4.38346
 30
0.0
  0
VERTEX
  5
7CD
  8
0
 10
69.42192
 20
4.445640000000001
 30
0.0
  0
VERTEX
  5
7CE
  8
0
 10
69.40062
 20
4.514430000000001
 30
0.0
  0
VERTEX
  5
7CF
  8
0
 10
69.39322000000001
 20
4.569770000000001
 30
0.0
  0
VERTEX
  5
7D0
  8
0
 10
69.39322000000001
 20
4.588220000000001
 30
0.0
  0
VERTEX
  5
7D1
  8
0
 10
69.39322000000001
 20
4.606720000000001
 30
0.0
  0
VERTEX
  5
7D2
  8
0
 10
69.40062
 20
4.66206
 30
0.0
  0
VERTEX
  5
7D3
  8
0
 10
69.42192
 20
4.730850000000001
 30
0.0
  0
VERTEX
  5
7D4
  8
0
 10
69.45572000000001
 20
4.79309
 30
0.0
  0
VERTEX
  5
7D5
  8
0
 10
69.50041999999999
 20
4.84728
 30
0.0
  0
VERTEX
  5
7D6
  8
0
 10
69.55462
 20
4.891990000000001
 30
0.0
  0
VERTEX
  5
7D7
  8
0
 10
69.61681999999999
 20
4.92578
 30
0.0
  0
VERTEX
  5
7D8
  8
0
 10
69.68572
 20
4.947100000000001
 30
0.0
  0
VERTEX
  5
7D9
  8
0
 10
69.74101999999999
 20
4.954540000000001
 30
0.0
  0
VERTEX
  5
7DA
  8
0
 10
69.75942
 20
4.954540000000001
 30
0.0
  0
VERTEX
  5
7DB
  8
0
 10
70.89322000000001
 20
4.954540000000001
 30
0.0
  0
VERTEX
  5
7DC
  8
0
 10
70.89322000000001
 20
5.338220000000001
 30
0.0
  0
VERTEX
  5
7DD
  8
0
 10
70.41130740157479
 20
5.338220000000001
 30
0.0
 42
-1.0
  0
VERTEX
  5
7DE
  8
0
 10
70.16051999999999
 20
5.338220000000001
 30
0.0
  0
VERTEX
  5
7DF
  8
0
 10
70.16051999999999
 20
5.838220000000001
 30
0.0
  0
VERTEX
  5
7E0
  8
0
 10
51.62572
 20
5.838220000000001
 30
0.0
  0
VERTEX
  5
7E1
  8
0
 10
51.62572
 20
5.338220000000001
 30
0.0
 42
-1.0
  0
VERTEX
  5
7E2
  8
0
 10
51.3749325984252
 20
5.338220000000001
 30
0.0
  0
VERTEX
  5
7E3
  8
0
 10
50.89322
 20
5.338220000000001
 30
0.0
  0
VERTEX
  5
7E4
  8
0
 10
50.89322
 20
4.954540000000001
 30
0.0
  0
VERTEX
  5
7E5
  8
0
 10
52.02682
 20
4.954540000000001
 30
0.0
  0
VERTEX
  5
7E6
  8
0
 10
52.04532
 20
4.954540000000001
 30
0.0
  0
VERTEX
  5
7E7
  8
0
 10
52.10072
 20
4.947100000000001
 30
0.0
  0
VERTEX
  5
7E8
  8
0
 10
52.16942
 20
4.92578
 30
0.0
  0
VERTEX
  5
7E9
  8
0
 10
52.23172
 20
4.891990000000001
 30
0.0
  0
VERTEX
  5
7EA
  8
0
 10
52.28582
 20
4.84728
 30
0.0
  0
VERTEX
  5
7EB
  8
0
 10
52.33062
 20
4.79309
 30
0.0
  0
VERTEX
  5
7EC
  8
0
 10
52.36432
 20
4.730850000000001
 30
0.0
  0
VERTEX
  5
7ED
  8
0
 10
52.38572
 20
4.66206
 30
0.0
  0
VERTEX
  5
7EE
  8
0
 10
52.39322
 20
4.606720000000001
 30
0.0
  0
VERTEX
  5
7EF
  8
0
 10
52.39322
 20
4.588220000000001
 30
0.0
  0
VERTEX
  5
7F0
  8
0
 10
52.39322
 20
4.569770000000001
 30
0.0
  0
VERTEX
  5
7F1
  8
0
 10
52.38572
 20
4.514430000000001
 30
0.0
  0
VERTEX
  5
7F2
  8
0
 10
52.36432
 20
4.445640000000001
 30
0.0
  0
VERTEX
  5
7F3
  8
0
 10
52.33062
 20
4.38346
 30
0.0
  0
VERTEX
  5
7F4
  8
0
 10
52.28582
 20
4.329270000000001
 30
0.0
  0
VERTEX
  5
7F5
  8
0
 10
52.23172
 20
4.2845
 30
0.0
  0
VERTEX
  5
7F6
  8
0
 10
52.16942
 20
4.250770000000001
 30
0.0
  0
VERTEX
  5
7F7
  8
0
 10
52.10072
 20
4.229430000000001
 30
0.0
  0
VERTEX
  5
7F8
  8
0
 10
52.04532
 20
4.221950000000001
 30
0.0
  0
VERTEX
  5
7F9
  8
0
 10
52.02682
 20
4.221950000000001
 30
0.0
  0
VERTEX
  5
7FA
  8
0
 10
50.89322
 20
4.221950000000001
 30
0.0
  0
SEQEND
  5
BF3
  8
0
  0
POLYLINE
  5
9A
  8
0
 66
     1
 10
0.0
 20
0.0
 30
0.0
 70
     1
  0
VERTEX
  5
7FB
  8
0
 10
23.96442
 20
24.54265
 30
0.0
  0
VERTEX
  5
7FC
  8
0
 10
23.96442
 20
25.0243625984252
 30
0.0
 42
1.0
  0
VERTEX
  5
7FD
  8
0
 10
23.96442
 20
25.27515
 30
0.0
  0
VERTEX
  5
7FE
  8
0
 10
23.46442
 20
25.27515
 30
0.0
  0
VERTEX
  5
7FF
  8
0
 10
23.46442
 20
43.80995
 30
0.0
  0
VERTEX
  5
800
  8
0
 10
23.96442
 20
43.80995
 30
0.0
 42
1.0
  0
VERTEX
  5
801
  8
0
 10
23.96442
 20
44.0607374015748
 30
0.0
  0
VERTEX
  5
802
  8
0
 10
23.96442
 20
44.54255000000001
 30
0.0
  0
VERTEX
  5
803
  8
0
 10
24.34822
 20
44.54245
 30
0.0
  0
VERTEX
  5
804
  8
0
 10
24.34822
 20
43.40885
 30
0.0
  0
VERTEX
  5
805
  8
0
 10
24.34822
 20
43.39045
 30
0.0
  0
VERTEX
  5
806
  8
0
 10
24.35572000000001
 20
43.33515
 30
0.0
  0
VERTEX
  5
807
  8
0
 10
24.37692000000001
 20
43.26625
 30
0.0
  0
VERTEX
  5
808
  8
0
 10
24.41072
 20
43.20405
 30
0.0
  0
VERTEX
  5
809
  8
0
 10
24.45562
 20
43.14985
 30
0.0
  0
VERTEX
  5
80A
  8
0
 10
24.50972
 20
43.10515
 30
0.0
  0
VERTEX
  5
80B
  8
0
 10
24.57192000000001
 20
43.07135
 30
0.0
  0
VERTEX
  5
80C
  8
0
 10
24.64072
 20
43.04995
 30
0.0
  0
VERTEX
  5
80D
  8
0
 10
24.69602
 20
43.04245
 30
0.0
  0
VERTEX
  5
80E
  8
0
 10
24.71442
 20
43.04245
 30
0.0
  0
VERTEX
  5
80F
  8
0
 10
24.73292
 20
43.04245
 30
0.0
  0
VERTEX
  5
810
  8
0
 10
24.78832000000001
 20
43.04995
 30
0.0
  0
VERTEX
  5
811
  8
0
 10
24.85712
 20
43.07135
 30
0.0
  0
VERTEX
  5
812
  8
0
 10
24.91932000000001
 20
43.10515
 30
0.0
  0
VERTEX
  5
813
  8
0
 10
24.97352
 20
43.14985
 30
0.0
  0
VERTEX
  5
814
  8
0
 10
25.01822000000001
 20
43.20405
 30
0.0
  0
VERTEX
  5
815
  8
0
 10
25.05212
 20
43.26625
 30
0.0
  0
VERTEX
  5
816
  8
0
 10
25.07332
 20
43.33515
 30
0.0
  0
VERTEX
  5
817
  8
0
 10
25.08082
 20
43.39045
 30
0.0
  0
VERTEX
  5
818
  8
0
 10
25.08082
 20
43.40885
 30
0.0
  0
VERTEX
  5
819
  8
0
 10
25.08082
 20
44.54245
 30
0.0
  0
VERTEX
  5
81A
  8
0
 10
25.46442
 20
44.54245
 30
0.0
  0
VERTEX
  5
81B
  8
0
 10
25.46442
 20
44.0607374015748
 30
0.0
 42
1.0
  0
VERTEX
  5
81C
  8
0
 10
25.46442
 20
43.80995
 30
0.0
  0
VERTEX
  5
81D
  8
0
 10
25.96442
 20
43.80995
 30
0.0
  0
VERTEX
  5
81E
  8
0
 10
25.96442
 20
25.27515
 30
0.0
  0
VERTEX
  5
81F
  8
0
 10
25.46441999999999
 20
25.27514999999995
 30
0.0
 42
1.0
  0
VERTEX
  5
820
  8
0
 10
25.46441999999999
 20
25.02436259842515
 30
0.0
  0
VERTEX
  5
821
  8
0
 10
25.46442
 20
24.54245
 30
0.0
  0
VERTEX
  5
822
  8
0
 10
25.08072000000001
 20
24.54245
 30
0.0
  0
VERTEX
  5
823
  8
0
 10
25.08072000000001
 20
25.67625
 30
0.0
  0
VERTEX
  5
824
  8
0
 10
25.08072000000001
 20
25.69475
 30
0.0
  0
VERTEX
  5
825
  8
0
 10
25.07322000000001
 20
25.75015
 30
0.0
  0
VERTEX
  5
826
  8
0
 10
25.05192
 20
25.81885
 30
0.0
  0
VERTEX
  5
827
  8
0
 10
25.01812
 20
25.88115
 30
0.0
  0
VERTEX
  5
828
  8
0
 10
24.97352
 20
25.93525
 30
0.0
  0
VERTEX
  5
829
  8
0
 10
24.91922
 20
25.97995
 30
0.0
  0
VERTEX
  5
82A
  8
0
 10
24.85692
 20
26.01375
 30
0.0
  0
VERTEX
  5
82B
  8
0
 10
24.78822
 20
26.03515
 30
0.0
  0
VERTEX
  5
82C
  8
0
 10
24.73282
 20
26.04245
 30
0.0
  0
VERTEX
  5
82D
  8
0
 10
24.71442
 20
26.04245
 30
0.0
  0
VERTEX
  5
82E
  8
0
 10
24.69582
 20
26.04245
 30
0.0
  0
VERTEX
  5
82F
  8
0
 10
24.64052
 20
26.03515
 30
0.0
  0
VERTEX
  5
830
  8
0
 10
24.57182
 20
26.01375
 30
0.0
  0
VERTEX
  5
831
  8
0
 10
24.50962000000001
 20
25.97995
 30
0.0
  0
VERTEX
  5
832
  8
0
 10
24.45532
 20
25.93525
 30
0.0
  0
VERTEX
  5
833
  8
0
 10
24.41072
 20
25.88115
 30
0.0
  0
VERTEX
  5
834
  8
0
 10
24.37682
 20
25.81885
 30
0.0
  0
VERTEX
  5
835
  8
0
 10
24.35562
 20
25.75015
 30
0.0
  0
VERTEX
  5
836
  8
0
 10
24.34812
 20
25.69475
 30
0.0
  0
VERTEX
  5
837
  8
0
 10
24.34812
 20
25.67625
 30
0.0
  0
VERTEX
  5
838
  8
0
 10
24.34812
 20
24.54245
 30
0.0
  0
SEQEND
  5
BF4
  8
0
  0
POLYLINE
  5
9B
  8
0
 66
     1
 10
0.0
 20
0.0
 30
0.0
 70
     1
  0
VERTEX
  5
839
  8
0
 10
18.90752000000001
 20
28.0073374015748
 30
0.0
  0
VERTEX
  5
83A
  8
0
 10
18.90752000000001
 20
29.2557625984252
 30
0.0
 42
1.0
  0
VERTEX
  5
83B
  8
0
 10
18.90752000000001
 20
29.50655
 30
0.0
  0
VERTEX
  5
83C
  8
0
 10
18.17492
 20
29.50655
 30
0.0
 42
1.0
  0
VERTEX
  5
83D
  8
0
 10
18.17492
 20
29.2557625984252
 30
0.0
  0
VERTEX
  5
83E
  8
0
 10
18.17492
 20
28.0073374015748
 30
0.0
 42
1.0
  0
VERTEX
  5
83F
  8
0
 10
18.17492
 20
27.75655
 30
0.0
  0
VERTEX
  5
840
  8
0
 10
18.90752000000001
 20
27.75655
 30
0.0
 42
1.0
  0
SEQEND
  5
BF5
  8
0
  0
POLYLINE
  5
9C
  8
0
 66
     1
 10
0.0
 20
0.0
 30
0.0
 70
     1
  0
VERTEX
  5
841
  8
0
 10
18.72410233864636
 20
24.66692868922102
 30
0.0
  0
VERTEX
  5
842
  8
0
 10
18.87783766135365
 20
25.90587131077898
 30
0.0
 42
1.0
  0
VERTEX
  5
843
  8
0
 10
18.90872
 20
26.15475
 30
0.0
  0
VERTEX
  5
844
  8
0
 10
18.18172000000001
 20
26.24485
 30
0.0
 42
1.0
  0
VERTEX
  5
845
  8
0
 10
18.15083766135365
 20
25.99597131077898
 30
0.0
  0
VERTEX
  5
846
  8
0
 10
17.99710233864636
 20
24.75702868922102
 30
0.0
 42
1.0
  0
VERTEX
  5
847
  8
0
 10
17.96622
 20
24.50815
 30
0.0
  0
VERTEX
  5
848
  8
0
 10
18.69322
 20
24.41805
 30
0.0
 42
1.0
  0
SEQEND
  5
BF6
  8
0
  0
POLYLINE
  5
9D
  8
0
 66
     1
 10
0.0
 20
0.0
 30
0.0
 70
     1
  0
VERTEX
  5
849
  8
0
 10
18.22278859756831
 20
21.00300894703082
 30
0.0
  0
VERTEX
  5
84A
  8
0
 10
18.4715514024317
 20
22.22649105296918
 30
0.0
 42
1.0
  0
VERTEX
  5
84B
  8
0
 10
18.52152
 20
22.47225
 30
0.0
  0
VERTEX
  5
84C
  8
0
 10
17.80352000000001
 20
22.61815
 30
0.0
 42
1.0
  0
VERTEX
  5
84D
  8
0
 10
17.7535651637447
 20
22.37238825537048
 30
0.0
  0
VERTEX
  5
84E
  8
0
 10
17.50487483625531
 20
21.14891174462952
 30
0.0
 42
1.0
  0
VERTEX
  5
84F
  8
0
 10
17.45492
 20
20.90315
 30
0.0
  0
VERTEX
  5
850
  8
0
 10
18.17282
 20
20.75725
 30
0.0
 42
1.0
  0
SEQEND
  5
BF7
  8
0
  0
POLYLINE
  5
9E
  8
0
 66
     1
 10
0.0
 20
0.0
 30
0.0
 70
     1
  0
VERTEX
  5
851
  8
0
 10
36.13182
 20
3.944070000000004
 30
0.0
  0
VERTEX
  5
852
  8
0
 10
36.42242
 20
3.252659999999985
 30
0.0
 42
-1.0
  0
VERTEX
  5
853
  8
0
 10
36.19121754001614
 20
3.155501658690295
 30
0.0
  0
VERTEX
  5
854
  8
0
 10
35.04022245998387
 20
2.671818341309701
 30
0.0
 42
-1.0
  0
VERTEX
  5
855
  8
0
 10
34.80902
 20
2.574660000000012
 30
0.0
  0
VERTEX
  5
856
  8
0
 10
34.51852000000001
 20
3.266060000000007
 30
0.0
 42
-1.0
  0
VERTEX
  5
857
  8
0
 10
34.74971979715379
 20
3.363224677659605
 30
0.0
  0
VERTEX
  5
858
  8
0
 10
35.90062020284623
 20
3.846905322340405
 30
0.0
 42
-1.0
  0
SEQEND
  5
BF8
  8
0
  0
POLYLINE
  5
9F
  8
0
 66
     1
 10
0.0
 20
0.0
 30
0.0
 70
     1
  0
VERTEX
  5
859
  8
0
 10
0.0000000000000053
 20
37.55125
 30
0.0
  0
VERTEX
  5
85A
  8
0
 10
0.4818525984252035
 20
37.55125000000001
 30
0.0
 42
-1.0
  0
VERTEX
  5
85B
  8
0
 10
0.7326400000000035
 20
37.55125000000001
 30
0.0
  0
VERTEX
  5
85C
  8
0
 10
0.7326400000000068
 20
37.05125
 30
0.0
  0
VERTEX
  5
85D
  8
0
 10
19.26742
 20
37.05125
 30
0.0
  0
VERTEX
  5
85E
  8
0
 10
19.26742
 20
37.55125
 30
0.0
 42
-1.0
  0
VERTEX
  5
85F
  8
0
 10
19.5182074015748
 20
37.55125
 30
0.0
  0
VERTEX
  5
860
  8
0
 10
20.00002000000001
 20
37.55125
 30
0.0
  0
VERTEX
  5
861
  8
0
 10
20.00002000000001
 20
37.93495
 30
0.0
  0
VERTEX
  5
862
  8
0
 10
18.86622000000001
 20
37.93495
 30
0.0
  0
VERTEX
  5
863
  8
0
 10
18.84782000000001
 20
37.93495
 30
0.0
  0
VERTEX
  5
864
  8
0
 10
18.79252
 20
37.94245
 30
0.0
  0
VERTEX
  5
865
  8
0
 10
18.72362
 20
37.96375
 30
0.0
  0
VERTEX
  5
866
  8
0
 10
18.66142000000001
 20
37.99765
 30
0.0
  0
VERTEX
  5
867
  8
0
 10
18.60722000000001
 20
38.04225
 30
0.0
  0
VERTEX
  5
868
  8
0
 10
18.56252000000001
 20
38.09655
 30
0.0
  0
VERTEX
  5
869
  8
0
 10
18.52872
 20
38.15875
 30
0.0
  0
VERTEX
  5
86A
  8
0
 10
18.50742
 20
38.22745
 30
0.0
  0
VERTEX
  5
86B
  8
0
 10
18.50002000000001
 20
38.28275
 30
0.0
  0
VERTEX
  5
86C
  8
0
 10
18.50002000000001
 20
38.30125
 30
0.0
  0
VERTEX
  5
86D
  8
0
 10
18.50002000000001
 20
38.31975
 30
0.0
  0
VERTEX
  5
86E
  8
0
 10
18.50742
 20
38.37515
 30
0.0
  0
VERTEX
  5
86F
  8
0
 10
18.52872
 20
38.44385
 30
0.0
  0
VERTEX
  5
870
  8
0
 10
18.56252000000001
 20
38.50605
 30
0.0
  0
VERTEX
  5
871
  8
0
 10
18.60722000000001
 20
38.56025
 30
0.0
  0
VERTEX
  5
872
  8
0
 10
18.66142000000001
 20
38.60495
 30
0.0
  0
VERTEX
  5
873
  8
0
 10
18.72362
 20
38.63885
 30
0.0
  0
VERTEX
  5
874
  8
0
 10
18.79252
 20
38.66015
 30
0.0
  0
VERTEX
  5
875
  8
0
 10
18.84782000000001
 20
38.66765
 30
0.0
  0
VERTEX
  5
876
  8
0
 10
18.86622000000001
 20
38.66765
 30
0.0
  0
VERTEX
  5
877
  8
0
 10
20.00002000000001
 20
38.66765
 30
0.0
  0
VERTEX
  5
878
  8
0
 10
20.00002000000001
 20
39.05125
 30
0.0
  0
VERTEX
  5
879
  8
0
 10
19.5182074015748
 20
39.05125
 30
0.0
 42
-1.0
  0
VERTEX
  5
87A
  8
0
 10
19.26742
 20
39.05125
 30
0.0
  0
VERTEX
  5
87B
  8
0
 10
19.26742
 20
39.55125
 30
0.0
  0
VERTEX
  5
87C
  8
0
 10
0.7326400000000028
 20
39.55125
 30
0.0
  0
VERTEX
  5
87D
  8
0
 10
0.7326400000000072
 20
39.05125
 30
0.0
 42
-1.0
  0
VERTEX
  5
87E
  8
0
 10
0.4818525984252072
 20
39.05125
 30
0.0
  0
VERTEX
  5
87F
  8
0
 10
0.0000000000000053
 20
39.05125
 30
0.0
  0
VERTEX
  5
880
  8
0
 10
0.0000000000000053
 20
38.66765
 30
0.0
  0
VERTEX
  5
881
  8
0
 10
1.133740000000005
 20
38.66765
 30
0.0
  0
VERTEX
  5
882
  8
0
 10
1.152180000000005
 20
38.66765
 30
0.0
  0
VERTEX
  5
883
  8
0
 10
1.207530000000005
 20
38.66015
 30
0.0
  0
VERTEX
  5
884
  8
0
 10
1.276260000000004
 20
38.63885
 30
0.0
  0
VERTEX
  5
885
  8
0
 10
1.338490000000006
 20
38.60495
 30
0.0
  0
VERTEX
  5
886
  8
0
 10
1.392690000000005
 20
38.56025
 30
0.0
  0
VERTEX
  5
887
  8
0
 10
1.437390000000004
 20
38.50605
 30
0.0
  0
VERTEX
  5
888
  8
0
 10
1.471200000000005
 20
38.44385
 30
0.0
  0
VERTEX
  5
889
  8
0
 10
1.492510000000005
 20
38.37515
 30
0.0
  0
VERTEX
  5
88A
  8
0
 10
1.500000000000005
 20
38.31975
 30
0.0
  0
VERTEX
  5
88B
  8
0
 10
1.500000000000005
 20
38.30125
 30
0.0
  0
VERTEX
  5
88C
  8
0
 10
1.500000000000005
 20
38.28275
 30
0.0
  0
VERTEX
  5
88D
  8
0
 10
1.492510000000005
 20
38.22745
 30
0.0
  0
VERTEX
  5
88E
  8
0
 10
1.471200000000005
 20
38.15875
 30
0.0
  0
VERTEX
  5
88F
  8
0
 10
1.437390000000004
 20
38.09655
 30
0.0
  0
VERTEX
  5
890
  8
0
 10
1.392690000000005
 20
38.04225
 30
0.0
  0
VERTEX
  5
891
  8
0
 10
1.338490000000006
 20
37.99765
 30
0.0
  0
VERTEX
  5
892
  8
0
 10
1.276260000000004
 20
37.96375
 30
0.0
  0
VERTEX
  5
893
  8
0
 10
1.207530000000005
 20
37.94245
 30
0.0
  0
VERTEX
  5
894
  8
0
 10
1.152180000000005
 20
37.93495
 30
0.0
  0
VERTEX
  5
895
  8
0
 10
1.133740000000005
 20
37.93495
 30
0.0
  0
VERTEX
  5
896
  8
0
 10
0.0000000000000053
 20
37.93495
 30
0.0
  0
SEQEND
  5
BF9
  8
0
  0
POLYLINE
  5
A0
  8
0
 66
     1
 10
0.0
 20
0.0
 30
0.0
 70
     1
  0
VERTEX
  5
897
  8
0
 10
17.64388205177563
 20
17.69699884386452
 30
0.0
  0
VERTEX
  5
898
  8
0
 10
17.92495794822437
 20
18.91340115613548
 30
0.0
 42
1.0
  0
VERTEX
  5
899
  8
0
 10
17.98142
 20
19.15775
 30
0.0
  0
VERTEX
  5
89A
  8
0
 10
17.26752
 20
19.32275
 30
0.0
 42
1.0
  0
VERTEX
  5
89B
  8
0
 10
17.21105794822438
 20
19.07840115613548
 30
0.0
  0
VERTEX
  5
89C
  8
0
 10
16.92998205177563
 20
17.86199884386452
 30
0.0
 42
1.0
  0
VERTEX
  5
89D
  8
0
 10
16.87352000000001
 20
17.61765
 30
0.0
  0
VERTEX
  5
89E
  8
0
 10
17.58742
 20
17.45265
 30
0.0
 42
1.0
  0
SEQEND
  5
BFA
  8
0
  0
POLYLINE
  5
A1
  8
0
 66
     1
 10
0.0
 20
0.0
 30
0.0
 70
     1
  0
VERTEX
  5
89F
  8
0
 10
29.22462
 20
4.744740000000001
 30
0.0
  0
VERTEX
  5
8A0
  8
0
 10
29.69712
 20
4.755590000000001
 30
0.0
  0
VERTEX
  5
8A1
  8
0
 10
32.06112
 20
4.859380000000001
 30
0.0
  0
VERTEX
  5
8A2
  8
0
 10
34.42682
 20
5.029140000000001
 30
0.0
  0
VERTEX
  5
8A3
  8
0
 10
34.90032
 20
5.072945000000001
 30
0.0
  0
VERTEX
  5
8A4
  8
0
 10
34.93852
 20
5.07645
 30
0.0
  0
VERTEX
  5
8A5
  8
0
 10
35.05222
 20
5.094780000000001
 30
0.0
  0
VERTEX
  5
8A6
  8
0
 10
35.19852
 20
5.131180000000001
 30
0.0
  0
VERTEX
  5
8A7
  8
0
 10
35.33822
 20
5.181210000000001
 30
0.0
  0
VERTEX
  5
8A8
  8
0
 10
35.47082
 20
5.244140000000001
 30
0.0
  0
VERTEX
  5
8A9
  8
0
 10
35.59562
 20
5.31913
 30
0.0
  0
VERTEX
  5
8AA
  8
0
 10
35.71182
 20
5.405380000000001
 30
0.0
  0
VERTEX
  5
8AB
  8
0
 10
35.81872
 20
5.502000000000001
 30
0.0
  0
VERTEX
  5
8AC
  8
0
 10
35.91602
 20
5.608180000000001
 30
0.0
  0
VERTEX
  5
8AD
  8
0
 10
36.00252
 20
5.7232
 30
0.0
  0
VERTEX
  5
8AE
  8
0
 10
36.07782
 20
5.846140000000001
 30
0.0
  0
VERTEX
  5
8AF
  8
0
 10
36.14122
 20
5.976240000000001
 30
0.0
  0
VERTEX
  5
8B0
  8
0
 10
36.19212
 20
6.112570000000001
 30
0.0
  0
VERTEX
  5
8B1
  8
0
 10
36.22962
 20
6.25445
 30
0.0
  0
VERTEX
  5
8B2
  8
0
 10
36.25322
 20
6.401039999999998
 30
0.0
  0
VERTEX
  5
8B3
  8
0
 10
36.26212
 20
6.55143
 30
0.0
  0
VERTEX
  5
8B4
  8
0
 10
36.25922
 20
6.66667
 30
0.0
  0
VERTEX
  5
8B5
  8
0
 10
36.25572
 20
6.704809999999998
 30
0.0
  0
VERTEX
  5
8B6
  8
0
 10
36.25472
 20
6.714459999999999
 30
0.0
  0
VERTEX
  5
8B7
  8
0
 10
36.24212
 20
6.810389999999998
 30
0.0
  0
VERTEX
  5
8B8
  8
0
 10
36.24062
 20
6.819905
 30
0.0
  0
VERTEX
  5
8B9
  8
0
 10
35.79362
 20
9.428049999999999
 30
0.0
  0
VERTEX
  5
8BA
  8
0
 10
35.78752
 20
9.46385
 30
0.0
  0
VERTEX
  5
8BB
  8
0
 10
35.76212
 20
9.570250000000001
 30
0.0
  0
VERTEX
  5
8BC
  8
0
 10
35.71792
 20
9.70635
 30
0.0
  0
VERTEX
  5
8BD
  8
0
 10
35.66182
 20
9.83595
 30
0.0
  0
VERTEX
  5
8BE
  8
0
 10
35.59442
 20
9.95845
 30
0.0
  0
VERTEX
  5
8BF
  8
0
 10
35.51652
 20
10.07325
 30
0.0
  0
VERTEX
  5
8C0
  8
0
 10
35.42872
 20
10.17975
 30
0.0
  0
VERTEX
  5
8C1
  8
0
 10
35.33212
 20
10.27745
 30
0.0
  0
VERTEX
  5
8C2
  8
0
 10
35.22692
 20
10.36575
 30
0.0
  0
VERTEX
  5
8C3
  8
0
 10
35.11422
 20
10.44415
 30
0.0
  0
VERTEX
  5
8C4
  8
0
 10
34.99462
 20
10.51205
 30
0.0
  0
VERTEX
  5
8C5
  8
0
 10
34.86892
 20
10.56895
 30
0.0
  0
VERTEX
  5
8C6
  8
0
 10
34.73782
 20
10.61425
 30
0.0
  0
VERTEX
  5
8C7
  8
0
 10
34.60192
 20
10.64725
 30
0.0
  0
VERTEX
  5
8C8
  8
0
 10
34.46222
 20
10.66765
 30
0.0
  0
VERTEX
  5
8C9
  8
0
 10
34.31922
 20
10.67475
 30
0.0
  0
VERTEX
  5
8CA
  8
0
 10
34.21002
 20
10.67135
 30
0.0
  0
VERTEX
  5
8CB
  8
0
 10
34.17372
 20
10.66795
 30
0.0
  0
VERTEX
  5
8CC
  8
0
 10
33.75512000000001
 20
10.62835
 30
0.0
  0
VERTEX
  5
8CD
  8
0
 10
31.66212
 20
10.47335
 30
0.0
  0
VERTEX
  5
8CE
  8
0
 10
29.56962
 20
10.37565
 30
0.0
  0
VERTEX
  5
8CF
  8
0
 10
29.15122
 20
10.36475
 30
0.0
  0
VERTEX
  5
8D0
  8
0
 10
29.11362
 20
10.36375
 30
0.0
  0
VERTEX
  5
8D1
  8
0
 10
29.00082
 20
10.35335
 30
0.0
  0
VERTEX
  5
8D2
  8
0
 10
28.85502
 20
10.32755
 30
0.0
  0
VERTEX
  5
8D3
  8
0
 10
28.71442
 20
10.28815
 30
0.0
  0
VERTEX
  5
8D4
  8
0
 10
28.58002
 20
10.23585
 30
0.0
  0
VERTEX
  5
8D5
  8
0
 10
28.45212
 20
10.17135
 30
0.0
  0
VERTEX
  5
8D6
  8
0
 10
28.33172
 20
10.09545
 30
0.0
  0
VERTEX
  5
8D7
  8
0
 10
28.21932
 20
10.00875
 30
0.0
  0
VERTEX
  5
8D8
  8
0
 10
28.11582000000001
 20
9.91205
 30
0.0
  0
VERTEX
  5
8D9
  8
0
 10
28.02182000000001
 20
9.806049999999999
 30
0.0
  0
VERTEX
  5
8DA
  8
0
 10
27.93822
 20
9.69155
 30
0.0
  0
VERTEX
  5
8DB
  8
0
 10
27.86532
 20
9.56915
 30
0.0
  0
VERTEX
  5
8DC
  8
0
 10
27.80422
 20
9.43965
 30
0.0
  0
VERTEX
  5
8DD
  8
0
 10
27.75542
 20
9.30385
 30
0.0
  0
VERTEX
  5
8DE
  8
0
 10
27.71972
 20
9.16235
 30
0.0
  0
VERTEX
  5
8DF
  8
0
 10
27.69762
 20
9.01585
 30
0.0
  0
VERTEX
  5
8E0
  8
0
 10
27.69032
 20
8.90295
 30
0.0
  0
VERTEX
  5
8E1
  8
0
 10
27.69032
 20
8.86525
 30
0.0
  0
VERTEX
  5
8E2
  8
0
 10
27.69032
 20
6.24436
 30
0.0
  0
VERTEX
  5
8E3
  8
0
 10
27.69032
 20
6.206060000000001
 30
0.0
  0
VERTEX
  5
8E4
  8
0
 10
27.69792
 20
6.09104
 30
0.0
  0
VERTEX
  5
8E5
  8
0
 10
27.72072
 20
5.942060000000001
 30
0.0
  0
VERTEX
  5
8E6
  8
0
 10
27.75762
 20
5.79834
 30
0.0
  0
VERTEX
  5
8E7
  8
0
 10
27.80802000000001
 20
5.660490000000001
 30
0.0
  0
VERTEX
  5
8E8
  8
0
 10
27.87122
 20
5.52941
 30
0.0
  0
VERTEX
  5
8E9
  8
0
 10
27.94642
 20
5.405710000000001
 30
0.0
  0
VERTEX
  5
8EA
  8
0
 10
28.03282
 20
5.29025
 30
0.0
  0
VERTEX
  5
8EB
  8
0
 10
28.12962
 20
5.18371
 30
0.0
  0
VERTEX
  5
8EC
  8
0
 10
28.23612000000001
 20
5.086920000000001
 30
0.0
  0
VERTEX
  5
8ED
  8
0
 10
28.35152
 20
5.000540000000001
 30
0.0
  0
VERTEX
  5
8EE
  8
0
 10
28.47532
 20
4.92541
 30
0.0
  0
VERTEX
  5
8EF
  8
0
 10
28.60642
 20
4.86225
 30
0.0
  0
VERTEX
  5
8F0
  8
0
 10
28.74422000000001
 20
4.811790000000001
 30
0.0
  0
VERTEX
  5
8F1
  8
0
 10
28.88792
 20
4.774850000000001
 30
0.0
  0
VERTEX
  5
8F2
  8
0
 10
29.03692
 20
4.752110000000001
 30
0.0
  0
VERTEX
  5
8F3
  8
0
 10
29.15192
 20
4.74436
 30
0.0
  0
VERTEX
  5
8F4
  8
0
 10
29.19032
 20
4.74436
 30
0.0
  0
VERTEX
  5
8F5
  8
0
 10
29.19892
 20
4.74436
 30
0.0
  0
VERTEX
  5
8F6
  8
0
 10
29.22172
 20
4.744680000000001
 30
0.0
  0
SEQEND
  5
BFB
  8
0
  0
POLYLINE
  5
A2
  8
0
 66
     1
 10
0.0
 20
0.0
 30
0.0
 70
     1
  0
VERTEX
  5
8F7
  8
0
 10
19.63082
 20
13.46415
 30
0.0
  0
VERTEX
  5
8F8
  8
0
 10
22.02593259842522
 20
13.46415
 30
0.0
 42
1.0
  0
VERTEX
  5
8F9
  8
0
 10
22.27672000000002
 20
13.46415
 30
0.0
  0
VERTEX
  5
8FA
  8
0
 10
22.27671999999996
 20
14.19674999999996
 30
0.0
  0
VERTEX
  5
8FB
  8
0
 10
23.74182000000004
 20
14.19675000000005
 30
0.0
  0
VERTEX
  5
8FC
  8
0
 10
23.74181999999997
 20
13.46415000000001
 30
0.0
 42
1.0
  0
VERTEX
  5
8FD
  8
0
 10
23.99260740157477
 20
13.46415000000001
 30
0.0
  0
VERTEX
  5
8FE
  8
0
 10
25.52593259842516
 20
13.46415000000001
 30
0.0
 42
1.0
  0
VERTEX
  5
8FF
  8
0
 10
25.77671999999997
 20
13.46415000000001
 30
0.0
  0
VERTEX
  5
900
  8
0
 10
25.77672
 20
14.19674999999981
 30
0.0
  0
VERTEX
  5
901
  8
0
 10
27.24182000000002
 20
14.19675000000004
 30
0.0
  0
VERTEX
  5
902
  8
0
 10
27.24182
 20
13.46415
 30
0.0
 42
1.0
  0
VERTEX
  5
903
  8
0
 10
27.4926074015748
 20
13.46415
 30
0.0
  0
VERTEX
  5
904
  8
0
 10
29.0259325984252
 20
13.46415
 30
0.0
 42
1.0
  0
VERTEX
  5
905
  8
0
 10
29.27672
 20
13.46415
 30
0.0
  0
VERTEX
  5
906
  8
0
 10
29.27671999999995
 20
14.19675000000001
 30
0.0
  0
VERTEX
  5
907
  8
0
 10
30.74182000000002
 20
14.19675000000002
 30
0.0
  0
VERTEX
  5
908
  8
0
 10
30.74182
 20
13.46415
 30
0.0
 42
1.0
  0
VERTEX
  5
909
  8
0
 10
30.9926074015748
 20
13.46415
 30
0.0
  0
VERTEX
  5
90A
  8
0
 10
33.32302
 20
13.46415
 30
0.0
  0
VERTEX
  5
90B
  8
0
 10
33.36122
 20
13.46415
 30
0.0
  0
VERTEX
  5
90C
  8
0
 10
33.47642
 20
13.47195
 30
0.0
  0
VERTEX
  5
90D
  8
0
 10
33.62532
 20
13.49475
 30
0.0
  0
VERTEX
  5
90E
  8
0
 10
33.76902
 20
13.53165
 30
0.0
  0
VERTEX
  5
90F
  8
0
 10
33.90692
 20
13.58205
 30
0.0
  0
VERTEX
  5
910
  8
0
 10
34.03792
 20
13.64525
 30
0.0
  0
VERTEX
  5
911
  8
0
 10
34.16172
 20
13.72045
 30
0.0
  0
VERTEX
  5
912
  8
0
 10
34.27712
 20
13.80675
 30
0.0
  0
VERTEX
  5
913
  8
0
 10
34.38362
 20
13.90365
 30
0.0
  0
VERTEX
  5
914
  8
0
 10
34.48042
 20
14.01015
 30
0.0
  0
VERTEX
  5
915
  8
0
 10
34.56682
 20
14.12555
 30
0.0
  0
VERTEX
  5
916
  8
0
 10
34.64192
 20
14.24925
 30
0.0
  0
VERTEX
  5
917
  8
0
 10
34.70512
 20
14.38025
 30
0.0
  0
VERTEX
  5
918
  8
0
 10
34.75562
 20
14.51815
 30
0.0
  0
VERTEX
  5
919
  8
0
 10
34.79252
 20
14.66195
 30
0.0
  0
VERTEX
  5
91A
  8
0
 10
34.81532
 20
14.81085
 30
0.0
  0
VERTEX
  5
91B
  8
0
 10
34.82302
 20
14.92595
 30
0.0
  0
VERTEX
  5
91C
  8
0
 10
34.82302
 20
14.96415
 30
0.0
  0
VERTEX
  5
91D
  8
0
 10
34.82302
 20
15.02765
 30
0.0
  0
VERTEX
  5
91E
  8
0
 10
34.80502
 20
15.19665
 30
0.0
  0
VERTEX
  5
91F
  8
0
 10
34.80152
 20
15.21765
 30
0.0
  0
VERTEX
  5
920
  8
0
 10
34.35152
 20
17.84335
 30
0.0
  0
VERTEX
  5
921
  8
0
 10
34.34012
 20
17.90945
 30
0.0
  0
VERTEX
  5
922
  8
0
 10
34.28252
 20
18.10365
 30
0.0
  0
VERTEX
  5
923
  8
0
 10
34.17112
 20
18.34195
 30
0.0
  0
VERTEX
  5
924
  8
0
 10
34.02212
 20
18.55415
 30
0.0
  0
VERTEX
  5
925
  8
0
 10
33.84002
 20
18.73665
 30
0.0
  0
VERTEX
  5
926
  8
0
 10
33.62942
 20
18.88545
 30
0.0
  0
VERTEX
  5
927
  8
0
 10
33.39502
 20
18.99635
 30
0.0
  0
VERTEX
  5
928
  8
0
 10
33.14142
 20
19.06595
 30
0.0
  0
VERTEX
  5
929
  8
0
 10
32.94012
 20
19.08985
 30
0.0
  0
VERTEX
  5
92A
  8
0
 10
32.87312
 20
19.08985
 30
0.0
  0
VERTEX
  5
92B
  8
0
 10
20.08082
 20
19.08985
 30
0.0
  0
VERTEX
  5
92C
  8
0
 10
20.01372000000001
 20
19.08985
 30
0.0
  0
VERTEX
  5
92D
  8
0
 10
19.81252000000001
 20
19.06595
 30
0.0
  0
VERTEX
  5
92E
  8
0
 10
19.55892
 20
18.99635
 30
0.0
  0
VERTEX
  5
92F
  8
0
 10
19.32442
 20
18.88545
 30
0.0
  0
VERTEX
  5
930
  8
0
 10
19.11372
 20
18.73665
 30
0.0
  0
VERTEX
  5
931
  8
0
 10
18.93172000000001
 20
18.55415
 30
0.0
  0
VERTEX
  5
932
  8
0
 10
18.78262
 20
18.34195
 30
0.0
  0
VERTEX
  5
933
  8
0
 10
18.67142
 20
18.10365
 30
0.0
  0
VERTEX
  5
934
  8
0
 10
18.61362
 20
17.90945
 30
0.0
  0
VERTEX
  5
935
  8
0
 10
18.60242
 20
17.84335
 30
0.0
  0
VERTEX
  5
936
  8
0
 10
18.15242000000001
 20
15.21765
 30
0.0
  0
VERTEX
  5
937
  8
0
 10
18.14582
 20
15.17985
 30
0.0
  0
VERTEX
  5
938
  8
0
 10
18.13422000000001
 20
15.06515
 30
0.0
  0
VERTEX
  5
939
  8
0
 10
18.13142000000001
 20
14.91445
 30
0.0
  0
VERTEX
  5
93A
  8
0
 10
18.14352
 20
14.76655
 30
0.0
  0
VERTEX
  5
93B
  8
0
 10
18.16992
 20
14.62225
 30
0.0
  0
VERTEX
  5
93C
  8
0
 10
18.21002
 20
14.48225
 30
0.0
  0
VERTEX
  5
93D
  8
0
 10
18.26322
 20
14.34765
 30
0.0
  0
VERTEX
  5
93E
  8
0
 10
18.32892
 20
14.21925
 30
0.0
  0
VERTEX
  5
93F
  8
0
 10
18.40622
 20
14.09795
 30
0.0
  0
VERTEX
  5
940
  8
0
 10
18.49492
 20
13.98455
 30
0.0
  0
VERTEX
  5
941
  8
0
 10
18.59422
 20
13.87985
 30
0.0
  0
VERTEX
  5
942
  8
0
 10
18.70332000000001
 20
13.78495
 30
0.0
  0
VERTEX
  5
943
  8
0
 10
18.82192000000001
 20
13.70055
 30
0.0
  0
VERTEX
  5
944
  8
0
 10
18.94922
 20
13.62745
 30
0.0
  0
VERTEX
  5
945
  8
0
 10
19.08462
 20
13.56675
 30
0.0
  0
VERTEX
  5
946
  8
0
 10
19.22762
 20
13.51925
 30
0.0
  0
VERTEX
  5
947
  8
0
 10
19.33972000000001
 20
13.49225
 30
0.0
  0
VERTEX
  5
948
  8
0
 10
19.37752
 20
13.48565
 30
0.0
  0
VERTEX
  5
949
  8
0
 10
19.39832000000001
 20
13.48225
 30
0.0
  0
VERTEX
  5
94A
  8
0
 10
19.57262
 20
13.46415
 30
0.0
  0
SEQEND
  5
BFC
  8
0
  0
POLYLINE
  5
A3
  8
0
 66
     1
 10
0.0
 20
0.0
 30
0.0
 70
     1
  0
VERTEX
  5
94B
  8
0
 10
16.63389591702827
 20
15.77458175678493
 30
0.0
  0
VERTEX
  5
94C
  8
0
 10
16.37344408297173
 20
14.55371824321507
 30
0.0
 42
1.0
  0
VERTEX
  5
94D
  8
0
 10
16.32112
 20
14.30845
 30
0.0
  0
VERTEX
  5
94E
  8
0
 10
17.03762
 20
14.15555
 30
0.0
 42
1.0
  0
VERTEX
  5
94F
  8
0
 10
17.08995486548086
 20
14.40081594269026
 30
0.0
  0
VERTEX
  5
950
  8
0
 10
17.35048513451915
 20
15.62178405730974
 30
0.0
 42
1.0
  0
VERTEX
  5
951
  8
0
 10
17.40282000000001
 20
15.86705
 30
0.0
  0
VERTEX
  5
952
  8
0
 10
16.68622000000001
 20
16.01985
 30
0.0
 42
1.0
  0
SEQEND
  5
BFD
  8
0
  0
POLYLINE
  5
A4
  8
0
 66
     1
 10
0.0
 20
0.0
 30
0.0
 70
     1
  0
VERTEX
  5
953
  8
0
 10
27.38422000000001
 20
2.645603472289696
 30
0.0
  0
VERTEX
  5
954
  8
0
 10
27.38422
 20
3.21826999999999
 30
0.0
 42
1.0
  0
VERTEX
  5
955
  8
0
 10
27.1334325984252
 20
3.218269999999992
 30
0.0
  0
VERTEX
  5
956
  8
0
 10
25.8850074015748
 20
3.218270000000001
 30
0.0
 42
1.0
  0
VERTEX
  5
957
  8
0
 10
25.63422
 20
3.218270000000004
 30
0.0
  0
VERTEX
  5
958
  8
0
 10
25.63422
 20
2.6456034722897
 30
0.0
 42
1.0
  0
VERTEX
  5
959
  8
0
 10
25.8115534722897
 20
2.468270000000004
 30
0.0
  0
VERTEX
  5
95A
  8
0
 10
27.20688652771031
 20
2.468270000000001
 30
0.0
 42
1.0
  0
SEQEND
  5
BFE
  8
0
  0
POLYLINE
  5
A5
  8
0
 66
     1
 10
0.0
 20
0.0
 30
0.0
 70
     1
  0
VERTEX
  5
95B
  8
0
 10
18.05032000000001
 20
5.267530000000001
 30
0.0
  0
VERTEX
  5
95C
  8
0
 10
18.51462
 20
5.213270000000001
 30
0.0
  0
VERTEX
  5
95D
  8
0
 10
20.83532
 20
4.99084
 30
0.0
  0
VERTEX
  5
95E
  8
0
 10
23.15582000000001
 20
4.833390000000001
 30
0.0
  0
VERTEX
  5
95F
  8
0
 10
23.62002
 20
4.811590000000001
 30
0.0
  0
VERTEX
  5
960
  8
0
 10
23.65822
 20
4.80979
 30
0.0
  0
VERTEX
  5
961
  8
0
 10
23.77352
 20
4.812180000000001
 30
0.0
  0
VERTEX
  5
962
  8
0
 10
23.92332
 20
4.827910000000001
 30
0.0
  0
VERTEX
  5
963
  8
0
 10
24.06862
 20
4.858070000000001
 30
0.0
  0
VERTEX
  5
964
  8
0
 10
24.20872000000001
 20
4.90202
 30
0.0
  0
VERTEX
  5
965
  8
0
 10
24.34262
 20
4.958990000000001
 30
0.0
  0
VERTEX
  5
966
  8
0
 10
24.46972
 20
5.028210000000001
 30
0.0
  0
VERTEX
  5
967
  8
0
 10
24.58922
 20
5.10906
 30
0.0
  0
VERTEX
  5
968
  8
0
 10
24.70012000000001
 20
5.20079
 30
0.0
  0
VERTEX
  5
969
  8
0
 10
24.80182000000001
 20
5.302680000000001
 30
0.0
  0
VERTEX
  5
96A
  8
0
 10
24.89352
 20
5.41396
 30
0.0
  0
VERTEX
  5
96B
  8
0
 10
24.97432000000001
 20
5.53396
 30
0.0
  0
VERTEX
  5
96C
  8
0
 10
25.04352
 20
5.662000000000001
 30
0.0
  0
VERTEX
  5
96D
  8
0
 10
25.10042000000001
 20
5.79731
 30
0.0
  0
VERTEX
  5
96E
  8
0
 10
25.14402
 20
5.93918
 30
0.0
  0
VERTEX
  5
96F
  8
0
 10
25.17372
 20
6.086860000000001
 30
0.0
  0
VERTEX
  5
970
  8
0
 10
25.18682
 20
6.20145
 30
0.0
  0
VERTEX
  5
971
  8
0
 10
25.18862
 20
6.239700000000001
 30
0.0
  0
VERTEX
  5
972
  8
0
 10
25.18892
 20
6.245560000000001
 30
0.0
  0
VERTEX
  5
973
  8
0
 10
25.19032
 20
6.293890000000001
 30
0.0
  0
VERTEX
  5
974
  8
0
 10
25.19032
 20
6.309950000000001
 30
0.0
  0
VERTEX
  5
975
  8
0
 10
25.19032
 20
8.9246
 30
0.0
  0
VERTEX
  5
976
  8
0
 10
25.19032
 20
8.961649999999999
 30
0.0
  0
VERTEX
  5
977
  8
0
 10
25.18312
 20
9.072949999999999
 30
0.0
  0
VERTEX
  5
978
  8
0
 10
25.16172
 20
9.21735
 30
0.0
  0
VERTEX
  5
979
  8
0
 10
25.12692000000001
 20
9.356950000000001
 30
0.0
  0
VERTEX
  5
97A
  8
0
 10
25.07942000000001
 20
9.491150000000001
 30
0.0
  0
VERTEX
  5
97B
  8
0
 10
25.02002
 20
9.619250000000001
 30
0.0
  0
VERTEX
  5
97C
  8
0
 10
24.94922
 20
9.740549999999999
 30
0.0
  0
VERTEX
  5
97D
  8
0
 10
24.86752000000001
 20
9.85425
 30
0.0
  0
VERTEX
  5
97E
  8
0
 10
24.77582
 20
9.95975
 30
0.0
  0
VERTEX
  5
97F
  8
0
 10
24.67492
 20
10.05635
 30
0.0
  0
VERTEX
  5
980
  8
0
 10
24.56512
 20
10.14325
 30
0.0
  0
VERTEX
  5
981
  8
0
 10
24.44742
 20
10.21985
 30
0.0
  0
VERTEX
  5
982
  8
0
 10
24.32222
 20
10.28535
 30
0.0
  0
VERTEX
  5
983
  8
0
 10
24.19042
 20
10.33915
 30
0.0
  0
VERTEX
  5
984
  8
0
 10
24.05262
 20
10.38045
 30
0.0
  0
VERTEX
  5
985
  8
0
 10
23.90942
 20
10.40865
 30
0.0
  0
VERTEX
  5
986
  8
0
 10
23.79862000000001
 20
10.42115
 30
0.0
  0
VERTEX
  5
987
  8
0
 10
23.76172
 20
10.42295
 30
0.0
  0
VERTEX
  5
988
  8
0
 10
23.35142
 20
10.44245
 30
0.0
  0
VERTEX
  5
989
  8
0
 10
21.29992
 20
10.58165
 30
0.0
  0
VERTEX
  5
98A
  8
0
 10
19.24762
 20
10.77605
 30
0.0
  0
VERTEX
  5
98B
  8
0
 10
18.83712000000001
 20
10.82315
 30
0.0
  0
VERTEX
  5
98C
  8
0
 10
18.80042
 20
10.82745
 30
0.0
  0
VERTEX
  5
98D
  8
0
 10
18.68972
 20
10.83295
 30
0.0
  0
VERTEX
  5
98E
  8
0
 10
18.54462
 20
10.82835
 30
0.0
  0
VERTEX
  5
98F
  8
0
 10
18.40262000000001
 20
10.81005
 30
0.0
  0
VERTEX
  5
990
  8
0
 10
18.26462
 20
10.77865
 30
0.0
  0
VERTEX
  5
991
  8
0
 10
18.13102000000001
 20
10.73465
 30
0.0
  0
VERTEX
  5
992
  8
0
 10
18.00292
 20
10.67875
 30
0.0
  0
VERTEX
  5
993
  8
0
 10
17.88102000000001
 20
10.61135
 30
0.0
  0
VERTEX
  5
994
  8
0
 10
17.76612
 20
10.53315
 30
0.0
  0
VERTEX
  5
995
  8
0
 10
17.65872
 20
10.44465
 30
0.0
  0
VERTEX
  5
996
  8
0
 10
17.55992000000001
 20
10.34655
 30
0.0
  0
VERTEX
  5
997
  8
0
 10
17.47032
 20
10.23925
 30
0.0
  0
VERTEX
  5
998
  8
0
 10
17.39072
 20
10.12345
 30
0.0
  0
VERTEX
  5
999
  8
0
 10
17.32182
 20
9.999649999999999
 30
0.0
  0
VERTEX
  5
99A
  8
0
 10
17.26442
 20
9.868549999999999
 30
0.0
  0
VERTEX
  5
99B
  8
0
 10
17.21942000000001
 20
9.730550000000001
 30
0.0
  0
VERTEX
  5
99C
  8
0
 10
17.19362
 20
9.62275
 30
0.0
  0
VERTEX
  5
99D
  8
0
 10
17.18752000000001
 20
9.58635
 30
0.0
  0
VERTEX
  5
99E
  8
0
 10
16.74612
 20
7.010739999999998
 30
0.0
  0
VERTEX
  5
99F
  8
0
 10
16.73962
 20
6.972989999999999
 30
0.0
  0
VERTEX
  5
9A0
  8
0
 10
16.72782
 20
6.85829
 30
0.0
  0
VERTEX
  5
9A1
  8
0
 10
16.72502
 20
6.70768
 30
0.0
  0
VERTEX
  5
9A2
  8
0
 10
16.73722
 20
6.559740000000001
 30
0.0
  0
VERTEX
  5
9A3
  8
0
 10
16.76362
 20
6.41536
 30
0.0
  0
VERTEX
  5
9A4
  8
0
 10
16.80372000000001
 20
6.275500000000001
 30
0.0
  0
VERTEX
  5
9A5
  8
0
 10
16.85682000000001
 20
6.140890000000001
 30
0.0
  0
VERTEX
  5
9A6
  8
0
 10
16.92252000000001
 20
6.012480000000001
 30
0.0
  0
VERTEX
  5
9A7
  8
0
 10
17.00002000000001
 20
5.891170000000001
 30
0.0
  0
VERTEX
  5
9A8
  8
0
 10
17.08862000000001
 20
5.77772
 30
0.0
  0
VERTEX
  5
9A9
  8
0
 10
17.18782
 20
5.67313
 30
0.0
  0
VERTEX
  5
9AA
  8
0
 10
17.29692
 20
5.578180000000001
 30
0.0
  0
VERTEX
  5
9AB
  8
0
 10
17.41562
 20
5.49382
 30
0.0
  0
VERTEX
  5
9AC
  8
0
 10
17.54292
 20
5.420790000000001
 30
0.0
  0
VERTEX
  5
9AD
  8
0
 10
17.67832000000001
 20
5.36009
 30
0.0
  0
VERTEX
  5
9AE
  8
0
 10
17.82122
 20
5.31256
 30
0.0
  0
VERTEX
  5
9AF
  8
0
 10
17.93332
 20
5.285490000000001
 30
0.0
  0
VERTEX
  5
9B0
  8
0
 10
17.97122
 20
5.278980000000001
 30
0.0
  0
VERTEX
  5
9B1
  8
0
 10
17.97782
 20
5.277890000000001
 30
0.0
  0
VERTEX
  5
9B2
  8
0
 10
18.04362
 20
5.268340000000001
 30
0.0
  0
SEQEND
  5
BFF
  8
0
  0
POLYLINE
  5
A6
  8
0
 66
     1
 10
0.0
 20
0.0
 30
0.0
 70
     1
  0
VERTEX
  5
9B3
  8
0
 10
18.26882020284622
 20
3.363224677659608
 30
0.0
  0
VERTEX
  5
9B4
  8
0
 10
17.11791979715379
 20
3.846905322340401
 30
0.0
 42
1.0
  0
VERTEX
  5
9B5
  8
0
 10
16.88672000000001
 20
3.944069999999999
 30
0.0
  0
VERTEX
  5
9B6
  8
0
 10
16.59612000000001
 20
3.252660000000008
 30
0.0
 42
1.0
  0
VERTEX
  5
9B7
  8
0
 10
16.82732030901826
 20
3.15549654031218
 30
0.0
  0
VERTEX
  5
9B8
  8
0
 10
17.97821969098175
 20
2.671823459687829
 30
0.0
 42
1.0
  0
VERTEX
  5
9B9
  8
0
 10
18.20942
 20
2.574660000000002
 30
0.0
  0
VERTEX
  5
9BA
  8
0
 10
18.50002
 20
3.266060000000011
 30
0.0
 42
1.0
  0
SEQEND
  5
C00
  8
0
  0
POLYLINE
  5
A7
  8
0
 66
     1
 10
0.0
 20
0.0
 30
0.0
 70
     1
  0
VERTEX
  5
9BB
  8
0
 10
10.00002
 20
11.80055
 30
0.0
  0
VERTEX
  5
9BC
  8
0
 10
10.00002
 20
11.06795
 30
0.0
 42
-1.0
  0
VERTEX
  5
9BD
  8
0
 10
9.749232598425206
 20
11.06795
 30
0.0
  0
VERTEX
  5
9BE
  8
0
 10
9.250807401574805
 20
11.06795
 30
0.0
 42
-1.0
  0
VERTEX
  5
9BF
  8
0
 10
9.000020000000005
 20
11.06795
 30
0.0
  0
VERTEX
  5
9C0
  8
0
 10
9.000020000000005
 20
11.80055
 30
0.0
 42
-1.0
  0
VERTEX
  5
9C1
  8
0
 10
9.250807401574804
 20
11.80055
 30
0.0
  0
VERTEX
  5
9C2
  8
0
 10
9.749232598425204
 20
11.80055
 30
0.0
 42
-1.0
  0
SEQEND
  5
C01
  8
0
  0
POLYLINE
  5
A8
  8
0
 66
     1
 10
0.0
 20
0.0
 30
0.0
 70
     1
  0
VERTEX
  5
9C3
  8
0
 10
8.625020000000005
 20
10.80055
 30
0.0
  0
VERTEX
  5
9C4
  8
0
 10
8.625020000000005
 20
12.2823625984252
 30
0.0
 42
1.0
  0
VERTEX
  5
9C5
  8
0
 10
8.625020000000005
 20
12.53315
 30
0.0
  0
VERTEX
  5
9C6
  8
0
 10
8.000020000000005
 20
12.53315
 30
0.0
  0
VERTEX
  5
9C7
  8
0
 10
8.000020000000005
 20
31.06805
 30
0.0
  0
VERTEX
  5
9C8
  8
0
 10
8.625020000000005
 20
31.06805
 30
0.0
 42
1.0
  0
VERTEX
  5
9C9
  8
0
 10
8.625020000000005
 20
31.3188374015748
 30
0.0
  0
VERTEX
  5
9CA
  8
0
 10
8.625020000000005
 20
32.80055
 30
0.0
  0
VERTEX
  5
9CB
  8
0
 10
8.625020000000005
 20
32.82495
 30
0.0
  0
VERTEX
  5
9CC
  8
0
 10
8.644620000000005
 20
32.89795
 30
0.0
  0
VERTEX
  5
9CD
  8
0
 10
8.698220000000005
 20
32.97735
 30
0.0
  0
VERTEX
  5
9CE
  8
0
 10
8.777620000000006
 20
33.03095
 30
0.0
  0
VERTEX
  5
9CF
  8
0
 10
8.850620000000005
 20
33.05055
 30
0.0
  0
VERTEX
  5
9D0
  8
0
 10
8.875020000000005
 20
33.05055
 30
0.0
  0
VERTEX
  5
9D1
  8
0
 10
10.12502
 20
33.05055
 30
0.0
  0
VERTEX
  5
9D2
  8
0
 10
10.14932
 20
33.05055
 30
0.0
  0
VERTEX
  5
9D3
  8
0
 10
10.22232000000001
 20
33.03095
 30
0.0
  0
VERTEX
  5
9D4
  8
0
 10
10.30172
 20
32.97735
 30
0.0
  0
VERTEX
  5
9D5
  8
0
 10
10.35532
 20
32.89795
 30
0.0
  0
VERTEX
  5
9D6
  8
0
 10
10.37502
 20
32.82495
 30
0.0
  0
VERTEX
  5
9D7
  8
0
 10
10.37502
 20
32.80055
 30
0.0
  0
VERTEX
  5
9D8
  8
0
 10
10.37502
 20
31.3188374015748
 30
0.0
 42
1.0
  0
VERTEX
  5
9D9
  8
0
 10
10.37502
 20
31.06805
 30
0.0
  0
VERTEX
  5
9DA
  8
0
 10
11.00002000000001
 20
31.06805
 30
0.0
  0
VERTEX
  5
9DB
  8
0
 10
11.00002000000001
 20
12.53315
 30
0.0
  0
VERTEX
  5
9DC
  8
0
 10
10.37502
 20
12.53315
 30
0.0
 42
1.0
  0
VERTEX
  5
9DD
  8
0
 10
10.37502
 20
12.2823625984252
 30
0.0
  0
VERTEX
  5
9DE
  8
0
 10
10.37502
 20
10.80055
 30
0.0
  0
VERTEX
  5
9DF
  8
0
 10
10.37502
 20
10.77625
 30
0.0
  0
VERTEX
  5
9E0
  8
0
 10
10.35532
 20
10.70325
 30
0.0
  0
VERTEX
  5
9E1
  8
0
 10
10.30172
 20
10.62385
 30
0.0
  0
VERTEX
  5
9E2
  8
0
 10
10.22232000000001
 20
10.57025
 30
0.0
  0
VERTEX
  5
9E3
  8
0
 10
10.14932
 20
10.55055
 30
0.0
  0
VERTEX
  5
9E4
  8
0
 10
10.12502
 20
10.55055
 30
0.0
  0
VERTEX
  5
9E5
  8
0
 10
8.875020000000005
 20
10.55055
 30
0.0
  0
VERTEX
  5
9E6
  8
0
 10
8.850620000000005
 20
10.55055
 30
0.0
  0
VERTEX
  5
9E7
  8
0
 10
8.777620000000006
 20
10.57025
 30
0.0
  0
VERTEX
  5
9E8
  8
0
 10
8.698220000000005
 20
10.62385
 30
0.0
  0
VERTEX
  5
9E9
  8
0
 10
8.644620000000005
 20
10.70325
 30
0.0
  0
VERTEX
  5
9EA
  8
0
 10
8.625020000000005
 20
10.77625
 30
0.0
  0
SEQEND
  5
C02
  8
0
  0
POLYLINE
  5
A9
  8
0
 66
     1
 10
0.0
 20
0.0
 30
0.0
 70
     1
  0
VERTEX
  5
9EB
  8
0
 10
2.784642598425205
 20
11.80055
 30
0.0
  0
VERTEX
  5
9EC
  8
0
 10
2.286217401574805
 20
11.80055
 30
0.0
 42
1.0
  0
VERTEX
  5
9ED
  8
0
 10
2.035430000000005
 20
11.80055
 30
0.0
  0
VERTEX
  5
9EE
  8
0
 10
2.035430000000005
 20
11.06795
 30
0.0
 42
1.0
  0
VERTEX
  5
9EF
  8
0
 10
2.286217401574805
 20
11.06795
 30
0.0
  0
VERTEX
  5
9F0
  8
0
 10
2.784642598425205
 20
11.06795
 30
0.0
 42
1.0
  0
VERTEX
  5
9F1
  8
0
 10
3.035430000000005
 20
11.06795
 30
0.0
  0
VERTEX
  5
9F2
  8
0
 10
3.035430000000005
 20
11.80055
 30
0.0
 42
1.0
  0
SEQEND
  5
C03
  8
0
  0
POLYLINE
  5
AA
  8
0
 66
     1
 10
0.0
 20
0.0
 30
0.0
 70
     1
  0
VERTEX
  5
9F3
  8
0
 10
1.660430000000005
 20
10.80055
 30
0.0
  0
VERTEX
  5
9F4
  8
0
 10
1.660430000000005
 20
12.2823625984252
 30
0.0
 42
1.0
  0
VERTEX
  5
9F5
  8
0
 10
1.660430000000005
 20
12.53315
 30
0.0
  0
VERTEX
  5
9F6
  8
0
 10
1.035430000000005
 20
12.53315
 30
0.0
  0
VERTEX
  5
9F7
  8
0
 10
1.035430000000005
 20
31.06805
 30
0.0
  0
VERTEX
  5
9F8
  8
0
 10
1.660430000000005
 20
31.06804999999999
 30
0.0
 42
1.0
  0
VERTEX
  5
9F9
  8
0
 10
1.660430000000005
 20
31.31883740157479
 30
0.0
  0
VERTEX
  5
9FA
  8
0
 10
1.660430000000005
 20
32.80055
 30
0.0
  0
VERTEX
  5
9FB
  8
0
 10
1.660430000000005
 20
32.82495
 30
0.0
  0
VERTEX
  5
9FC
  8
0
 10
1.680070000000004
 20
32.89795
 30
0.0
  0
VERTEX
  5
9FD
  8
0
 10
1.733630000000005
 20
32.97735
 30
0.0
  0
VERTEX
  5
9FE
  8
0
 10
1.813100000000004
 20
33.03095
 30
0.0
  0
VERTEX
  5
9FF
  8
0
 10
1.886070000000005
 20
33.05055
 30
0.0
  0
VERTEX
  5
A00
  8
0
 10
1.910430000000005
 20
33.05055
 30
0.0
  0
VERTEX
  5
A01
  8
0
 10
3.160430000000005
 20
33.05055
 30
0.0
  0
VERTEX
  5
A02
  8
0
 10
3.184740000000005
 20
33.05055
 30
0.0
  0
VERTEX
  5
A03
  8
0
 10
3.257710000000005
 20
33.03095
 30
0.0
  0
VERTEX
  5
A04
  8
0
 10
3.337190000000005
 20
32.97735
 30
0.0
  0
VERTEX
  5
A05
  8
0
 10
3.390740000000005
 20
32.89795
 30
0.0
  0
VERTEX
  5
A06
  8
0
 10
3.410430000000005
 20
32.82495
 30
0.0
  0
VERTEX
  5
A07
  8
0
 10
3.410430000000005
 20
32.80055
 30
0.0
  0
VERTEX
  5
A08
  8
0
 10
3.410430000000005
 20
31.3188374015748
 30
0.0
 42
1.0
  0
VERTEX
  5
A09
  8
0
 10
3.410430000000005
 20
31.06805
 30
0.0
  0
VERTEX
  5
A0A
  8
0
 10
4.035430000000005
 20
31.06805
 30
0.0
  0
VERTEX
  5
A0B
  8
0
 10
4.035430000000005
 20
12.53315
 30
0.0
  0
VERTEX
  5
A0C
  8
0
 10
3.410430000000005
 20
12.53315
 30
0.0
 42
1.0
  0
VERTEX
  5
A0D
  8
0
 10
3.410430000000005
 20
12.2823625984252
 30
0.0
  0
VERTEX
  5
A0E
  8
0
 10
3.410430000000005
 20
10.80055
 30
0.0
  0
VERTEX
  5
A0F
  8
0
 10
3.410430000000005
 20
10.77625
 30
0.0
  0
VERTEX
  5
A10
  8
0
 10
3.390740000000005
 20
10.70325
 30
0.0
  0
VERTEX
  5
A11
  8
0
 10
3.337190000000005
 20
10.62385
 30
0.0
  0
VERTEX
  5
A12
  8
0
 10
3.257710000000005
 20
10.57025
 30
0.0
  0
VERTEX
  5
A13
  8
0
 10
3.184740000000005
 20
10.55055
 30
0.0
  0
VERTEX
  5
A14
  8
0
 10
3.160430000000005
 20
10.55055
 30
0.0
  0
VERTEX
  5
A15
  8
0
 10
1.910430000000005
 20
10.55055
 30
0.0
  0
VERTEX
  5
A16
  8
0
 10
1.886070000000005
 20
10.55055
 30
0.0
  0
VERTEX
  5
A17
  8
0
 10
1.813100000000004
 20
10.57025
 30
0.0
  0
VERTEX
  5
A18
  8
0
 10
1.733630000000005
 20
10.62385
 30
0.0
  0
VERTEX
  5
A19
  8
0
 10
1.680070000000004
 20
10.70325
 30
0.0
  0
VERTEX
  5
A1A
  8
0
 10
1.660430000000005
 20
10.77625
 30
0.0
  0
SEQEND
  5
C04
  8
0
  0
POLYLINE
  5
AB
  8
0
 66
     1
 10
0.0
 20
0.0
 30
0.0
 70
     1
  0
VERTEX
  5
A1B
  8
0
 10
3.204150000000004
 20
7.091200000000001
 30
0.0
  0
VERTEX
  5
A1C
  8
0
 10
3.144150000000005
 20
7.109210000000001
 30
0.0
  0
VERTEX
  5
A1D
  8
0
 10
2.960610000000004
 20
7.15136
 30
0.0
  0
VERTEX
  5
A1E
  8
0
 10
2.716900000000004
 20
7.18648
 30
0.0
  0
VERTEX
  5
A1F
  8
0
 10
2.474390000000005
 20
7.197320000000001
 30
0.0
  0
VERTEX
  5
A20
  8
0
 10
2.234650000000006
 20
7.18468
 30
0.0
  0
VERTEX
  5
A21
  8
0
 10
1.999080000000005
 20
7.149360000000001
 30
0.0
  0
VERTEX
  5
A22
  8
0
 10
1.769260000000004
 20
7.092130000000001
 30
0.0
  0
VERTEX
  5
A23
  8
0
 10
1.546610000000005
 20
7.013780000000001
 30
0.0
  0
VERTEX
  5
A24
  8
0
 10
1.332680000000005
 20
6.915040000000001
 30
0.0
  0
VERTEX
  5
A25
  8
0
 10
1.128900000000005
 20
6.796659999999999
 30
0.0
  0
VERTEX
  5
A26
  8
0
 10
0.9368500000000051
 20
6.659500000000001
 30
0.0
  0
VERTEX
  5
A27
  8
0
 10
0.7579300000000053
 20
6.504290000000001
 30
0.0
  0
VERTEX
  5
A28
  8
0
 10
0.5936400000000042
 20
6.33182
 30
0.0
  0
VERTEX
  5
A29
  8
0
 10
0.4455300000000051
 20
6.142850000000001
 30
0.0
  0
VERTEX
  5
A2A
  8
0
 10
0.3150600000000043
 20
5.938160000000001
 30
0.0
  0
VERTEX
  5
A2B
  8
0
 10
0.2037200000000041
 20
5.718470000000001
 30
0.0
  0
VERTEX
  5
A2C
  8
0
 10
0.1327100000000048
 20
5.544110000000001
 30
0.0
  0
VERTEX
  5
A2D
  8
0
 10
0.1130100000000045
 20
5.484640000000001
 30
0.0
  0
VERTEX
  5
A2E
  8
0
 10
0.0568600000000048
 20
5.315600000000001
 30
0.0
  0
VERTEX
  5
A2F
  8
0
 10
0.0489500000000049
 20
5.29173
 30
0.0
  0
VERTEX
  5
A30
  8
0
 10
0.0347800000000049
 20
5.21679
 30
0.0
  0
VERTEX
  5
A31
  8
0
 10
0.0328300000000041
 20
5.11854
 30
0.0
  0
VERTEX
  5
A32
  8
0
 10
0.0498100000000044
 20
5.02343
 30
0.0
  0
VERTEX
  5
A33
  8
0
 10
0.084420000000005
 20
4.933980000000001
 30
0.0
  0
VERTEX
  5
A34
  8
0
 10
0.1354200000000052
 20
4.8527
 30
0.0
  0
VERTEX
  5
A35
  8
0
 10
0.2014500000000048
 20
4.782170000000001
 30
0.0
  0
VERTEX
  5
A36
  8
0
 10
0.2813600000000047
 20
4.724930000000001
 30
0.0
  0
VERTEX
  5
A37
  8
0
 10
0.3498900000000047
 20
4.691460000000001
 30
0.0
  0
VERTEX
  5
A38
  8
0
 10
0.3738100000000042
 20
4.683490000000001
 30
0.0
  0
VERTEX
  5
A39
  8
0
 10
0.3741400000000041
 20
4.68343
 30
0.0
  0
VERTEX
  5
A3A
  8
0
 10
0.3772800000000043
 20
4.68235
 30
0.0
  0
VERTEX
  5
A3B
  8
0
 10
0.3776100000000042
 20
4.682240000000001
 30
0.0
  0
VERTEX
  5
A3C
  8
0
 10
0.4676700000000054
 20
4.653210000000001
 30
0.0
  0
VERTEX
  5
A3D
  8
0
 10
1.368440000000005
 20
4.367840000000001
 30
0.0
  0
VERTEX
  5
A3E
  8
0
 10
1.458560000000004
 20
4.339910000000001
 30
0.0
  0
VERTEX
  5
A3F
  8
0
 10
2.068310000000004
 20
4.150770000000001
 30
0.0
  0
VERTEX
  5
A40
  8
0
 10
3.907880000000004
 20
3.616160000000001
 30
0.0
  0
VERTEX
  5
A41
  8
0
 10
6.357210000000006
 20
2.964570000000001
 30
0.0
  0
VERTEX
  5
A42
  8
0
 10
8.806520000000004
 20
2.385140000000001
 30
0.0
  0
VERTEX
  5
A43
  8
0
 10
10.64192
 20
1.995990000000001
 30
0.0
  0
VERTEX
  5
A44
  8
0
 10
11.25602000000001
 20
1.87788
 30
0.0
  0
VERTEX
  5
A45
  8
0
 10
11.78972
 20
1.775220000000001
 30
0.0
  0
VERTEX
  5
A46
  8
0
 10
13.39642000000001
 20
1.49371
 30
0.0
  0
VERTEX
  5
A47
  8
0
 10
15.53692
 20
1.164610000000001
 30
0.0
  0
VERTEX
  5
A48
  8
0
 10
17.67752
 20
0.8906800000000006
 30
0.0
  0
VERTEX
  5
A49
  8
0
 10
19.81802
 20
0.6718200000000003
 30
0.0
  0
VERTEX
  5
A4A
  8
0
 10
21.95862
 20
0.5080900000000002
 30
0.0
  0
VERTEX
  5
A4B
  8
0
 10
24.09922
 20
0.3995300000000004
 30
0.0
  0
VERTEX
  5
A4C
  8
0
 10
26.23972000000001
 20
0.3460300000000007
 30
0.0
  0
VERTEX
  5
A4D
  8
0
 10
28.38042
 20
0.3476600000000003
 30
0.0
  0
VERTEX
  5
A4E
  8
0
 10
30.52082
 20
0.4044600000000003
 30
0.0
  0
VERTEX
  5
A4F
  8
0
 10
32.66142
 20
0.5163400000000005
 30
0.0
  0
VERTEX
  5
A50
  8
0
 10
34.80212
 20
0.6833800000000005
 30
0.0
  0
VERTEX
  5
A51
  8
0
 10
36.94262000000001
 20
0.9054900000000004
 30
0.0
  0
VERTEX
  5
A52
  8
0
 10
39.08302
 20
1.18278
 30
0.0
  0
VERTEX
  5
A53
  8
0
 10
41.22362
 20
1.515140000000001
 30
0.0
  0
VERTEX
  5
A54
  8
0
 10
43.36432
 20
1.902670000000001
 30
0.0
  0
VERTEX
  5
A55
  8
0
 10
44.97112
 20
2.228090000000001
 30
0.0
  0
VERTEX
  5
A56
  8
0
 10
45.50492
 20
2.345270000000001
 30
0.0
  0
VERTEX
  5
A57
  8
0
 10
45.52942
 20
2.350700000000001
 30
0.0
  0
VERTEX
  5
A58
  8
0
 10
45.60112
 20
2.376850000000001
 30
0.0
  0
VERTEX
  5
A59
  8
0
 10
45.68652
 20
2.425460000000001
 30
0.0
  0
VERTEX
  5
A5A
  8
0
 10
45.75962
 20
2.488670000000001
 30
0.0
  0
VERTEX
  5
A5B
  8
0
 10
45.81872
 20
2.56418
 30
0.0
  0
VERTEX
  5
A5C
  8
0
 10
45.86252
 20
2.649570000000001
 30
0.0
  0
VERTEX
  5
A5D
  8
0
 10
45.88932
 20
2.74241
 30
0.0
  0
VERTEX
  5
A5E
  8
0
 10
45.89752
 20
2.84034
 30
0.0
  0
VERTEX
  5
A5F
  8
0
 10
45.89122
 20
2.91635
 30
0.0
  0
VERTEX
  5
A60
  8
0
 10
45.88582
 20
2.940920000000001
 30
0.0
  0
VERTEX
  5
A61
  8
0
 10
45.88582
 20
2.941140000000001
 30
0.0
  0
VERTEX
  5
A62
  8
0
 10
45.88542
 20
2.943420000000001
 30
0.0
  0
VERTEX
  5
A63
  8
0
 10
45.88532
 20
2.943630000000001
 30
0.0
  0
VERTEX
  5
A64
  8
0
 10
45.84682
 20
3.114420000000001
 30
0.0
  0
VERTEX
  5
A65
  8
0
 10
45.83302
 20
3.17557
 30
0.0
  0
VERTEX
  5
A66
  8
0
 10
45.77942
 20
3.356170000000001
 30
0.0
  0
VERTEX
  5
A67
  8
0
 10
45.69032
 20
3.585840000000001
 30
0.0
  0
VERTEX
  5
A68
  8
0
 10
45.58062
 20
3.80252
 30
0.0
  0
VERTEX
  5
A69
  8
0
 10
45.45172
 20
4.00527
 30
0.0
  0
VERTEX
  5
A6A
  8
0
 10
45.30512
 20
4.193140000000001
 30
0.0
  0
VERTEX
  5
A6B
  8
0
 10
45.14242
 20
4.365290000000001
 30
0.0
  0
VERTEX
  5
A6C
  8
0
 10
44.96462
 20
4.52073
 30
0.0
  0
VERTEX
  5
A6D
  8
0
 10
44.77332
 20
4.658590000000001
 30
0.0
  0
VERTEX
  5
A6E
  8
0
 10
44.57012
 20
4.777950000000001
 30
0.0
  0
VERTEX
  5
A6F
  8
0
 10
44.35612
 20
4.877820000000001
 30
0.0
  0
VERTEX
  5
A70
  8
0
 10
44.13292
 20
4.95736
 30
0.0
  0
VERTEX
  5
A71
  8
0
 10
43.90182
 20
5.015680000000001
 30
0.0
  0
VERTEX
  5
A72
  8
0
 10
43.66442
 20
5.05177
 30
0.0
  0
VERTEX
  5
A73
  8
0
 10
43.42182
 20
5.064730000000001
 30
0.0
  0
VERTEX
  5
A74
  8
0
 10
43.17582
 20
5.053660000000001
 30
0.0
  0
VERTEX
  5
A75
  8
0
 10
42.98892
 20
5.029680000000001
 30
0.0
  0
VERTEX
  5
A76
  8
0
 10
42.92752
 20
5.01763
 30
0.0
  0
VERTEX
  5
A77
  8
0
 10
42.84282
 20
5.00109
 30
0.0
  0
VERTEX
  5
A78
  8
0
 10
41.99542
 20
4.840450000000001
 30
0.0
  0
VERTEX
  5
A79
  8
0
 10
41.91072
 20
4.824920000000001
 30
0.0
  0
VERTEX
  5
A7A
  8
0
 10
41.80752
 20
4.80604
 30
0.0
  0
VERTEX
  5
A7B
  8
0
 10
40.77572
 20
4.624950000000001
 30
0.0
  0
VERTEX
  5
A7C
  8
0
 10
40.67262
 20
4.607640000000001
 30
0.0
  0
VERTEX
  5
A7D
  8
0
 10
40.63492
 20
4.601350000000001
 30
0.0
  0
VERTEX
  5
A7E
  8
0
 10
40.52042
 20
4.58996
 30
0.0
  0
VERTEX
  5
A7F
  8
0
 10
40.37012
 20
4.587670000000001
 30
0.0
  0
VERTEX
  5
A80
  8
0
 10
40.22262
 20
4.600270000000001
 30
0.0
  0
VERTEX
  5
A81
  8
0
 10
40.07862
 20
4.627000000000001
 30
0.0
  0
VERTEX
  5
A82
  8
0
 10
39.93922
 20
4.667380000000001
 30
0.0
  0
VERTEX
  5
A83
  8
0
 10
39.80502
 20
4.72071
 30
0.0
  0
VERTEX
  5
A84
  8
0
 10
39.67692
 20
4.786460000000001
 30
0.0
  0
VERTEX
  5
A85
  8
0
 10
39.55602
 20
4.863930000000001
 30
0.0
  0
VERTEX
  5
A86
  8
0
 10
39.44292
 20
4.952590000000001
 30
0.0
  0
VERTEX
  5
A87
  8
0
 10
39.33872
 20
5.05177
 30
0.0
  0
VERTEX
  5
A88
  8
0
 10
39.24402
 20
5.160810000000001
 30
0.0
  0
VERTEX
  5
A89
  8
0
 10
39.16002
 20
5.279240000000001
 30
0.0
  0
VERTEX
  5
A8A
  8
0
 10
39.08722
 20
5.40631
 30
0.0
  0
VERTEX
  5
A8B
  8
0
 10
39.02682
 20
5.541500000000001
 30
0.0
  0
VERTEX
  5
A8C
  8
0
 10
38.97932
 20
5.684140000000001
 30
0.0
  0
VERTEX
  5
A8D
  8
0
 10
38.95242
 20
5.795960000000001
 30
0.0
  0
VERTEX
  5
A8E
  8
0
 10
38.94602
 20
5.833600000000001
 30
0.0
  0
VERTEX
  5
A8F
  8
0
 10
36.45962
 20
20.34335
 30
0.0
  0
VERTEX
  5
A90
  8
0
 10
36.44822
 20
20.40945
 30
0.0
  0
VERTEX
  5
A91
  8
0
 10
36.39062
 20
20.60365
 30
0.0
  0
VERTEX
  5
A92
  8
0
 10
36.27922
 20
20.84195
 30
0.0
  0
VERTEX
  5
A93
  8
0
 10
36.13012000000001
 20
21.05415
 30
0.0
  0
VERTEX
  5
A94
  8
0
 10
35.94802
 20
21.23665
 30
0.0
  0
VERTEX
  5
A95
  8
0
 10
35.73752
 20
21.38545
 30
0.0
  0
VERTEX
  5
A96
  8
0
 10
35.50292
 20
21.49635
 30
0.0
  0
VERTEX
  5
A97
  8
0
 10
35.24932
 20
21.56595
 30
0.0
  0
VERTEX
  5
A98
  8
0
 10
35.04822
 20
21.58985
 30
0.0
  0
VERTEX
  5
A99
  8
0
 10
34.98112
 20
21.58985
 30
0.0
  0
VERTEX
  5
A9A
  8
0
 10
20.96742
 20
21.58985
 30
0.0
  0
VERTEX
  5
A9B
  8
0
 10
20.92402000000001
 20
21.58985
 30
0.0
  0
VERTEX
  5
A9C
  8
0
 10
20.79422
 20
21.59985
 30
0.0
  0
VERTEX
  5
A9D
  8
0
 10
20.77852
 20
21.60175
 30
0.0
  0
VERTEX
  5
A9E
  8
0
 10
20.74042
 20
21.60665
 30
0.0
  0
VERTEX
  5
A9F
  8
0
 10
20.62742
 20
21.62885
 30
0.0
  0
VERTEX
  5
AA0
  8
0
 10
20.48252
 20
21.67015
 30
0.0
  0
VERTEX
  5
AA1
  8
0
 10
20.34442000000001
 20
21.72485
 30
0.0
  0
VERTEX
  5
AA2
  8
0
 10
20.21422
 20
21.79235
 30
0.0
  0
VERTEX
  5
AA3
  8
0
 10
20.09192
 20
21.87155
 30
0.0
  0
VERTEX
  5
AA4
  8
0
 10
19.97872
 20
21.96165
 30
0.0
  0
VERTEX
  5
AA5
  8
0
 10
19.87502000000001
 20
22.06175
 30
0.0
  0
VERTEX
  5
AA6
  8
0
 10
19.78152
 20
22.17125
 30
0.0
  0
VERTEX
  5
AA7
  8
0
 10
19.69892
 20
22.28905
 30
0.0
  0
VERTEX
  5
AA8
  8
0
 10
19.62782
 20
22.41445
 30
0.0
  0
VERTEX
  5
AA9
  8
0
 10
19.56892000000001
 20
22.54665
 30
0.0
  0
VERTEX
  5
AAA
  8
0
 10
19.52262
 20
22.68475
 30
0.0
  0
VERTEX
  5
AAB
  8
0
 10
19.49002
 20
22.82775
 30
0.0
  0
VERTEX
  5
AAC
  8
0
 10
19.47142
 20
22.97495
 30
0.0
  0
VERTEX
  5
AAD
  8
0
 10
19.46762
 20
23.12555
 30
0.0
  0
VERTEX
  5
AAE
  8
0
 10
19.47442
 20
23.24065
 30
0.0
  0
VERTEX
  5
AAF
  8
0
 10
19.47932
 20
23.27875
 30
0.0
  0
VERTEX
  5
AB0
  8
0
 10
19.49892000000001
 20
23.43375
 30
0.0
  0
VERTEX
  5
AB1
  8
0
 10
19.59032000000001
 20
24.23155
 30
0.0
  0
VERTEX
  5
AB2
  8
0
 10
19.66962
 20
25.05985
 30
0.0
  0
VERTEX
  5
AB3
  8
0
 10
19.68332
 20
25.22995
 30
0.0
  0
VERTEX
  5
AB4
  8
0
 10
19.69082
 20
25.32345
 30
0.0
  0
VERTEX
  5
AB5
  8
0
 10
19.75322000000001
 20
26.28085
 30
0.0
  0
VERTEX
  5
AB6
  8
0
 10
19.75792000000001
 20
26.37885
 30
0.0
  0
VERTEX
  5
AB7
  8
0
 10
19.76282
 20
26.47695
 30
0.0
  0
VERTEX
  5
AB8
  8
0
 10
19.79402
 20
27.48065
 30
0.0
  0
VERTEX
  5
AB9
  8
0
 10
19.79542
 20
27.58335
 30
0.0
  0
VERTEX
  5
ABA
  8
0
 10
19.79672
 20
27.68595
 30
0.0
  0
VERTEX
  5
ABB
  8
0
 10
19.79722
 20
28.20625
 30
0.0
  0
VERTEX
  5
ABC
  8
0
 10
19.78932
 20
28.73565
 30
0.0
  0
VERTEX
  5
ABD
  8
0
 10
19.78642000000001
 20
28.84305
 30
0.0
  0
VERTEX
  5
ABE
  8
0
 10
19.78332
 20
28.95025
 30
0.0
  0
VERTEX
  5
ABF
  8
0
 10
19.76112000000001
 20
29.49345
 30
0.0
  0
VERTEX
  5
AC0
  8
0
 10
19.72872
 20
30.04585
 30
0.0
  0
VERTEX
  5
AC1
  8
0
 10
19.72072
 20
30.15765
 30
0.0
  0
VERTEX
  5
AC2
  8
0
 10
19.71252
 20
30.26955
 30
0.0
  0
VERTEX
  5
AC3
  8
0
 10
19.66322
 20
30.83545
 30
0.0
  0
VERTEX
  5
AC4
  8
0
 10
19.60182
 20
31.41045
 30
0.0
  0
VERTEX
  5
AC5
  8
0
 10
19.58752
 20
31.52665
 30
0.0
  0
VERTEX
  5
AC6
  8
0
 10
19.58042
 20
31.58485
 30
0.0
  0
VERTEX
  5
AC7
  8
0
 10
19.50102
 20
32.17205
 30
0.0
  0
VERTEX
  5
AC8
  8
0
 10
19.49222
 20
32.23125
 30
0.0
  0
VERTEX
  5
AC9
  8
0
 10
19.48332000000001
 20
32.29055
 30
0.0
  0
VERTEX
  5
ACA
  8
0
 10
19.38622
 20
32.88875
 30
0.0
  0
VERTEX
  5
ACB
  8
0
 10
19.37562
 20
32.94915
 30
0.0
  0
VERTEX
  5
ACC
  8
0
 10
19.36492000000001
 20
33.00945
 30
0.0
  0
VERTEX
  5
ACD
  8
0
 10
19.24872000000001
 20
33.61845
 30
0.0
  0
VERTEX
  5
ACE
  8
0
 10
19.23612000000001
 20
33.67985
 30
0.0
  0
VERTEX
  5
ACF
  8
0
 10
19.22352
 20
33.74135
 30
0.0
  0
VERTEX
  5
AD0
  8
0
 10
19.08712000000001
 20
34.36105
 30
0.0
  0
VERTEX
  5
AD1
  8
0
 10
19.07242
 20
34.42355
 30
0.0
  0
VERTEX
  5
AD2
  8
0
 10
19.07172000000001
 20
34.42675
 30
0.0
  0
VERTEX
  5
AD3
  8
0
 10
19.06402000000001
 20
34.45885
 30
0.0
  0
VERTEX
  5
AD4
  8
0
 10
19.06332
 20
34.46205
 30
0.0
  0
VERTEX
  5
AD5
  8
0
 10
19.05352000000001
 20
34.50345
 30
0.0
  0
VERTEX
  5
AD6
  8
0
 10
19.00992
 20
34.62455
 30
0.0
  0
VERTEX
  5
AD7
  8
0
 10
18.93142
 20
34.77245
 30
0.0
  0
VERTEX
  5
AD8
  8
0
 10
18.83072000000001
 20
34.90375
 30
0.0
  0
VERTEX
  5
AD9
  8
0
 10
18.71052
 20
35.01585
 30
0.0
  0
VERTEX
  5
ADA
  8
0
 10
18.57362000000001
 20
35.10695
 30
0.0
  0
VERTEX
  5
ADB
  8
0
 10
18.42282
 20
35.17475
 30
0.0
  0
VERTEX
  5
ADC
  8
0
 10
18.26072000000001
 20
35.21695
 30
0.0
  0
VERTEX
  5
ADD
  8
0
 10
18.13292000000001
 20
35.23155
 30
0.0
  0
VERTEX
  5
ADE
  8
0
 10
18.09032000000001
 20
35.23155
 30
0.0
  0
VERTEX
  5
ADF
  8
0
 10
17.57612
 20
35.23155
 30
0.0
  0
VERTEX
  5
AE0
  8
0
 10
17.52572000000001
 20
35.23155
 30
0.0
  0
VERTEX
  5
AE1
  8
0
 10
17.37462
 20
35.21105
 30
0.0
  0
VERTEX
  5
AE2
  8
0
 10
17.18682
 20
35.15295
 30
0.0
  0
VERTEX
  5
AE3
  8
0
 10
17.01692000000001
 20
35.06065
 30
0.0
  0
VERTEX
  5
AE4
  8
0
 10
16.86902000000001
 20
34.93865
 30
0.0
  0
VERTEX
  5
AE5
  8
0
 10
16.74692
 20
34.79055
 30
0.0
  0
VERTEX
  5
AE6
  8
0
 10
16.65472
 20
34.62065
 30
0.0
  0
VERTEX
  5
AE7
  8
0
 10
16.59642
 20
34.43305
 30
0.0
  0
VERTEX
  5
AE8
  8
0
 10
16.57612
 20
34.28175
 30
0.0
  0
VERTEX
  5
AE9
  8
0
 10
16.57612
 20
34.23155
 30
0.0
  0
VERTEX
  5
AEA
  8
0
 10
16.57612
 20
34.17265
 30
0.0
  0
VERTEX
  5
AEB
  8
0
 10
16.59942
 20
34.01555
 30
0.0
  0
VERTEX
  5
AEC
  8
0
 10
16.60422000000001
 20
33.99635
 30
0.0
  0
VERTEX
  5
AED
  8
0
 10
16.60712
 20
33.98415
 30
0.0
  0
VERTEX
  5
AEE
  8
0
 10
16.63602
 20
33.86295
 30
0.0
  0
VERTEX
  5
AEF
  8
0
 10
16.63892000000001
 20
33.85085
 30
0.0
  0
VERTEX
  5
AF0
  8
0
 10
16.65222000000001
 20
33.79415
 30
0.0
  0
VERTEX
  5
AF1
  8
0
 10
16.77572000000001
 20
33.23295
 30
0.0
  0
VERTEX
  5
AF2
  8
0
 10
16.78722
 20
33.17735
 30
0.0
  0
VERTEX
  5
AF3
  8
0
 10
16.79862000000001
 20
33.12165
 30
0.0
  0
VERTEX
  5
AF4
  8
0
 10
16.90392000000001
 20
32.56975
 30
0.0
  0
VERTEX
  5
AF5
  8
0
 10
16.91362
 20
32.51495
 30
0.0
  0
VERTEX
  5
AF6
  8
0
 10
16.92322
 20
32.46015
 30
0.0
  0
VERTEX
  5
AF7
  8
0
 10
17.01142
 20
31.91745
 30
0.0
  0
VERTEX
  5
AF8
  8
0
 10
17.01932
 20
31.86355
 30
0.0
  0
VERTEX
  5
AF9
  8
0
 10
17.02742000000001
 20
31.80985
 30
0.0
  0
VERTEX
  5
AFA
  8
0
 10
17.09962
 20
31.27635
 30
0.0
  0
VERTEX
  5
AFB
  8
0
 10
17.10612
 20
31.22345
 30
0.0
  0
VERTEX
  5
AFC
  8
0
 10
17.11902000000001
 20
31.11775
 30
0.0
  0
VERTEX
  5
AFD
  8
0
 10
17.17492
 20
30.59455
 30
0.0
  0
VERTEX
  5
AFE
  8
0
 10
17.21972
 20
30.07865
 30
0.0
  0
VERTEX
  5
AFF
  8
0
 10
17.22722
 20
29.97655
 30
0.0
  0
VERTEX
  5
B00
  8
0
 10
17.23462000000001
 20
29.87445
 30
0.0
  0
VERTEX
  5
B01
  8
0
 10
17.28442
 20
28.87225
 30
0.0
  0
VERTEX
  5
B02
  8
0
 10
17.28722
 20
28.77375
 30
0.0
  0
VERTEX
  5
B03
  8
0
 10
17.29002000000001
 20
28.67545
 30
0.0
  0
VERTEX
  5
B04
  8
0
 10
17.29682
 20
27.70995
 30
0.0
  0
VERTEX
  5
B05
  8
0
 10
17.29552
 20
27.61525
 30
0.0
  0
VERTEX
  5
B06
  8
0
 10
17.29432000000001
 20
27.52065
 30
0.0
  0
VERTEX
  5
B07
  8
0
 10
17.26542000000001
 20
26.59205
 30
0.0
  0
VERTEX
  5
B08
  8
0
 10
17.26102
 20
26.50095
 30
0.0
  0
VERTEX
  5
B09
  8
0
 10
17.25652
 20
26.40995
 30
0.0
  0
VERTEX
  5
B0A
  8
0
 10
17.19832
 20
25.51815
 30
0.0
  0
VERTEX
  5
B0B
  8
0
 10
17.19142
 20
25.43085
 30
0.0
  0
VERTEX
  5
B0C
  8
0
 10
17.17722000000001
 20
25.25615
 30
0.0
  0
VERTEX
  5
B0D
  8
0
 10
17.09442000000001
 20
24.40455
 30
0.0
  0
VERTEX
  5
B0E
  8
0
 10
16.99792
 20
23.58225
 30
0.0
  0
VERTEX
  5
B0F
  8
0
 10
16.97712000000001
 20
23.42205
 30
0.0
  0
VERTEX
  5
B10
  8
0
 10
16.95612000000001
 20
23.26195
 30
0.0
  0
VERTEX
  5
B11
  8
0
 10
16.84572
 20
22.48295
 30
0.0
  0
VERTEX
  5
B12
  8
0
 10
16.72972
 20
21.73245
 30
0.0
  0
VERTEX
  5
B13
  8
0
 10
16.70612000000001
 20
21.58665
 30
0.0
  0
VERTEX
  5
B14
  8
0
 10
16.68242
 20
21.44085
 30
0.0
  0
VERTEX
  5
B15
  8
0
 10
16.56362
 20
20.73265
 30
0.0
  0
VERTEX
  5
B16
  8
0
 10
16.44622
 20
20.05205
 30
0.0
  0
VERTEX
  5
B17
  8
0
 10
16.42332
 20
19.91995
 30
0.0
  0
VERTEX
  5
B18
  8
0
 10
16.41682
 20
19.88295
 30
0.0
  0
VERTEX
  5
B19
  8
0
 10
16.35322
 20
19.51675
 30
0.0
  0
VERTEX
  5
B1A
  8
0
 10
16.34692
 20
19.48065
 30
0.0
  0
VERTEX
  5
B1B
  8
0
 10
16.34142000000001
 20
19.44865
 30
0.0
  0
VERTEX
  5
B1C
  8
0
 10
16.28672
 20
19.13195
 30
0.0
  0
VERTEX
  5
B1D
  8
0
 10
16.28142
 20
19.10065
 30
0.0
  0
VERTEX
  5
B1E
  8
0
 10
14.05322
 20
6.0982
 30
0.0
  0
VERTEX
  5
B1F
  8
0
 10
14.05292
 20
6.096410000000001
 30
0.0
  0
VERTEX
  5
B20
  8
0
 10
14.04962
 20
6.07807
 30
0.0
  0
VERTEX
  5
B21
  8
0
 10
14.04932
 20
6.076220000000001
 30
0.0
  0
VERTEX
  5
B22
  8
0
 10
14.04222
 20
6.038570000000001
 30
0.0
  0
VERTEX
  5
B23
  8
0
 10
14.01352000000001
 20
5.926920000000001
 30
0.0
  0
VERTEX
  5
B24
  8
0
 10
13.96392
 20
5.784670000000001
 30
0.0
  0
VERTEX
  5
B25
  8
0
 10
13.90112000000001
 20
5.650130000000001
 30
0.0
  0
VERTEX
  5
B26
  8
0
 10
13.82622000000001
 20
5.523930000000001
 30
0.0
  0
VERTEX
  5
B27
  8
0
 10
13.74002
 20
5.406630000000001
 30
0.0
  0
VERTEX
  5
B28
  8
0
 10
13.64352
 20
5.298840000000001
 30
0.0
  0
VERTEX
  5
B29
  8
0
 10
13.53742
 20
5.20117
 30
0.0
  0
VERTEX
  5
B2A
  8
0
 10
13.42282
 20
5.11427
 30
0.0
  0
VERTEX
  5
B2B
  8
0
 10
13.30032000000001
 20
5.03863
 30
0.0
  0
VERTEX
  5
B2C
  8
0
 10
13.17082000000001
 20
4.974930000000001
 30
0.0
  0
VERTEX
  5
B2D
  8
0
 10
13.03562000000001
 20
4.923780000000001
 30
0.0
  0
VERTEX
  5
B2E
  8
0
 10
12.89502000000001
 20
4.885740000000001
 30
0.0
  0
VERTEX
  5
B2F
  8
0
 10
12.75032000000001
 20
4.861490000000001
 30
0.0
  0
VERTEX
  5
B30
  8
0
 10
12.60222
 20
4.851520000000001
 30
0.0
  0
VERTEX
  5
B31
  8
0
 10
12.45152000000001
 20
4.8565
 30
0.0
  0
VERTEX
  5
B32
  8
0
 10
12.33712000000001
 20
4.870020000000001
 30
0.0
  0
VERTEX
  5
B33
  8
0
 10
12.29942
 20
4.877000000000001
 30
0.0
  0
VERTEX
  5
B34
  8
0
 10
12.26192
 20
4.884060000000001
 30
0.0
  0
VERTEX
  5
B35
  8
0
 10
11.88672
 20
4.95513
 30
0.0
  0
VERTEX
  5
B36
  8
0
 10
11.84922
 20
4.962350000000001
 30
0.0
  0
VERTEX
  5
B37
  8
0
 10
11.83902
 20
4.964360000000001
 30
0.0
  0
VERTEX
  5
B38
  8
0
 10
11.73682000000001
 20
4.984100000000001
 30
0.0
  0
VERTEX
  5
B39
  8
0
 10
11.72672000000001
 20
4.986060000000001
 30
0.0
  0
VERTEX
  5
B3A
  8
0
 10
11.33742000000001
 20
5.06153
 30
0.0
  0
VERTEX
  5
B3B
  8
0
 10
10.17232
 20
5.30252
 30
0.0
  0
VERTEX
  5
B3C
  8
0
 10
8.617220000000005
 20
5.649310000000001
 30
0.0
  0
VERTEX
  5
B3D
  8
0
 10
7.061360000000006
 20
6.02636
 30
0.0
  0
VERTEX
  5
B3E
  8
0
 10
5.892960000000006
 20
6.32845
 30
0.0
  0
VERTEX
  5
B3F
  8
0
 10
5.504830000000005
 20
6.43375
 30
0.0
  0
VERTEX
  5
B40
  8
0
 10
5.313150000000006
 20
6.485790000000001
 30
0.0
  0
VERTEX
  5
B41
  8
0
 10
3.395950000000004
 20
7.0337
 30
0.0
  0
SEQEND
  5
C05
  8
0
  0
POLYLINE
  5
AC
  8
0
 66
     1
 10
0.0
 20
0.0
 30
0.0
 70
     1
  0
VERTEX
  5
B42
  8
0
 10
78.23442
 20
34.35055
 30
0.0
  0
VERTEX
  5
B43
  8
0
 10
77.48442
 20
34.35565
 30
0.0
 42
1.0
  0
VERTEX
  5
B44
  8
0
 10
77.48269443946043
 20
34.10486853491643
 30
0.0
  0
VERTEX
  5
B45
  8
0
 10
77.47662
 20
33.22205
 30
0.0
  0
VERTEX
  5
B46
  8
0
 10
77.47641999999999
 20
33.20375
 30
0.0
  0
VERTEX
  5
B47
  8
0
 10
77.46862000000002
 20
33.14835
 30
0.0
  0
VERTEX
  5
B48
  8
0
 10
77.44682
 20
33.07975
 30
0.0
  0
VERTEX
  5
B49
  8
0
 10
77.41262
 20
33.01775
 30
0.0
  0
VERTEX
  5
B4A
  8
0
 10
77.36752000000001
 20
32.96385
 30
0.0
  0
VERTEX
  5
B4B
  8
0
 10
77.31291999999999
 20
32.91945
 30
0.0
  0
VERTEX
  5
B4C
  8
0
 10
77.25041999999999
 20
32.88625
 30
0.0
  0
VERTEX
  5
B4D
  8
0
 10
77.18152
 20
32.86525
 30
0.0
  0
VERTEX
  5
B4E
  8
0
 10
77.12621999999999
 20
32.85815
 30
0.0
  0
VERTEX
  5
B4F
  8
0
 10
77.10782
 20
32.85835
 30
0.0
  0
VERTEX
  5
B50
  8
0
 10
77.08932000000001
 20
32.85845
 30
0.0
  0
VERTEX
  5
B51
  8
0
 10
77.03392
 20
32.86635
 30
0.0
  0
VERTEX
  5
B52
  8
0
 10
76.96531999999999
 20
32.88815
 30
0.0
  0
VERTEX
  5
B53
  8
0
 10
76.90332000000001
 20
32.92235
 30
0.0
  0
VERTEX
  5
B54
  8
0
 10
76.84942000000001
 20
32.96745
 30
0.0
  0
VERTEX
  5
B55
  8
0
 10
76.80511999999999
 20
33.02195
 30
0.0
  0
VERTEX
  5
B56
  8
0
 10
76.77181999999999
 20
33.08445
 30
0.0
  0
VERTEX
  5
B57
  8
0
 10
76.75102000000001
 20
33.15335
 30
0.0
  0
VERTEX
  5
B58
  8
0
 10
76.74392
 20
33.20875
 30
0.0
  0
VERTEX
  5
B59
  8
0
 10
76.74402
 20
33.22725
 30
0.0
  0
VERTEX
  5
B5A
  8
0
 10
76.75017231795698
 20
34.11006868810432
 30
0.0
 42
1.0
  0
VERTEX
  5
B5B
  8
0
 10
76.75192000000001
 20
34.36085
 30
0.0
  0
VERTEX
  5
B5C
  8
0
 10
76.00192000000001
 20
34.36615
 30
0.0
  0
VERTEX
  5
B5D
  8
0
 10
76.00222
 20
34.40305
 30
0.0
  0
VERTEX
  5
B5E
  8
0
 10
76.01782
 20
34.51375
 30
0.0
  0
VERTEX
  5
B5F
  8
0
 10
76.06152
 20
34.65085
 30
0.0
  0
VERTEX
  5
B60
  8
0
 10
76.12992
 20
34.77485
 30
0.0
  0
VERTEX
  5
B61
  8
0
 10
76.22002
 20
34.88265
 30
0.0
  0
VERTEX
  5
B62
  8
0
 10
76.32902000000001
 20
34.97135
 30
0.0
  0
VERTEX
  5
B63
  8
0
 10
76.45402000000001
 20
35.03805
 30
0.0
  0
VERTEX
  5
B64
  8
0
 10
76.59182000000001
 20
35.07975
 30
0.0
  0
VERTEX
  5
B65
  8
0
 10
76.70262
 20
35.09385
 30
0.0
  0
VERTEX
  5
B66
  8
0
 10
76.73962
 20
35.09355
 30
0.0
  0
VERTEX
  5
B67
  8
0
 10
77.50692000000001
 20
35.08815
 30
0.0
  0
VERTEX
  5
B68
  8
0
 10
77.54392000000001
 20
35.08805
 30
0.0
  0
VERTEX
  5
B69
  8
0
 10
77.65441999999999
 20
35.07235
 30
0.0
  0
VERTEX
  5
B6A
  8
0
 10
77.79172
 20
35.02875
 30
0.0
  0
VERTEX
  5
B6B
  8
0
 10
77.91572
 20
34.96025
 30
0.0
  0
VERTEX
  5
B6C
  8
0
 10
78.02351999999999
 20
34.87015
 30
0.0
  0
VERTEX
  5
B6D
  8
0
 10
78.11212
 20
34.76095
 30
0.0
  0
VERTEX
  5
B6E
  8
0
 10
78.17892
 20
34.63615
 30
0.0
  0
VERTEX
  5
B6F
  8
0
 10
78.22062
 20
34.49835
 30
0.0
  0
VERTEX
  5
B70
  8
0
 10
78.23472000000001
 20
34.38745
 30
0.0
  0
SEQEND
  5
C06
  8
0
  0
POLYLINE
  5
AD
  8
0
 66
     1
 10
0.0
 20
0.0
 30
0.0
 70
     1
  0
VERTEX
  5
B71
  8
0
 10
18.75318232600127
 20
31.39017580648508
 30
0.0
  0
VERTEX
  5
B72
  8
0
 10
18.51105767399874
 20
32.61492419351492
 30
0.0
 42
1.0
  0
VERTEX
  5
B73
  8
0
 10
18.46242
 20
32.86095
 30
0.0
  0
VERTEX
  5
B74
  8
0
 10
17.74372
 20
32.71875
 30
0.0
 42
1.0
  0
VERTEX
  5
B75
  8
0
 10
17.79236729667158
 20
32.47272609604921
 30
0.0
  0
VERTEX
  5
B76
  8
0
 10
18.03452270332843
 20
31.24807390395079
 30
0.0
 42
1.0
  0
VERTEX
  5
B77
  8
0
 10
18.08317
 20
31.00205
 30
0.0
  0
VERTEX
  5
B78
  8
0
 10
18.80182000000001
 20
31.14415
 30
0.0
 42
1.0
  0
SEQEND
  5
C07
  8
0
  0
POLYLINE
  5
AE
  8
0
 66
     1
 10
0.0
 20
0.0
 30
0.0
 70
     1
  0
VERTEX
  5
B79
  8
0
 10
10.00002
 20
31.8006
 30
0.0
  0
VERTEX
  5
B7A
  8
0
 10
10.00002
 20
32.53315
 30
0.0
 42
1.0
  0
VERTEX
  5
B7B
  8
0
 10
9.749232598425206
 20
32.53315
 30
0.0
  0
VERTEX
  5
B7C
  8
0
 10
9.250807401574805
 20
32.53315
 30
0.0
 42
1.0
  0
VERTEX
  5
B7D
  8
0
 10
9.000020000000005
 20
32.53315
 30
0.0
  0
VERTEX
  5
B7E
  8
0
 10
9.000020000000005
 20
31.8006
 30
0.0
 42
1.0
  0
VERTEX
  5
B7F
  8
0
 10
9.250807401574804
 20
31.8006
 30
0.0
  0
VERTEX
  5
B80
  8
0
 10
9.749232598425204
 20
31.8006
 30
0.0
 42
1.0
  0
SEQEND
  5
C08
  8
0
  0
POLYLINE
  5
AF
  8
0
 66
     1
 10
0.0
 20
0.0
 30
0.0
 70
     1
  0
VERTEX
  5
B81
  8
0
 10
0.811900000000005
 20
41.90165
 30
0.0
  0
VERTEX
  5
B82
  8
0
 10
0.811900000000005
 20
42.40165
 30
0.0
 42
1.0
  0
VERTEX
  5
B83
  8
0
 10
0.561112598425205
 20
42.40165
 30
0.0
  0
VERTEX
  5
B84
  8
0
 10
0.0792900000000047
 20
42.40165
 30
0.0
  0
VERTEX
  5
B85
  8
0
 10
0.079260000000005
 20
42.78525
 30
0.0
  0
VERTEX
  5
B86
  8
0
 10
1.213000000000005
 20
42.78525
 30
0.0
  0
VERTEX
  5
B87
  8
0
 10
1.231450000000004
 20
42.78525
 30
0.0
  0
VERTEX
  5
B88
  8
0
 10
1.286790000000005
 20
42.79275
 30
0.0
  0
VERTEX
  5
B89
  8
0
 10
1.355580000000005
 20
42.81415
 30
0.0
  0
VERTEX
  5
B8A
  8
0
 10
1.417810000000005
 20
42.84795
 30
0.0
  0
VERTEX
  5
B8B
  8
0
 10
1.472010000000004
 20
42.89265
 30
0.0
  0
VERTEX
  5
B8C
  8
0
 10
1.516710000000005
 20
42.94675
 30
0.0
  0
VERTEX
  5
B8D
  8
0
 10
1.550510000000004
 20
43.00905
 30
0.0
  0
VERTEX
  5
B8E
  8
0
 10
1.571830000000004
 20
43.07795
 30
0.0
  0
VERTEX
  5
B8F
  8
0
 10
1.579320000000004
 20
43.13315
 30
0.0
  0
VERTEX
  5
B90
  8
0
 10
1.579320000000004
 20
43.15165
 30
0.0
  0
VERTEX
  5
B91
  8
0
 10
1.579320000000004
 20
43.17015
 30
0.0
  0
VERTEX
  5
B92
  8
0
 10
1.571830000000004
 20
43.22555
 30
0.0
  0
VERTEX
  5
B93
  8
0
 10
1.550510000000004
 20
43.29415
 30
0.0
  0
VERTEX
  5
B94
  8
0
 10
1.516710000000005
 20
43.35655
 30
0.0
  0
VERTEX
  5
B95
  8
0
 10
1.472010000000004
 20
43.41065
 30
0.0
  0
VERTEX
  5
B96
  8
0
 10
1.417810000000005
 20
43.45545
 30
0.0
  0
VERTEX
  5
B97
  8
0
 10
1.355580000000005
 20
43.48915
 30
0.0
  0
VERTEX
  5
B98
  8
0
 10
1.286790000000005
 20
43.51045
 30
0.0
  0
VERTEX
  5
B99
  8
0
 10
1.231450000000004
 20
43.51795
 30
0.0
  0
VERTEX
  5
B9A
  8
0
 10
1.213000000000005
 20
43.51795
 30
0.0
  0
VERTEX
  5
B9B
  8
0
 10
0.0792900000000047
 20
43.51795
 30
0.0
  0
VERTEX
  5
B9C
  8
0
 10
0.0793200000000045
 20
43.90165
 30
0.0
  0
VERTEX
  5
B9D
  8
0
 10
0.561112598425205
 20
43.90165
 30
0.0
 42
1.0
  0
VERTEX
  5
B9E
  8
0
 10
0.811900000000005
 20
43.90165
 30
0.0
  0
VERTEX
  5
B9F
  8
0
 10
0.811900000000005
 20
44.40165
 30
0.0
  0
VERTEX
  5
BA0
  8
0
 10
19.34672
 20
44.40165
 30
0.0
  0
VERTEX
  5
BA1
  8
0
 10
19.34672
 20
43.90165
 30
0.0
 42
1.0
  0
VERTEX
  5
BA2
  8
0
 10
19.59750740157481
 20
43.90165
 30
0.0
  0
VERTEX
  5
BA3
  8
0
 10
20.07932
 20
43.90165
 30
0.0
  0
VERTEX
  5
BA4
  8
0
 10
20.07932
 20
43.51795
 30
0.0
  0
VERTEX
  5
BA5
  8
0
 10
18.94562000000001
 20
43.51795
 30
0.0
  0
VERTEX
  5
BA6
  8
0
 10
18.92712
 20
43.51795
 30
0.0
  0
VERTEX
  5
BA7
  8
0
 10
18.87172
 20
43.51045
 30
0.0
  0
VERTEX
  5
BA8
  8
0
 10
18.80292
 20
43.48915
 30
0.0
  0
VERTEX
  5
BA9
  8
0
 10
18.74072
 20
43.45545
 30
0.0
  0
VERTEX
  5
BAA
  8
0
 10
18.68652
 20
43.41065
 30
0.0
  0
VERTEX
  5
BAB
  8
0
 10
18.64182
 20
43.35655
 30
0.0
  0
VERTEX
  5
BAC
  8
0
 10
18.60802
 20
43.29415
 30
0.0
  0
VERTEX
  5
BAD
  8
0
 10
18.58672000000001
 20
43.22545
 30
0.0
  0
VERTEX
  5
BAE
  8
0
 10
18.57932
 20
43.17015
 30
0.0
  0
VERTEX
  5
BAF
  8
0
 10
18.57932
 20
43.15165
 30
0.0
  0
VERTEX
  5
BB0
  8
0
 10
18.57932
 20
43.13315
 30
0.0
  0
VERTEX
  5
BB1
  8
0
 10
18.58672000000001
 20
43.07775
 30
0.0
  0
VERTEX
  5
BB2
  8
0
 10
18.60802
 20
43.00905
 30
0.0
  0
VERTEX
  5
BB3
  8
0
 10
18.64182
 20
42.94675
 30
0.0
  0
VERTEX
  5
BB4
  8
0
 10
18.68652
 20
42.89265
 30
0.0
  0
VERTEX
  5
BB5
  8
0
 10
18.74072
 20
42.84795
 30
0.0
  0
VERTEX
  5
BB6
  8
0
 10
18.80292
 20
42.81415
 30
0.0
  0
VERTEX
  5
BB7
  8
0
 10
18.87172
 20
42.79275
 30
0.0
  0
VERTEX
  5
BB8
  8
0
 10
18.92712
 20
42.78525
 30
0.0
  0
VERTEX
  5
BB9
  8
0
 10
18.94562000000001
 20
42.78525
 30
0.0
  0
VERTEX
  5
BBA
  8
0
 10
20.07932
 20
42.78525
 30
0.0
  0
VERTEX
  5
BBB
  8
0
 10
20.07932
 20
42.40165
 30
0.0
  0
VERTEX
  5
BBC
  8
0
 10
19.59750740157481
 20
42.40165
 30
0.0
 42
1.0
  0
VERTEX
  5
BBD
  8
0
 10
19.34672
 20
42.40165
 30
0.0
  0
VERTEX
  5
BBE
  8
0
 10
19.34672
 20
41.90165
 30
0.0
  0
SEQEND
  5
C09
  8
0
  0
POLYLINE
  5
B0
  8
0
 66
     1
 10
0.0
 20
0.0
 30
0.0
 70
     1
  0
VERTEX
  5
BBF
  8
0
 10
2.035430000000005
 20
31.8006
 30
0.0
  0
VERTEX
  5
BC0
  8
0
 10
2.035430000000005
 20
32.53315
 30
0.0
 42
-1.0
  0
VERTEX
  5
BC1
  8
0
 10
2.286217401574805
 20
32.53315
 30
0.0
  0
VERTEX
  5
BC2
  8
0
 10
2.784642598425205
 20
32.53315
 30
0.0
 42
-1.0
  0
VERTEX
  5
BC3
  8
0
 10
3.035430000000005
 20
32.53315
 30
0.0
  0
VERTEX
  5
BC4
  8
0
 10
3.035430000000005
 20
31.8006
 30
0.0
 42
-1.0
  0
VERTEX
  5
BC5
  8
0
 10
2.784642598425205
 20
31.8006
 30
0.0
  0
VERTEX
  5
BC6
  8
0
 10
2.286217401574805
 20
31.8006
 30
0.0
 42
-1.0
  0
SEQEND
  5
C0A
  8
0
  0
ENDSEC
  0
EOF
