  0
SECTION
  2
HEADER
  9
$ACADVER
  1
AC1009
  9
$DWGCODEPAGE
  3
ansi_1252
  9
$INSBASE
 10
0.0
 20
0.0
 30
0.0
  9
$EXTMIN
 10
0.9999999999883329
 20
0.9946945766202714
 30
0.0
  9
$EXTMAX
 10
95.3736238961959
 20
47.3415609024036
 30
0.0
  9
$LIMMIN
 10
0.0
 20
0.0
  9
$LIMMAX
 10
12.0
 20
9.0
  9
$ORTHOMODE
 70
     0
  9
$REGENMODE
 70
     1
  9
$FILLMODE
 70
     1
  9
$QTEXTMODE
 70
     0
  9
$MIRRTEXT
 70
     1
  9
$DRAGMODE
 70
     2
  9
$LTSCALE
 40
1.0
  9
$OSMODE
 70
    37
  9
$ATTMODE
 70
     1
  9
$TEXTSIZE
 40
0.2
  9
$TRACEWID
 40
0.05
  9
$TEXTSTYLE
  7
STANDARD
  9
$CLAYER
  8
0
  9
$CELTYPE
  6
BYLAYER
  9
$CECOLOR
 62
   256
  9
$DIMSCALE
 40
1.0
  9
$DIMASZ
 40
0.18
  9
$DIMEXO
 40
0.0625
  9
$DIMDLI
 40
0.38
  9
$DIMRND
 40
0.0
  9
$DIMDLE
 40
0.0
  9
$DIMEXE
 40
0.18
  9
$DIMTP
 40
0.0
  9
$DIMTM
 40
0.0
  9
$DIMTXT
 40
0.18
  9
$DIMCEN
 40
0.09
  9
$DIMTSZ
 40
0.0
  9
$DIMTOL
 70
     0
  9
$DIMLIM
 70
     0
  9
$DIMTIH
 70
     1
  9
$DIMTOH
 70
     1
  9
$DIMSE1
 70
     0
  9
$DIMSE2
 70
     0
  9
$DIMTAD
 70
     0
  9
$DIMZIN
 70
     0
  9
$DIMBLK
  1

  9
$DIMASO
 70
     1
  9
$DIMSHO
 70
     1
  9
$DIMPOST
  1

  9
$DIMAPOST
  1

  9
$DIMALT
 70
     0
  9
$DIMALTD
 70
     2
  9
$DIMALTF
 40
25.4
  9
$DIMLFAC
 40
1.0
  9
$DIMTOFL
 70
     0
  9
$DIMTVP
 40
0.0
  9
$DIMTIX
 70
     0
  9
$DIMSOXD
 70
     0
  9
$DIMSAH
 70
     0
  9
$DIMBLK1
  1

  9
$DIMBLK2
  1

  9
$DIMSTYLE
  2
STANDARD
  9
$DIMCLRD
 70
     0
  9
$DIMCLRE
 70
     0
  9
$DIMCLRT
 70
     0
  9
$DIMTFAC
 40
1.0
  9
$DIMGAP
 40
0.09
  9
$LUNITS
 70
     2
  9
$LUPREC
 70
     4
  9
$SKETCHINC
 40
0.1
  9
$FILLETRAD
 40
0.5
  9
$AUNITS
 70
     0
  9
$AUPREC
 70
     0
  9
$MENU
  1
.
  9
$ELEVATION
 40
0.0
  9
$PELEVATION
 40
0.0
  9
$THICKNESS
 40
0.0
  9
$LIMCHECK
 70
     0
  9
$CHAMFERA
 40
0.0
  9
$CHAMFERB
 40
0.0
  9
$SKPOLY
 70
     0
  9
$TDCREATE
 40
2454910.5
  9
$TDUPDATE
 40
2459289.720438218
  9
$TDINDWG
 40
0.0000000116
  9
$TDUSRTIMER
 40
0.0000000116
  9
$USRTIMER
 70
     1
  9
$ANGBASE
 50
0.0
  9
$ANGDIR
 70
     0
  9
$PDMODE
 70
     0
  9
$PDSIZE
 40
0.0
  9
$PLINEWID
 40
0.0
  9
$COORDS
 70
     1
  9
$SPLFRAME
 70
     0
  9
$SPLINETYPE
 70
     6
  9
$SPLINESEGS
 70
     8
  9
$ATTDIA
 70
     0
  9
$ATTREQ
 70
     1
  9
$HANDLING
 70
     1
  9
$HANDSEED
  5
3F2
  9
$SURFTAB1
 70
     6
  9
$SURFTAB2
 70
     6
  9
$SURFTYPE
 70
     6
  9
$SURFU
 70
     6
  9
$SURFV
 70
     6
  9
$UCSNAME
  2

  9
$UCSORG
 10
0.0
 20
0.0
 30
0.0
  9
$UCSXDIR
 10
1.0
 20
0.0
 30
0.0
  9
$UCSYDIR
 10
0.0
 20
1.0
 30
0.0
  9
$PUCSNAME
  2

  9
$PUCSORG
 10
0.0
 20
0.0
 30
0.0
  9
$PUCSXDIR
 10
1.0
 20
0.0
 30
0.0
  9
$PUCSYDIR
 10
0.0
 20
1.0
 30
0.0
  9
$USERI1
 70
     0
  9
$USERI2
 70
     0
  9
$USERI3
 70
     0
  9
$USERI4
 70
     0
  9
$USERI5
 70
     0
  9
$USERR1
 40
0.0
  9
$USERR2
 40
0.0
  9
$USERR3
 40
0.0
  9
$USERR4
 40
0.0
  9
$USERR5
 40
0.0
  9
$WORLDVIEW
 70
     1
  9
$SHADEDGE
 70
     3
  9
$SHADEDIF
 70
    70
  9
$TILEMODE
 70
     1
  9
$MAXACTVP
 70
    64
  9
$PLIMCHECK
 70
     0
  9
$PEXTMIN
 10
1.000000000000000E+20
 20
1.000000000000000E+20
 30
1.000000000000000E+20
  9
$PEXTMAX
 10
-1.000000000000000E+20
 20
-1.000000000000000E+20
 30
-1.000000000000000E+20
  9
$PLIMMIN
 10
0.0
 20
0.0
  9
$PLIMMAX
 10
12.0
 20
9.0
  9
$UNITMODE
 70
     0
  9
$VISRETAIN
 70
     1
  9
$PLINEGEN
 70
     0
  9
$PSLTSCALE
 70
     1
  0
ENDSEC
  0
SECTION
  2
TABLES
  0
TABLE
  2
VPORT
 70
     1
  0
VPORT
  2
*ACTIVE
 70
     0
 10
0.0
 20
0.0
 11
1.0
 21
1.0
 12
10.42990654205607
 22
4.5
 13
0.0
 23
0.0
 14
0.5
 24
0.5
 15
0.5
 25
0.5
 16
0.0
 26
0.0
 36
1.0
 17
0.0
 27
0.0
 37
0.0
 40
9.0
 41
1.972972972850329
 42
50.0
 43
0.0
 44
0.0
 50
0.0
 51
0.0
 71
     0
 72
   100
 73
     1
 74
     3
 75
     0
 76
     0
 77
     0
 78
     0
  0
ENDTAB
  0
TABLE
  2
LTYPE
 70
     2
  0
LTYPE
  2
CONTINUOUS
 70
     0
  3
Solid line
 72
    65
 73
     0
 40
0.0
  0
LTYPE
  2
CONTINUOUS2
 70
     0
  3
Solid Line
 72
    65
 73
     0
 40
0.0
  0
ENDTAB
  0
TABLE
  2
LAYER
 70
     1
  0
LAYER
  2
0
 70
     0
 62
     7
  6
CONTINUOUS
  0
ENDTAB
  0
TABLE
  2
STYLE
 70
     1
  0
STYLE
  2
STANDARD
 70
     0
 40
0.0
 41
1.0
 50
0.0
 71
     0
 42
0.2
  3
txt
  4

  0
ENDTAB
  0
TABLE
  2
VIEW
 70
     0
  0
ENDTAB
  0
TABLE
  2
UCS
 70
     0
  0
ENDTAB
  0
TABLE
  2
APPID
 70
     1
  0
APPID
  2
ACAD
 70
     0
  0
ENDTAB
  0
TABLE
  2
DIMSTYLE
 70
     1
  0
DIMSTYLE
  2
STANDARD
 70
     0
  3

  4

  5

  6

  7

 40
1.0
 41
0.18
 42
0.0625
 43
0.38
 44
0.18
 45
0.0
 46
0.0
 47
0.0
 48
0.0
140
0.18
141
0.09
142
0.0
143
25.4
144
1.0
145
0.0
146
1.0
147
0.09
 71
     0
 72
     0
 73
     1
 74
     1
 75
     0
 76
     0
 77
     0
 78
     0
170
     0
171
     2
172
     0
173
     0
174
     0
175
     0
176
     0
177
     0
178
     0
  0
ENDTAB
  0
ENDSEC
  0
SECTION
  2
BLOCKS
  0
BLOCK
  8
0
  2
$MODEL_SPACE
 70
     0
 10
0.0
 20
0.0
 30
0.0
  3
$MODEL_SPACE
  1

  0
ENDBLK
  5
21
  8
0
  0
BLOCK
 67
     1
  8
0
  2
$PAPER_SPACE
 70
     0
 10
0.0
 20
0.0
 30
0.0
  3
$PAPER_SPACE
  1

  0
ENDBLK
  5
1D
 67
     1
  8
0
  0
ENDSEC
  0
SECTION
  2
ENTITIES
  0
POLYLINE
  5
6F
  8
0
 66
     1
 10
0.0
 20
0.0
 30
0.0
 70
     1
  0
VERTEX
  5
90
  8
0
 10
11.51348046069101
 20
39.44554527260252
 30
0.0
 42
0.3609629549480354
  0
VERTEX
  5
91
  8
0
 10
12.23982467125284
 20
38.84262099846812
 30
0.0
  0
VERTEX
  5
92
  8
0
 10
12.9788010492056
 20
38.84262099846737
 30
0.0
 42
-0.0456821799454306
  0
VERTEX
  5
93
  8
0
 10
13.52356714462065
 20
38.79274470795588
 30
0.0
 42
0.0915554233848798
  0
VERTEX
  5
94
  8
0
 10
30.95608219788947
 20
38.79274470792915
 30
0.0
 42
-0.0456821799454368
  0
VERTEX
  5
95
  8
0
 10
31.50084829330035
 20
38.84262099844004
 30
0.0
  0
VERTEX
  5
96
  8
0
 10
32.23982467125312
 20
38.84262099844303
 30
0.0
 42
0.3609629549491037
  0
VERTEX
  5
97
  8
0
 10
32.96616888182505
 20
39.44554527258765
 30
0.0
 42
0.0379451344008775
  0
VERTEX
  5
98
  8
0
 10
33.75982467126657
 20
46.6771152402912
 30
0.0
  0
VERTEX
  5
99
  8
0
 10
34.58249119897702
 20
46.67711524029016
 30
0.0
 42
1.0
  0
VERTEX
  5
9A
  8
0
 10
34.75982467126691
 20
46.85444871257967
 30
0.0
  0
VERTEX
  5
9B
  8
0
 10
34.75982467126708
 20
47.04660342926631
 30
0.0
  0
VERTEX
  5
9C
  8
0
 10
35.75982467126724
 20
47.04660342926505
 30
0.0
  0
VERTEX
  5
9D
  8
0
 10
35.759824671267
 20
46.85444871257835
 30
0.0
 42
1.0
  0
VERTEX
  5
9E
  8
0
 10
35.93715814355645
 20
46.67711524028842
 30
0.0
  0
VERTEX
  5
9F
  8
0
 10
36.75982467126697
 20
46.67711524028728
 30
0.0
 42
-0.0416214420019919
  0
VERTEX
  5
A0
  8
0
 10
35.78990808929281
 20
38.25696549907882
 30
0.0
 42
-0.3535657354352698
  0
VERTEX
  5
A1
  8
0
 10
32.88902613712465
 20
35.84701143401671
 30
0.0
 42
-0.003381373617259
  0
VERTEX
  5
A2
  8
0
 10
32.23982467125378
 20
35.84262099844248
 30
0.0
  0
VERTEX
  5
A3
  8
0
 10
32.2398246712532
 20
37.16528752615387
 30
0.0
 42
1.0
  0
VERTEX
  5
A4
  8
0
 10
32.06249119896432
 20
37.34262099844437
 30
0.0
  0
VERTEX
  5
A5
  8
0
 10
31.67818176559092
 20
37.34262099844805
 30
0.0
 42
1.0
  0
VERTEX
  5
A6
  8
0
 10
31.50084829330041
 20
37.16528752615917
 30
0.0
  0
VERTEX
  5
A7
  8
0
 10
31.50084829330082
 20
35.84262099843988
 30
0.0
 42
-0.0915554233848658
  0
VERTEX
  5
A8
  8
0
 10
12.9788010492056
 20
35.84262099846729
 30
0.0
  0
VERTEX
  5
A9
  8
0
 10
12.97880104920339
 20
37.16528752613547
 30
0.0
 42
1.0
  0
VERTEX
  5
AA
  8
0
 10
12.80146757691266
 20
37.34262099842412
 30
0.0
  0
VERTEX
  5
AB
  8
0
 10
12.41715814353934
 20
37.34262099842025
 30
0.0
 42
1.0
  0
VERTEX
  5
AC
  8
0
 10
12.23982467125074
 20
37.16528752612947
 30
0.0
  0
VERTEX
  5
AD
  8
0
 10
12.23982467125372
 20
35.84262099841983
 30
0.0
 42
-0.0033813736172539
  0
VERTEX
  5
AE
  8
0
 10
11.59062320537968
 20
35.84701143399518
 30
0.0
 42
-0.3535657354352562
  0
VERTEX
  5
AF
  8
0
 10
8.689741253215637
 20
38.25696549909608
 30
0.0
 42
-0.0416214420019925
  0
VERTEX
  5
B0
  8
0
 10
7.719824671252049
 20
46.67711524030578
 30
0.0
  0
VERTEX
  5
B1
  8
0
 10
8.542491198962253
 20
46.67711524030578
 30
0.0
 42
1.0
  0
VERTEX
  5
B2
  8
0
 10
8.719824671251962
 20
46.85444871259546
 30
0.0
  0
VERTEX
  5
B3
  8
0
 10
8.719824671251992
 20
47.04660342928216
 30
0.0
  0
VERTEX
  5
B4
  8
0
 10
9.719824671252006
 20
47.04660342928216
 30
0.0
  0
VERTEX
  5
B5
  8
0
 10
9.719824671251969
 20
46.85444871259551
 30
0.0
 42
1.0
  0
VERTEX
  5
B6
  8
0
 10
9.897158143541656
 20
46.6771152403058
 30
0.0
  0
VERTEX
  5
B7
  8
0
 10
10.71982467125209
 20
46.67711524030589
 30
0.0
 42
0.0379451344008773
  0
SEQEND
  5
3D8
  8
0
  0
POLYLINE
  5
70
  8
0
 66
     1
 10
0.0
 20
0.0
 30
0.0
 70
     1
  0
VERTEX
  5
B8
  8
0
 10
67.47157893715998
 20
20.62362389618373
 30
0.0
 42
-0.4542352566973938
  0
VERTEX
  5
B9
  8
0
 10
68.59185243906337
 20
19.34130880523199
 30
0.0
 42
0.067444584365568
  0
VERTEX
  5
BA
  8
0
 10
68.59185243906067
 20
5.644915365089787
 30
0.0
 42
-0.4542352566973966
  0
VERTEX
  5
BB
  8
0
 10
67.47157893715675
 20
4.362600274138487
 30
0.0
  0
VERTEX
  5
BC
  8
0
 10
55.21180966490044
 20
4.362600274143389
 30
0.0
 42
0.4142135623730948
  0
VERTEX
  5
BD
  8
0
 10
54.08129785387622
 20
3.232088463120077
 30
0.0
  0
VERTEX
  5
BE
  8
0
 10
62.76616358614159
 20
3.232088463113114
 30
0.0
 42
-1.0
  0
VERTEX
  5
BF
  8
0
 10
62.94349705843084
 20
3.054754990822975
 30
0.0
  0
VERTEX
  5
C0
  8
0
 10
62.94349705842922
 20
2.670445557449605
 30
0.0
 42
-1.0
  0
VERTEX
  5
C1
  8
0
 10
62.76616358613909
 20
2.493112085160347
 30
0.0
  0
VERTEX
  5
C2
  8
0
 10
54.08129785387593
 20
2.493112085166572
 30
0.0
 42
0.4142135623730953
  0
VERTEX
  5
C3
  8
0
 10
55.21180966489823
 20
1.362600274143389
 30
0.0
  0
VERTEX
  5
C4
  8
0
 10
70.84736378529475
 20
1.362600274135616
 30
0.0
 42
0.4142135623734363
  0
VERTEX
  5
C5
  8
0
 10
71.97787559631868
 20
2.49311208516022
 30
0.0
  0
VERTEX
  5
C6
  8
0
 10
71.9778755963157
 20
3.232088463112972
 30
0.0
 42
0.045682179945436
  0
VERTEX
  5
C7
  8
0
 10
71.92799930580482
 20
3.776854558523836
 30
0.0
 42
-0.0915554233848804
  0
VERTEX
  5
C8
  8
0
 10
71.92799930583153
 20
21.20936961179241
 30
0.0
 42
0.0456821799454285
  0
VERTEX
  5
C9
  8
0
 10
71.97787559634303
 20
21.75413570720745
 30
0.0
  0
VERTEX
  5
CA
  8
0
 10
71.97787559634295
 20
22.49311208516022
 30
0.0
 42
0.4142135623731095
  0
VERTEX
  5
CB
  8
0
 10
70.84736378529516
 20
23.62362389618373
 30
0.0
  0
VERTEX
  5
CC
  8
0
 10
55.21180966490354
 20
23.62362389618291
 30
0.0
 42
0.4142135623731206
  0
VERTEX
  5
CD
  8
0
 10
54.08129785388069
 20
22.49311208516018
 30
0.0
  0
VERTEX
  5
CE
  8
0
 10
62.76616358613916
 20
22.49311208516022
 30
0.0
 42
-1.0
  0
VERTEX
  5
CF
  8
0
 10
62.94349705842923
 20
22.3157786128709
 30
0.0
  0
VERTEX
  5
D0
  8
0
 10
62.94349705843085
 20
21.93146917949752
 30
0.0
 42
-1.0
  0
VERTEX
  5
D1
  8
0
 10
62.76616358614153
 20
21.75413570720745
 30
0.0
  0
VERTEX
  5
D2
  8
0
 10
54.0812978538799
 20
21.75413570720747
 30
0.0
 42
0.414213562373099
  0
VERTEX
  5
D3
  8
0
 10
55.21180966490356
 20
20.62362389618383
 30
0.0
  0
SEQEND
  5
3D9
  8
0
  0
POLYLINE
  5
71
  8
0
 66
     1
 10
0.0
 20
0.0
 30
0.0
 70
     1
  0
VERTEX
  5
D4
  8
0
 10
29.72673188743745
 20
15.17028396190818
 30
0.0
 42
-0.4142135623730929
  0
VERTEX
  5
D5
  8
0
 10
28.69905261173763
 20
16.39502443075245
 30
0.0
  0
VERTEX
  5
D6
  8
0
 10
29.81991683525141
 20
29.20656113014266
 30
0.0
 42
-0.2914734195860877
  0
VERTEX
  5
D7
  8
0
 10
31.1282659447797
 20
30.91163488622212
 30
0.0
  0
VERTEX
  5
D8
  8
0
 10
42.60661669327513
 20
35.08941289717107
 30
0.0
 42
0.3152987888789834
  0
VERTEX
  5
D9
  8
0
 10
43.35047069265869
 20
36.15174650370297
 30
0.0
  0
VERTEX
  5
DA
  8
0
 10
43.3504706926569
 20
36.9381487394719
 30
0.0
 42
0.5205670505510268
  0
VERTEX
  5
DB
  8
0
 10
41.83330106999563
 20
38.00048234599955
 30
0.0
  0
VERTEX
  5
DC
  8
0
 10
35.97628834469452
 20
35.86870405227166
 30
0.0
  0
VERTEX
  5
DD
  8
0
 10
36.42866694007407
 20
34.6258040764217
 30
0.0
 42
-1.0
  0
VERTEX
  5
DE
  8
0
 10
36.32267960435406
 20
34.39851350148377
 30
0.0
  0
VERTEX
  5
DF
  8
0
 10
35.9615468657147
 20
34.26707193400001
 30
0.0
 42
-1.0
  0
VERTEX
  5
E0
  8
0
 10
35.73425629077677
 20
34.37305926972002
 30
0.0
  0
VERTEX
  5
E1
  8
0
 10
35.28187769539721
 20
35.61595924556998
 30
0.0
  0
VERTEX
  5
E2
  8
0
 10
34.24026172145125
 20
35.23684203551745
 30
0.0
  0
VERTEX
  5
E3
  8
0
 10
34.69264031683082
 20
33.99394205966749
 30
0.0
 42
-1.0
  0
VERTEX
  5
E4
  8
0
 10
34.58665298111081
 20
33.76665148472956
 30
0.0
  0
VERTEX
  5
E5
  8
0
 10
34.22552024247144
 20
33.6352099172458
 30
0.0
 42
-1.0
  0
VERTEX
  5
E6
  8
0
 10
33.99822966753351
 20
33.7411972529658
 30
0.0
  0
VERTEX
  5
E7
  8
0
 10
33.54585107215394
 20
34.98409722881578
 30
0.0
  0
VERTEX
  5
E8
  8
0
 10
32.07515587229015
 20
34.44880795238721
 30
0.0
 42
-0.0655434628146685
  0
VERTEX
  5
E9
  8
0
 10
28.25218986365383
 20
33.60127679280261
 30
0.0
  0
VERTEX
  5
EA
  8
0
 10
20.99380502754023
 20
32.96625040411753
 30
0.0
 42
-0.0874886635259235
  0
VERTEX
  5
EB
  8
0
 10
16.84210757333726
 20
33.32947686574028
 30
0.0
  0
VERTEX
  5
EC
  8
0
 10
6.374462470008964
 20
36.13427391780731
 30
0.0
 42
0.4142135623730917
  0
VERTEX
  5
ED
  8
0
 10
4.989873927411963
 20
35.33488135001788
 30
0.0
  0
VERTEX
  5
EE
  8
0
 10
4.798612766918467
 20
34.62108498153516
 30
0.0
 42
0.4142135623730975
  0
VERTEX
  5
EF
  8
0
 10
5.598005334707764
 20
33.2364964389384
 30
0.0
  0
VERTEX
  5
F0
  8
0
 10
7.403792258383618
 20
32.75263729104112
 30
0.0
  0
VERTEX
  5
F1
  8
0
 10
7.746123546071977
 20
34.03023504972586
 30
0.0
 42
-1.0
  0
VERTEX
  5
F2
  8
0
 10
7.963311806784567
 20
34.15562875051374
 30
0.0
  0
VERTEX
  5
F3
  8
0
 10
8.334526213766718
 20
34.05616214994495
 30
0.0
 42
-1.0
  0
VERTEX
  5
F4
  8
0
 10
8.459919914554598
 20
33.83897388923236
 30
0.0
  0
VERTEX
  5
F5
  8
0
 10
8.117588626866251
 20
32.56137613054764
 30
0.0
  0
VERTEX
  5
F6
  8
0
 10
9.188283179589973
 20
32.27448438980747
 30
0.0
  0
VERTEX
  5
F7
  8
0
 10
9.530614467278332
 20
33.55208214849215
 30
0.0
 42
-1.0
  0
VERTEX
  5
F8
  8
0
 10
9.747802727990921
 20
33.67747584928002
 30
0.0
  0
VERTEX
  5
F9
  8
0
 10
10.11901713497307
 20
33.57800924871123
 30
0.0
 42
-1.0
  0
VERTEX
  5
FA
  8
0
 10
10.24441083576095
 20
33.36082098799864
 30
0.0
  0
VERTEX
  5
FB
  8
0
 10
9.902079548072592
 20
32.08322322931398
 30
0.0
  0
VERTEX
  5
FC
  8
0
 10
10.97277410079636
 20
31.79633148857381
 30
0.0
  0
VERTEX
  5
FD
  8
0
 10
11.31510538848467
 20
33.07392924725843
 30
0.0
 42
-1.0
  0
VERTEX
  5
FE
  8
0
 10
11.53229364919726
 20
33.1993229480463
 30
0.0
  0
VERTEX
  5
FF
  8
0
 10
11.90350805617943
 20
33.09985634747751
 30
0.0
 42
-1.0
  0
VERTEX
  5
100
  8
0
 10
12.0289017569673
 20
32.88266808676492
 30
0.0
  0
VERTEX
  5
101
  8
0
 10
11.68657046927895
 20
31.60507032808033
 30
0.0
  0
VERTEX
  5
102
  8
0
 10
12.75726502200271
 20
31.31817858734016
 30
0.0
  0
VERTEX
  5
103
  8
0
 10
13.099596309691
 20
32.59577634602472
 30
0.0
 42
-1.0
  0
VERTEX
  5
104
  8
0
 10
13.31678457040359
 20
32.7211700468126
 30
0.0
  0
VERTEX
  5
105
  8
0
 10
13.68799897738571
 20
32.62170344624381
 30
0.0
 42
-1.0
  0
VERTEX
  5
106
  8
0
 10
13.81339267817359
 20
32.40451518553122
 30
0.0
  0
VERTEX
  5
107
  8
0
 10
13.4710613904853
 20
31.12691742684669
 30
0.0
  0
VERTEX
  5
108
  8
0
 10
14.54175594320914
 20
30.84002568610649
 30
0.0
  0
VERTEX
  5
109
  8
0
 10
14.88408723089739
 20
32.11762344479099
 30
0.0
 42
-1.0
  0
VERTEX
  5
10A
  8
0
 10
15.10127549160998
 20
32.24301714557888
 30
0.0
  0
VERTEX
  5
10B
  8
0
 10
15.47248989859201
 20
32.14355054501011
 30
0.0
 42
-1.0
  0
VERTEX
  5
10C
  8
0
 10
15.5978835993799
 20
31.92636228429753
 30
0.0
  0
VERTEX
  5
10D
  8
0
 10
15.25555231169166
 20
30.64876452561305
 30
0.0
  0
VERTEX
  5
10E
  8
0
 10
16.06565043803624
 20
30.43169938687132
 30
0.0
 42
0.0050574561754043
  0
VERTEX
  5
10F
  8
0
 10
16.35952996383351
 20
30.35613206098843
 30
0.0
  0
VERTEX
  5
110
  8
0
 10
16.64421698005717
 20
31.64779767031583
 30
0.0
 42
-1.0
  0
VERTEX
  5
111
  8
0
 10
16.85556283238305
 20
31.78280600892233
 30
0.0
  0
VERTEX
  5
112
  8
0
 10
17.23086474562335
 20
31.70008832944601
 30
0.0
 42
-1.0
  0
VERTEX
  5
113
  8
0
 10
17.36587308422986
 20
31.48874247712014
 30
0.0
  0
VERTEX
  5
114
  8
0
 10
17.08118606800619
 20
30.19707686779224
 30
0.0
 42
0.0201022471403453
  0
VERTEX
  5
115
  8
0
 10
18.27291447983023
 20
30.01440341580531
 30
0.0
  0
VERTEX
  5
116
  8
0
 10
18.38819246345738
 20
31.33203679805399
 30
0.0
 42
-1.0
  0
VERTEX
  5
117
  8
0
 10
18.58030675883764
 20
31.49323983245218
 30
0.0
  0
VERTEX
  5
118
  8
0
 10
18.96315377879042
 20
31.4597450583425
 30
0.0
 42
-1.0
  0
VERTEX
  5
119
  8
0
 10
19.12435681318865
 20
31.26763076296226
 30
0.0
  0
VERTEX
  5
11A
  8
0
 10
19.00907882956203
 20
29.94999738071349
 30
0.0
 42
0.0200463679567098
  0
VERTEX
  5
11B
  8
0
 10
20.21107224288868
 20
29.92289497954349
 30
0.0
  0
VERTEX
  5
11C
  8
0
 10
20.1609180857763
 20
31.24461026811725
 30
0.0
 42
-1.0
  0
VERTEX
  5
11D
  8
0
 10
20.33139971961714
 20
31.42854050845742
 30
0.0
  0
VERTEX
  5
11E
  8
0
 10
20.71543276422137
 20
31.44311312770602
 30
0.0
 42
-1.0
  0
VERTEX
  5
11F
  8
0
 10
20.89936300456155
 20
31.27263149386517
 30
0.0
  0
VERTEX
  5
120
  8
0
 10
20.94939805667451
 20
29.95405498595844
 30
0.0
 42
0.0051132029994231
  0
VERTEX
  5
121
  8
0
 10
21.25527225578973
 20
29.97766630984287
 30
0.0
  0
VERTEX
  5
122
  8
0
 10
22.09061134452274
 20
30.05074901030873
 30
0.0
  0
VERTEX
  5
123
  8
0
 10
21.97533336088971
 20
31.36838239255718
 30
0.0
 42
-1.0
  0
VERTEX
  5
124
  8
0
 10
22.13653639528703
 20
31.56049668793818
 30
0.0
  0
VERTEX
  5
125
  8
0
 10
22.5193834152401
 20
31.5939914620497
 30
0.0
 42
-1.0
  0
VERTEX
  5
126
  8
0
 10
22.7114977106211
 20
31.43278842765239
 30
0.0
  0
VERTEX
  5
127
  8
0
 10
22.82677569425414
 20
30.11515504540388
 30
0.0
  0
VERTEX
  5
128
  8
0
 10
23.35761823094892
 20
30.16159774948341
 30
0.0
 42
-0.032344754723449
  0
VERTEX
  5
129
  8
0
 10
23.74525063931324
 20
30.1703595390411
 30
0.0
  0
VERTEX
  5
12A
  8
0
 10
23.9632110579474
 20
31.47494376377898
 30
0.0
 42
-1.0
  0
VERTEX
  5
12B
  8
0
 10
24.16734272883241
 20
31.62063035111747
 30
0.0
  0
VERTEX
  5
12C
  8
0
 10
24.54639823049863
 20
31.55730052214812
 30
0.0
 42
-1.0
  0
VERTEX
  5
12D
  8
0
 10
24.69208481783713
 20
31.35316885126313
 30
0.0
  0
VERTEX
  5
12E
  8
0
 10
24.47412439920311
 20
30.04858462652496
 30
0.0
 42
-0.0620072674113373
  0
VERTEX
  5
12F
  8
0
 10
25.15307594906278
 20
29.75116671059676
 30
0.0
  0
VERTEX
  5
130
  8
0
 10
25.9642425538758
 20
30.79589417877274
 30
0.0
 42
-1.0
  0
VERTEX
  5
131
  8
0
 10
26.21306728276247
 20
30.82720831428876
 30
0.0
  0
VERTEX
  5
132
  8
0
 10
26.51661969972639
 20
30.59151853781431
 30
0.0
 42
-1.0
  0
VERTEX
  5
133
  8
0
 10
26.54793383524251
 20
30.34269380892765
 30
0.0
  0
VERTEX
  5
134
  8
0
 10
25.73676723043039
 20
29.29796634075107
 30
0.0
 42
-0.0620072674114675
  0
VERTEX
  5
135
  8
0
 10
26.19313645924126
 20
28.71387751979243
 30
0.0
  0
VERTEX
  5
136
  8
0
 10
27.40303703817294
 20
29.24828123667853
 30
0.0
 42
-1.0
  0
VERTEX
  5
137
  8
0
 10
27.63690062436584
 20
29.15771554868558
 30
0.0
  0
VERTEX
  5
138
  8
0
 10
27.79217512880613
 20
28.80617100122274
 30
0.0
 42
-1.0
  0
VERTEX
  5
139
  8
0
 10
27.7016094408132
 20
28.57230741502984
 30
0.0
  0
VERTEX
  5
13A
  8
0
 10
26.49170886188028
 20
28.03790369814291
 30
0.0
 42
-0.0634655589151237
  0
VERTEX
  5
13B
  8
0
 10
26.61681297788253
 20
27.28976006297136
 30
0.0
  0
VERTEX
  5
13C
  8
0
 10
27.93747738264847
 20
27.21701204920648
 30
0.0
 42
-1.0
  0
VERTEX
  5
13D
  8
0
 10
28.10478890230012
 20
27.03019348433538
 30
0.0
  0
VERTEX
  5
13E
  8
0
 10
28.08358987296982
 20
26.64534719090324
 30
0.0
 42
-1.0
  0
VERTEX
  5
13F
  8
0
 10
27.8967713080986
 20
26.47803567125174
 30
0.0
  0
VERTEX
  5
140
  8
0
 10
26.57610690333185
 20
26.55078368501861
 30
0.0
  0
VERTEX
  5
141
  8
0
 10
26.47949785069419
 20
25.44653716042102
 30
0.0
  0
VERTEX
  5
142
  8
0
 10
27.79713123294251
 20
25.33125917679398
 30
0.0
 42
-1.0
  0
VERTEX
  5
143
  8
0
 10
27.95833426734072
 20
25.13914488141373
 30
0.0
  0
VERTEX
  5
144
  8
0
 10
27.924839493231
 20
24.75629786146023
 30
0.0
 42
-1.0
  0
VERTEX
  5
145
  8
0
 10
27.73272519785075
 20
24.59509482706202
 30
0.0
  0
VERTEX
  5
146
  8
0
 10
26.41509181560239
 20
24.71037281068897
 30
0.0
  0
VERTEX
  5
147
  8
0
 10
26.31848276296473
 20
23.60612628609149
 30
0.0
  0
VERTEX
  5
148
  8
0
 10
27.6361161452131
 20
23.49084830246443
 30
0.0
 42
-1.0
  0
VERTEX
  5
149
  8
0
 10
27.79731917961131
 20
23.29873400708418
 30
0.0
  0
VERTEX
  5
14A
  8
0
 10
27.76382440550158
 20
22.91588698713067
 30
0.0
 42
-1.0
  0
VERTEX
  5
14B
  8
0
 10
27.57171011012133
 20
22.75468395273246
 30
0.0
  0
VERTEX
  5
14C
  8
0
 10
26.25407672787294
 20
22.86996193635948
 30
0.0
  0
VERTEX
  5
14D
  8
0
 10
26.15746767523528
 20
21.76571541176192
 30
0.0
  0
VERTEX
  5
14E
  8
0
 10
27.47510105748371
 20
21.65043742813488
 30
0.0
 42
-1.0
  0
VERTEX
  5
14F
  8
0
 10
27.63630409188191
 20
21.45832313275463
 30
0.0
  0
VERTEX
  5
150
  8
0
 10
27.60280931777218
 20
21.07547611280113
 30
0.0
 42
-1.0
  0
VERTEX
  5
151
  8
0
 10
27.41069502239194
 20
20.91427307840291
 30
0.0
  0
VERTEX
  5
152
  8
0
 10
26.09306164014347
 20
21.0295510620298
 30
0.0
  0
VERTEX
  5
153
  8
0
 10
25.99645258750581
 20
19.9253045374324
 30
0.0
  0
VERTEX
  5
154
  8
0
 10
27.3140859697543
 20
19.81002655380539
 30
0.0
 42
-1.0
  0
VERTEX
  5
155
  8
0
 10
27.4752890041525
 20
19.61791225842513
 30
0.0
  0
VERTEX
  5
156
  8
0
 10
27.44179423004277
 20
19.23506523847163
 30
0.0
 42
-1.0
  0
VERTEX
  5
157
  8
0
 10
27.24967993466251
 20
19.07386220407344
 30
0.0
  0
VERTEX
  5
158
  8
0
 10
25.93204655241405
 20
19.18914018770061
 30
0.0
  0
VERTEX
  5
159
  8
0
 10
25.83543749977636
 20
18.08489366310291
 30
0.0
  0
VERTEX
  5
15A
  8
0
 10
27.15307088202488
 20
17.96961567947587
 30
0.0
 42
-1.0
  0
VERTEX
  5
15B
  8
0
 10
27.31427391642309
 20
17.77750138409561
 30
0.0
  0
VERTEX
  5
15C
  8
0
 10
27.28077914231337
 20
17.39465436414212
 30
0.0
 42
-1.0
  0
VERTEX
  5
15D
  8
0
 10
27.08866484693312
 20
17.23345132974391
 30
0.0
  0
VERTEX
  5
15E
  8
0
 10
25.77103146468457
 20
17.3487293133709
 30
0.0
  0
VERTEX
  5
15F
  8
0
 10
25.67442241204691
 20
16.24448278877339
 30
0.0
  0
VERTEX
  5
160
  8
0
 10
26.99205579429547
 20
16.12920480514654
 30
0.0
 42
-1.0
  0
VERTEX
  5
161
  8
0
 10
27.15325882869369
 20
15.93709050976629
 30
0.0
  0
VERTEX
  5
162
  8
0
 10
27.11976405458398
 20
15.55424348981295
 30
0.0
 42
-1.0
  0
VERTEX
  5
163
  8
0
 10
26.92764975920368
 20
15.39304045541479
 30
0.0
  0
VERTEX
  5
164
  8
0
 10
25.6100163769552
 20
15.5083184390425
 30
0.0
  0
VERTEX
  5
165
  8
0
 10
25.51340732431748
 20
14.40407191444449
 30
0.0
  0
VERTEX
  5
166
  8
0
 10
34.33674865942827
 20
13.63212957322233
 30
0.0
 42
-1.0
  0
VERTEX
  5
167
  8
0
 10
34.49795169382647
 20
13.44001527784206
 30
0.0
  0
VERTEX
  5
168
  8
0
 10
34.46445691971683
 20
13.0571682578897
 30
0.0
 42
-1.0
  0
VERTEX
  5
169
  8
0
 10
34.27234262433658
 20
12.89596522349149
 30
0.0
  0
VERTEX
  5
16A
  8
0
 10
25.44900128922569
 20
13.66790756471237
 30
0.0
 42
0.4142135623730659
  0
VERTEX
  5
16B
  8
0
 10
26.47668056492522
 20
12.44316709586855
 30
0.0
  0
VERTEX
  5
16C
  8
0
 10
42.12142828505768
 20
11.07442902666956
 30
0.0
 42
0.4400105308911606
  0
VERTEX
  5
16D
  8
0
 10
43.35047069265352
 20
12.20063889894161
 30
0.0
  0
VERTEX
  5
16E
  8
0
 10
43.35047069265353
 20
12.94243804660639
 30
0.0
 42
0.3888787318536409
  0
VERTEX
  5
16F
  8
0
 10
42.31848947820211
 20
14.06864791887845
 30
0.0
  0
SEQEND
  5
3DA
  8
0
  0
POLYLINE
  5
72
  8
0
 66
     1
 10
0.0
 20
0.0
 30
0.0
 70
     1
  0
VERTEX
  5
170
  8
0
 10
2.500000000007255
 20
2.806131094634897
 30
0.0
  0
VERTEX
  5
171
  8
0
 10
2.50000000001112
 20
2.421821661261645
 30
0.0
 42
1.0
  0
VERTEX
  5
172
  8
0
 10
2.677333472301895
 20
2.244488188973029
 30
0.0
  0
VERTEX
  5
173
  8
0
 10
4.000000000011667
 20
2.244488188975836
 30
0.0
 42
-0.4142135623728749
  0
VERTEX
  5
174
  8
0
 10
2.869488188992023
 20
1.113976377949072
 30
0.0
  0
VERTEX
  5
175
  8
0
 10
2.1305118110119
 20
1.113976377951658
 30
0.0
 42
-0.4142135623731095
  0
VERTEX
  5
176
  8
0
 10
0.9999999999883329
 20
2.244488188975154
 30
0.0
  0
VERTEX
  5
177
  8
0
 10
0.9999999999883613
 20
22.24448818897525
 30
0.0
 42
-0.4142135623734358
  0
VERTEX
  5
178
  8
0
 10
2.130511811012312
 20
23.37499999999987
 30
0.0
  0
VERTEX
  5
179
  8
0
 10
2.869488188965178
 20
23.37499999999996
 30
0.0
 42
-0.4142135623731809
  0
VERTEX
  5
17A
  8
0
 10
3.999999999988901
 20
22.24448818897591
 30
0.0
  0
VERTEX
  5
17B
  8
0
 10
2.677333472277513
 20
22.24448818897533
 30
0.0
 42
1.0
  0
VERTEX
  5
17C
  8
0
 10
2.499999999987011
 20
22.06715471668644
 30
0.0
  0
VERTEX
  5
17D
  8
0
 10
2.499999999983345
 20
21.68284528331304
 30
0.0
 42
1.0
  0
VERTEX
  5
17E
  8
0
 10
2.677333472272194
 20
21.5055118110225
 30
0.0
  0
VERTEX
  5
17F
  8
0
 10
3.999999999988816
 20
21.5055118110225
 30
0.0
  0
VERTEX
  5
180
  8
0
 10
3.999999999985107
 20
2.983464566926713
 30
0.0
  0
VERTEX
  5
181
  8
0
 10
2.677333472295981
 20
2.98346456692556
 30
0.0
 42
1.0
  0
SEQEND
  5
3DB
  8
0
  0
POLYLINE
  5
73
  8
0
 66
     1
 10
0.0
 20
0.0
 30
0.0
 70
     1
  0
VERTEX
  5
182
  8
0
 10
75.526854558539
 20
4.792715224816298
 30
0.0
 42
0.0915554233848792
  0
VERTEX
  5
183
  8
0
 10
92.95936961180759
 20
4.792715224789596
 30
0.0
 42
-0.0456821799454368
  0
VERTEX
  5
184
  8
0
 10
93.50413570721842
 20
4.842591515300491
 30
0.0
  0
VERTEX
  5
185
  8
0
 10
94.24311208517118
 20
4.842591515303475
 30
0.0
 42
-0.4142135623733508
  0
VERTEX
  5
186
  8
0
 10
95.37362389619578
 20
3.712079704279525
 30
0.0
  0
VERTEX
  5
187
  8
0
 10
95.3736238961959
 20
2.97310332632666
 30
0.0
 42
-0.4142135623731796
  0
VERTEX
  5
188
  8
0
 10
94.24311208517183
 20
1.842591515302966
 30
0.0
  0
VERTEX
  5
189
  8
0
 10
94.24311208517126
 20
3.165258043014327
 30
0.0
 42
1.0
  0
VERTEX
  5
18A
  8
0
 10
94.06577861288237
 20
3.342591515304826
 30
0.0
  0
VERTEX
  5
18B
  8
0
 10
93.681469179509
 20
3.342591515308507
 30
0.0
 42
1.0
  0
VERTEX
  5
18C
  8
0
 10
93.50413570721848
 20
3.165258043019628
 30
0.0
  0
VERTEX
  5
18D
  8
0
 10
93.50413570721888
 20
1.842591515300351
 30
0.0
 42
-0.0915554233848651
  0
VERTEX
  5
18E
  8
0
 10
74.98208846312393
 20
1.842591515327778
 30
0.0
  0
VERTEX
  5
18F
  8
0
 10
74.98208846312174
 20
3.165258042995938
 30
0.0
 42
1.0
  0
VERTEX
  5
190
  8
0
 10
74.80475499083101
 20
3.342591515284576
 30
0.0
  0
VERTEX
  5
191
  8
0
 10
74.42044555745771
 20
3.342591515280739
 30
0.0
 42
1.0
  0
VERTEX
  5
192
  8
0
 10
74.24311208516907
 20
3.165258042989941
 30
0.0
  0
VERTEX
  5
193
  8
0
 10
74.24311208517186
 20
1.842591515280172
 30
0.0
 42
-0.4142135623739071
  0
VERTEX
  5
194
  8
0
 10
73.1126002741451
 20
2.973103326299829
 30
0.0
  0
VERTEX
  5
195
  8
0
 10
73.11260027412344
 20
3.71207970427998
 30
0.0
 42
-0.4142135623730951
  0
VERTEX
  5
196
  8
0
 10
74.2431120851712
 20
4.842591515327733
 30
0.0
  0
VERTEX
  5
197
  8
0
 10
74.98208846312393
 20
4.842591515327804
 30
0.0
 42
-0.0456821799454306
  0
SEQEND
  5
3DC
  8
0
  0
POLYLINE
  5
74
  8
0
 66
     1
 10
0.0
 20
0.0
 30
0.0
 70
     1
  0
VERTEX
  5
198
  8
0
 10
52.53374247337925
 20
30.37417524013473
 30
0.0
 42
0.0915554233848792
  0
VERTEX
  5
199
  8
0
 10
69.96625752664804
 20
30.37417524010803
 30
0.0
 42
-0.0456821799454368
  0
VERTEX
  5
19A
  8
0
 10
70.51102362205887
 20
30.42405153061893
 30
0.0
  0
VERTEX
  5
19B
  8
0
 10
71.25000000001162
 20
30.42405153062191
 30
0.0
 42
-0.4142135623733508
  0
VERTEX
  5
19C
  8
0
 10
72.38051181103623
 20
29.29353971959796
 30
0.0
  0
VERTEX
  5
19D
  8
0
 10
72.38051181103634
 20
28.55456334164509
 30
0.0
 42
-0.4142135623731796
  0
VERTEX
  5
19E
  8
0
 10
71.25000000001228
 20
27.4240515306214
 30
0.0
  0
VERTEX
  5
19F
  8
0
 10
71.25000000001171
 20
28.74671805833276
 30
0.0
 42
1.0
  0
VERTEX
  5
1A0
  8
0
 10
71.07266652772282
 20
28.92405153062326
 30
0.0
  0
VERTEX
  5
1A1
  8
0
 10
70.68835709434944
 20
28.92405153062694
 30
0.0
 42
1.0
  0
VERTEX
  5
1A2
  8
0
 10
70.51102362205893
 20
28.74671805833806
 30
0.0
  0
VERTEX
  5
1A3
  8
0
 10
70.51102362205933
 20
27.42405153061878
 30
0.0
 42
-0.0915554233848651
  0
VERTEX
  5
1A4
  8
0
 10
51.98897637796418
 20
27.42405153064621
 30
0.0
  0
VERTEX
  5
1A5
  8
0
 10
51.98897637796199
 20
28.74671805831437
 30
0.0
 42
1.0
  0
VERTEX
  5
1A6
  8
0
 10
51.81164290567125
 20
28.92405153060301
 30
0.0
  0
VERTEX
  5
1A7
  8
0
 10
51.42733347229794
 20
28.92405153059917
 30
0.0
 42
1.0
  0
VERTEX
  5
1A8
  8
0
 10
51.25000000000932
 20
28.74671805830837
 30
0.0
  0
VERTEX
  5
1A9
  8
0
 10
51.25000000001209
 20
27.4240515305986
 30
0.0
 42
-0.4142135623739071
  0
VERTEX
  5
1AA
  8
0
 10
50.11948818898532
 20
28.55456334161826
 30
0.0
  0
VERTEX
  5
1AB
  8
0
 10
50.11948818896366
 20
29.29353971959841
 30
0.0
 42
-0.4142135623730951
  0
VERTEX
  5
1AC
  8
0
 10
51.25000000001143
 20
30.42405153064617
 30
0.0
  0
VERTEX
  5
1AD
  8
0
 10
51.98897637796418
 20
30.42405153064624
 30
0.0
 42
-0.0456821799454306
  0
SEQEND
  5
3DD
  8
0
  0
POLYLINE
  5
75
  8
0
 66
     1
 10
0.0
 20
0.0
 30
0.0
 70
     1
  0
VERTEX
  5
1AE
  8
0
 10
2.500000000007258
 20
26.31715471668578
 30
0.0
  0
VERTEX
  5
1AF
  8
0
 10
2.500000000011131
 20
25.93284528331254
 30
0.0
 42
1.0
  0
VERTEX
  5
1B0
  8
0
 10
2.677333472301906
 20
25.75551181102393
 30
0.0
  0
VERTEX
  5
1B1
  8
0
 10
4.000000000011667
 20
25.75551181102671
 30
0.0
 42
-0.4142135623728749
  0
VERTEX
  5
1B2
  8
0
 10
2.869488188992037
 20
24.62499999999996
 30
0.0
  0
VERTEX
  5
1B3
  8
0
 10
2.130511811011914
 20
24.62500000000254
 30
0.0
 42
-0.4142135623731095
  0
VERTEX
  5
1B4
  8
0
 10
0.9999999999883329
 20
25.75551181102605
 30
0.0
  0
VERTEX
  5
1B5
  8
0
 10
0.9999999999883613
 20
45.75551181102622
 30
0.0
 42
-0.4142135623734358
  0
VERTEX
  5
1B6
  8
0
 10
2.130511811012312
 20
46.88602362205084
 30
0.0
  0
VERTEX
  5
1B7
  8
0
 10
2.869488188965178
 20
46.88602362205093
 30
0.0
 42
-0.4142135623731809
  0
VERTEX
  5
1B8
  8
0
 10
3.999999999988901
 20
45.75551181102688
 30
0.0
  0
VERTEX
  5
1B9
  8
0
 10
2.677333472277513
 20
45.7555118110263
 30
0.0
 42
1.0
  0
VERTEX
  5
1BA
  8
0
 10
2.499999999987011
 20
45.57817833873742
 30
0.0
  0
VERTEX
  5
1BB
  8
0
 10
2.499999999983345
 20
45.19386890536398
 30
0.0
 42
1.0
  0
VERTEX
  5
1BC
  8
0
 10
2.677333472272194
 20
45.01653543307344
 30
0.0
  0
VERTEX
  5
1BD
  8
0
 10
3.999999999988816
 20
45.01653543307344
 30
0.0
  0
VERTEX
  5
1BE
  8
0
 10
3.999999999985121
 20
26.4944881889776
 30
0.0
  0
VERTEX
  5
1BF
  8
0
 10
2.677333472295982
 20
26.49448818897645
 30
0.0
 42
1.0
  0
SEQEND
  5
3DE
  8
0
  0
POLYLINE
  5
76
  8
0
 66
     1
 10
0.0
 20
0.0
 30
0.0
 70
     1
  0
VERTEX
  5
1C0
  8
0
 10
75.526854558539
 20
9.042612163523835
 30
0.0
 42
0.0915554233848792
  0
VERTEX
  5
1C1
  8
0
 10
92.95936961180759
 20
9.042612163497132
 30
0.0
 42
-0.0456821799454368
  0
VERTEX
  5
1C2
  8
0
 10
93.50413570721842
 20
9.092488454008027
 30
0.0
  0
VERTEX
  5
1C3
  8
0
 10
94.24311208517118
 20
9.092488454011011
 30
0.0
 42
-0.4142135623733508
  0
VERTEX
  5
1C4
  8
0
 10
95.37362389619578
 20
7.961976642987061
 30
0.0
  0
VERTEX
  5
1C5
  8
0
 10
95.3736238961959
 20
7.223000265034194
 30
0.0
 42
-0.4142135623731796
  0
VERTEX
  5
1C6
  8
0
 10
94.24311208517183
 20
6.0924884540105
 30
0.0
  0
VERTEX
  5
1C7
  8
0
 10
94.24311208517126
 20
7.415154981721862
 30
0.0
 42
1.0
  0
VERTEX
  5
1C8
  8
0
 10
94.06577861288237
 20
7.592488454012361
 30
0.0
  0
VERTEX
  5
1C9
  8
0
 10
93.681469179509
 20
7.592488454016042
 30
0.0
 42
1.0
  0
VERTEX
  5
1CA
  8
0
 10
93.50413570721848
 20
7.415154981727163
 30
0.0
  0
VERTEX
  5
1CB
  8
0
 10
93.50413570721888
 20
6.092488454007885
 30
0.0
 42
-0.0915554233848651
  0
VERTEX
  5
1CC
  8
0
 10
74.98208846312393
 20
6.092488454035312
 30
0.0
  0
VERTEX
  5
1CD
  8
0
 10
74.98208846312174
 20
7.415154981703473
 30
0.0
 42
1.0
  0
VERTEX
  5
1CE
  8
0
 10
74.80475499083101
 20
7.592488453992111
 30
0.0
  0
VERTEX
  5
1CF
  8
0
 10
74.42044555745771
 20
7.592488453988274
 30
0.0
 42
1.0
  0
VERTEX
  5
1D0
  8
0
 10
74.24311208516907
 20
7.415154981697476
 30
0.0
  0
VERTEX
  5
1D1
  8
0
 10
74.24311208517186
 20
6.092488453987706
 30
0.0
 42
-0.4142135623739071
  0
VERTEX
  5
1D2
  8
0
 10
73.1126002741451
 20
7.223000265007364
 30
0.0
  0
VERTEX
  5
1D3
  8
0
 10
73.11260027412344
 20
7.961976642987516
 30
0.0
 42
-0.4142135623730951
  0
VERTEX
  5
1D4
  8
0
 10
74.2431120851712
 20
9.09248845403527
 30
0.0
  0
VERTEX
  5
1D5
  8
0
 10
74.98208846312393
 20
9.09248845403534
 30
0.0
 42
-0.0456821799454306
  0
SEQEND
  5
3DF
  8
0
  0
POLYLINE
  5
77
  8
0
 66
     1
 10
0.0
 20
0.0
 30
0.0
 70
     1
  0
VERTEX
  5
1D6
  8
0
 10
75.526854558539
 20
13.29250910223137
 30
0.0
 42
0.0915554233848792
  0
VERTEX
  5
1D7
  8
0
 10
92.95936961180759
 20
13.29250910220467
 30
0.0
 42
-0.0456821799454368
  0
VERTEX
  5
1D8
  8
0
 10
93.50413570721842
 20
13.34238539271556
 30
0.0
  0
VERTEX
  5
1D9
  8
0
 10
94.24311208517118
 20
13.34238539271855
 30
0.0
 42
-0.4142135623733508
  0
VERTEX
  5
1DA
  8
0
 10
95.37362389619578
 20
12.2118735816946
 30
0.0
  0
VERTEX
  5
1DB
  8
0
 10
95.3736238961959
 20
11.47289720374173
 30
0.0
 42
-0.4142135623731796
  0
VERTEX
  5
1DC
  8
0
 10
94.24311208517183
 20
10.34238539271804
 30
0.0
  0
VERTEX
  5
1DD
  8
0
 10
94.24311208517126
 20
11.6650519204294
 30
0.0
 42
1.0
  0
VERTEX
  5
1DE
  8
0
 10
94.06577861288237
 20
11.8423853927199
 30
0.0
  0
VERTEX
  5
1DF
  8
0
 10
93.681469179509
 20
11.84238539272358
 30
0.0
 42
1.0
  0
VERTEX
  5
1E0
  8
0
 10
93.50413570721848
 20
11.6650519204347
 30
0.0
  0
VERTEX
  5
1E1
  8
0
 10
93.50413570721888
 20
10.34238539271542
 30
0.0
 42
-0.0915554233848651
  0
VERTEX
  5
1E2
  8
0
 10
74.98208846312393
 20
10.34238539274285
 30
0.0
  0
VERTEX
  5
1E3
  8
0
 10
74.98208846312174
 20
11.66505192041101
 30
0.0
 42
1.0
  0
VERTEX
  5
1E4
  8
0
 10
74.80475499083101
 20
11.84238539269965
 30
0.0
  0
VERTEX
  5
1E5
  8
0
 10
74.42044555745771
 20
11.84238539269581
 30
0.0
 42
1.0
  0
VERTEX
  5
1E6
  8
0
 10
74.24311208516907
 20
11.66505192040501
 30
0.0
  0
VERTEX
  5
1E7
  8
0
 10
74.24311208517186
 20
10.34238539269524
 30
0.0
 42
-0.4142135623739071
  0
VERTEX
  5
1E8
  8
0
 10
73.1126002741451
 20
11.4728972037149
 30
0.0
  0
VERTEX
  5
1E9
  8
0
 10
73.11260027412344
 20
12.21187358169505
 30
0.0
 42
-0.4142135623730951
  0
VERTEX
  5
1EA
  8
0
 10
74.2431120851712
 20
13.34238539274281
 30
0.0
  0
VERTEX
  5
1EB
  8
0
 10
74.98208846312393
 20
13.34238539274288
 30
0.0
 42
-0.0456821799454306
  0
SEQEND
  5
3E0
  8
0
  0
POLYLINE
  5
78
  8
0
 66
     1
 10
0.0
 20
0.0
 30
0.0
 70
     1
  0
VERTEX
  5
1EC
  8
0
 10
75.526854558539
 20
17.54240604093892
 30
0.0
 42
0.0915554233848792
  0
VERTEX
  5
1ED
  8
0
 10
92.95936961180759
 20
17.54240604091222
 30
0.0
 42
-0.0456821799454368
  0
VERTEX
  5
1EE
  8
0
 10
93.50413570721842
 20
17.59228233142311
 30
0.0
  0
VERTEX
  5
1EF
  8
0
 10
94.24311208517118
 20
17.5922823314261
 30
0.0
 42
-0.4142135623733508
  0
VERTEX
  5
1F0
  8
0
 10
95.37362389619578
 20
16.46177052040213
 30
0.0
  0
VERTEX
  5
1F1
  8
0
 10
95.3736238961959
 20
15.72279414244927
 30
0.0
 42
-0.4142135623731796
  0
VERTEX
  5
1F2
  8
0
 10
94.24311208517183
 20
14.59228233142557
 30
0.0
  0
VERTEX
  5
1F3
  8
0
 10
94.24311208517126
 20
15.91494885913693
 30
0.0
 42
1.0
  0
VERTEX
  5
1F4
  8
0
 10
94.06577861288237
 20
16.09228233142743
 30
0.0
  0
VERTEX
  5
1F5
  8
0
 10
93.681469179509
 20
16.09228233143111
 30
0.0
 42
1.0
  0
VERTEX
  5
1F6
  8
0
 10
93.50413570721848
 20
15.91494885914224
 30
0.0
  0
VERTEX
  5
1F7
  8
0
 10
93.50413570721888
 20
14.59228233142296
 30
0.0
 42
-0.0915554233848651
  0
VERTEX
  5
1F8
  8
0
 10
74.98208846312393
 20
14.59228233145038
 30
0.0
  0
VERTEX
  5
1F9
  8
0
 10
74.98208846312174
 20
15.91494885911855
 30
0.0
 42
1.0
  0
VERTEX
  5
1FA
  8
0
 10
74.80475499083101
 20
16.09228233140718
 30
0.0
  0
VERTEX
  5
1FB
  8
0
 10
74.42044555745771
 20
16.09228233140335
 30
0.0
 42
1.0
  0
VERTEX
  5
1FC
  8
0
 10
74.24311208516907
 20
15.91494885911255
 30
0.0
  0
VERTEX
  5
1FD
  8
0
 10
74.24311208517186
 20
14.59228233140278
 30
0.0
 42
-0.4142135623739071
  0
VERTEX
  5
1FE
  8
0
 10
73.1126002741451
 20
15.72279414242244
 30
0.0
  0
VERTEX
  5
1FF
  8
0
 10
73.11260027412344
 20
16.46177052040259
 30
0.0
 42
-0.4142135623730951
  0
VERTEX
  5
200
  8
0
 10
74.2431120851712
 20
17.59228233145036
 30
0.0
  0
VERTEX
  5
201
  8
0
 10
74.98208846312393
 20
17.59228233145043
 30
0.0
 42
-0.0456821799454306
  0
SEQEND
  5
3E1
  8
0
  0
POLYLINE
  5
79
  8
0
 66
     1
 10
0.0
 20
0.0
 30
0.0
 70
     1
  0
VERTEX
  5
202
  8
0
 10
75.526854558539
 20
21.79230297964652
 30
0.0
 42
0.0915554233848792
  0
VERTEX
  5
203
  8
0
 10
92.95936961180759
 20
21.79230297961982
 30
0.0
 42
-0.0456821799454368
  0
VERTEX
  5
204
  8
0
 10
93.50413570721842
 20
21.84217927013071
 30
0.0
  0
VERTEX
  5
205
  8
0
 10
94.24311208517118
 20
21.8421792701337
 30
0.0
 42
-0.4142135623733508
  0
VERTEX
  5
206
  8
0
 10
95.37362389619578
 20
20.71166745910973
 30
0.0
  0
VERTEX
  5
207
  8
0
 10
95.3736238961959
 20
19.97269108115685
 30
0.0
 42
-0.4142135623731796
  0
VERTEX
  5
208
  8
0
 10
94.24311208517183
 20
18.84217927013314
 30
0.0
  0
VERTEX
  5
209
  8
0
 10
94.24311208517126
 20
20.16484579784453
 30
0.0
 42
1.0
  0
VERTEX
  5
20A
  8
0
 10
94.06577861288237
 20
20.34217927013503
 30
0.0
  0
VERTEX
  5
20B
  8
0
 10
93.681469179509
 20
20.34217927013871
 30
0.0
 42
1.0
  0
VERTEX
  5
20C
  8
0
 10
93.50413570721848
 20
20.16484579784983
 30
0.0
  0
VERTEX
  5
20D
  8
0
 10
93.50413570721888
 20
18.84217927013053
 30
0.0
 42
-0.0915554233848651
  0
VERTEX
  5
20E
  8
0
 10
74.98208846312393
 20
18.84217927015796
 30
0.0
  0
VERTEX
  5
20F
  8
0
 10
74.98208846312174
 20
20.16484579782614
 30
0.0
 42
1.0
  0
VERTEX
  5
210
  8
0
 10
74.80475499083101
 20
20.34217927011478
 30
0.0
  0
VERTEX
  5
211
  8
0
 10
74.42044555745771
 20
20.34217927011094
 30
0.0
 42
1.0
  0
VERTEX
  5
212
  8
0
 10
74.24311208516907
 20
20.16484579782014
 30
0.0
  0
VERTEX
  5
213
  8
0
 10
74.24311208517186
 20
18.84217927011035
 30
0.0
 42
-0.4142135623739071
  0
VERTEX
  5
214
  8
0
 10
73.1126002741451
 20
19.97269108113002
 30
0.0
  0
VERTEX
  5
215
  8
0
 10
73.11260027412344
 20
20.71166745911019
 30
0.0
 42
-0.4142135623730951
  0
VERTEX
  5
216
  8
0
 10
74.2431120851712
 20
21.84217927015796
 30
0.0
  0
VERTEX
  5
217
  8
0
 10
74.98208846312393
 20
21.84217927015803
 30
0.0
 42
-0.0456821799454306
  0
SEQEND
  5
3E2
  8
0
  0
POLYLINE
  5
7A
  8
0
 66
     1
 10
0.0
 20
0.0
 30
0.0
 70
     1
  0
VERTEX
  5
218
  8
0
 10
75.526854558539
 20
26.04219991835412
 30
0.0
 42
0.0915554233848792
  0
VERTEX
  5
219
  8
0
 10
92.95936961180759
 20
26.04219991832742
 30
0.0
 42
-0.0456821799454368
  0
VERTEX
  5
21A
  8
0
 10
93.50413570721842
 20
26.09207620883831
 30
0.0
  0
VERTEX
  5
21B
  8
0
 10
94.24311208517118
 20
26.0920762088413
 30
0.0
 42
-0.4142135623733508
  0
VERTEX
  5
21C
  8
0
 10
95.37362389619578
 20
24.96156439781733
 30
0.0
  0
VERTEX
  5
21D
  8
0
 10
95.3736238961959
 20
24.22258801986445
 30
0.0
 42
-0.4142135623731796
  0
VERTEX
  5
21E
  8
0
 10
94.24311208517183
 20
23.09207620884074
 30
0.0
  0
VERTEX
  5
21F
  8
0
 10
94.24311208517126
 20
24.41474273655212
 30
0.0
 42
1.0
  0
VERTEX
  5
220
  8
0
 10
94.06577861288237
 20
24.59207620884263
 30
0.0
  0
VERTEX
  5
221
  8
0
 10
93.681469179509
 20
24.59207620884631
 30
0.0
 42
1.0
  0
VERTEX
  5
222
  8
0
 10
93.50413570721848
 20
24.41474273655742
 30
0.0
  0
VERTEX
  5
223
  8
0
 10
93.50413570721888
 20
23.09207620883813
 30
0.0
 42
-0.0915554233848651
  0
VERTEX
  5
224
  8
0
 10
74.98208846312393
 20
23.09207620886556
 30
0.0
  0
VERTEX
  5
225
  8
0
 10
74.98208846312174
 20
24.41474273653373
 30
0.0
 42
1.0
  0
VERTEX
  5
226
  8
0
 10
74.80475499083101
 20
24.59207620882238
 30
0.0
  0
VERTEX
  5
227
  8
0
 10
74.42044555745771
 20
24.59207620881854
 30
0.0
 42
1.0
  0
VERTEX
  5
228
  8
0
 10
74.24311208516907
 20
24.41474273652774
 30
0.0
  0
VERTEX
  5
229
  8
0
 10
74.24311208517186
 20
23.09207620881795
 30
0.0
 42
-0.4142135623739071
  0
VERTEX
  5
22A
  8
0
 10
73.1126002741451
 20
24.22258801983762
 30
0.0
  0
VERTEX
  5
22B
  8
0
 10
73.11260027412344
 20
24.96156439781778
 30
0.0
 42
-0.4142135623730951
  0
VERTEX
  5
22C
  8
0
 10
74.2431120851712
 20
26.09207620886556
 30
0.0
  0
VERTEX
  5
22D
  8
0
 10
74.98208846312393
 20
26.09207620886563
 30
0.0
 42
-0.0456821799454306
  0
SEQEND
  5
3E3
  8
0
  0
POLYLINE
  5
7B
  8
0
 66
     1
 10
0.0
 20
0.0
 30
0.0
 70
     1
  0
VERTEX
  5
22E
  8
0
 10
75.526854558539
 20
30.29209685706171
 30
0.0
 42
0.0915554233848792
  0
VERTEX
  5
22F
  8
0
 10
92.95936961180759
 20
30.292096857035
 30
0.0
 42
-0.0456821799454368
  0
VERTEX
  5
230
  8
0
 10
93.50413570721842
 20
30.34197314754589
 30
0.0
  0
VERTEX
  5
231
  8
0
 10
94.24311208517118
 20
30.34197314754888
 30
0.0
 42
-0.4142135623733508
  0
VERTEX
  5
232
  8
0
 10
95.37362389619578
 20
29.21146133652491
 30
0.0
  0
VERTEX
  5
233
  8
0
 10
95.3736238961959
 20
28.47248495857203
 30
0.0
 42
-0.4142135623731796
  0
VERTEX
  5
234
  8
0
 10
94.24311208517183
 20
27.34197314754832
 30
0.0
  0
VERTEX
  5
235
  8
0
 10
94.24311208517126
 20
28.66463967525971
 30
0.0
 42
1.0
  0
VERTEX
  5
236
  8
0
 10
94.06577861288237
 20
28.84197314755022
 30
0.0
  0
VERTEX
  5
237
  8
0
 10
93.681469179509
 20
28.84197314755389
 30
0.0
 42
1.0
  0
VERTEX
  5
238
  8
0
 10
93.50413570721848
 20
28.66463967526502
 30
0.0
  0
VERTEX
  5
239
  8
0
 10
93.50413570721888
 20
27.34197314754571
 30
0.0
 42
-0.0915554233848651
  0
VERTEX
  5
23A
  8
0
 10
74.98208846312393
 20
27.34197314757314
 30
0.0
  0
VERTEX
  5
23B
  8
0
 10
74.98208846312174
 20
28.66463967524132
 30
0.0
 42
1.0
  0
VERTEX
  5
23C
  8
0
 10
74.80475499083101
 20
28.84197314752996
 30
0.0
  0
VERTEX
  5
23D
  8
0
 10
74.42044555745771
 20
28.84197314752612
 30
0.0
 42
1.0
  0
VERTEX
  5
23E
  8
0
 10
74.24311208516907
 20
28.66463967523532
 30
0.0
  0
VERTEX
  5
23F
  8
0
 10
74.24311208517186
 20
27.34197314752553
 30
0.0
 42
-0.4142135623739071
  0
VERTEX
  5
240
  8
0
 10
73.1126002741451
 20
28.4724849585452
 30
0.0
  0
VERTEX
  5
241
  8
0
 10
73.11260027412344
 20
29.21146133652537
 30
0.0
 42
-0.4142135623730951
  0
VERTEX
  5
242
  8
0
 10
74.2431120851712
 20
30.34197314757315
 30
0.0
  0
VERTEX
  5
243
  8
0
 10
74.98208846312393
 20
30.34197314757321
 30
0.0
 42
-0.0456821799454306
  0
SEQEND
  5
3E4
  8
0
  0
POLYLINE
  5
7C
  8
0
 66
     1
 10
0.0
 20
0.0
 30
0.0
 70
     1
  0
VERTEX
  5
244
  8
0
 10
75.526854558539
 20
34.54199379576932
 30
0.0
 42
0.0915554233848792
  0
VERTEX
  5
245
  8
0
 10
92.95936961180759
 20
34.5419937957426
 30
0.0
 42
-0.0456821799454368
  0
VERTEX
  5
246
  8
0
 10
93.50413570721842
 20
34.59187008625349
 30
0.0
  0
VERTEX
  5
247
  8
0
 10
94.24311208517118
 20
34.59187008625648
 30
0.0
 42
-0.4142135623733508
  0
VERTEX
  5
248
  8
0
 10
95.37362389619578
 20
33.46135827523251
 30
0.0
  0
VERTEX
  5
249
  8
0
 10
95.3736238961959
 20
32.72238189727963
 30
0.0
 42
-0.4142135623731796
  0
VERTEX
  5
24A
  8
0
 10
94.24311208517183
 20
31.59187008625592
 30
0.0
  0
VERTEX
  5
24B
  8
0
 10
94.24311208517126
 20
32.9145366139673
 30
0.0
 42
1.0
  0
VERTEX
  5
24C
  8
0
 10
94.06577861288237
 20
33.09187008625782
 30
0.0
  0
VERTEX
  5
24D
  8
0
 10
93.681469179509
 20
33.09187008626149
 30
0.0
 42
1.0
  0
VERTEX
  5
24E
  8
0
 10
93.50413570721848
 20
32.91453661397261
 30
0.0
  0
VERTEX
  5
24F
  8
0
 10
93.50413570721888
 20
31.59187008625331
 30
0.0
 42
-0.0915554233848651
  0
VERTEX
  5
250
  8
0
 10
74.98208846312393
 20
31.59187008628074
 30
0.0
  0
VERTEX
  5
251
  8
0
 10
74.98208846312174
 20
32.91453661394891
 30
0.0
 42
1.0
  0
VERTEX
  5
252
  8
0
 10
74.80475499083101
 20
33.09187008623756
 30
0.0
  0
VERTEX
  5
253
  8
0
 10
74.42044555745771
 20
33.09187008623372
 30
0.0
 42
1.0
  0
VERTEX
  5
254
  8
0
 10
74.24311208516907
 20
32.91453661394291
 30
0.0
  0
VERTEX
  5
255
  8
0
 10
74.24311208517186
 20
31.59187008623313
 30
0.0
 42
-0.4142135623739071
  0
VERTEX
  5
256
  8
0
 10
73.1126002741451
 20
32.7223818972528
 30
0.0
  0
VERTEX
  5
257
  8
0
 10
73.11260027412344
 20
33.46135827523297
 30
0.0
 42
-0.4142135623730951
  0
VERTEX
  5
258
  8
0
 10
74.2431120851712
 20
34.59187008628075
 30
0.0
  0
VERTEX
  5
259
  8
0
 10
74.98208846312393
 20
34.59187008628081
 30
0.0
 42
-0.0456821799454306
  0
SEQEND
  5
3E5
  8
0
  0
POLYLINE
  5
7D
  8
0
 66
     1
 10
0.0
 20
0.0
 30
0.0
 70
     1
  0
VERTEX
  5
25A
  8
0
 10
75.526854558539
 20
38.79189073447691
 30
0.0
 42
0.0915554233848792
  0
VERTEX
  5
25B
  8
0
 10
92.95936961180759
 20
38.79189073445019
 30
0.0
 42
-0.0456821799454368
  0
VERTEX
  5
25C
  8
0
 10
93.50413570721842
 20
38.84176702496109
 30
0.0
  0
VERTEX
  5
25D
  8
0
 10
94.24311208517118
 20
38.84176702496407
 30
0.0
 42
-0.4142135623733508
  0
VERTEX
  5
25E
  8
0
 10
95.37362389619578
 20
37.71125521394011
 30
0.0
  0
VERTEX
  5
25F
  8
0
 10
95.3736238961959
 20
36.97227883598723
 30
0.0
 42
-0.4142135623731796
  0
VERTEX
  5
260
  8
0
 10
94.24311208517183
 20
35.84176702496352
 30
0.0
  0
VERTEX
  5
261
  8
0
 10
94.24311208517126
 20
37.1644335526749
 30
0.0
 42
1.0
  0
VERTEX
  5
262
  8
0
 10
94.06577861288237
 20
37.34176702496541
 30
0.0
  0
VERTEX
  5
263
  8
0
 10
93.681469179509
 20
37.34176702496908
 30
0.0
 42
1.0
  0
VERTEX
  5
264
  8
0
 10
93.50413570721848
 20
37.16443355268022
 30
0.0
  0
VERTEX
  5
265
  8
0
 10
93.50413570721888
 20
35.8417670249609
 30
0.0
 42
-0.0915554233848651
  0
VERTEX
  5
266
  8
0
 10
74.98208846312393
 20
35.84176702498833
 30
0.0
  0
VERTEX
  5
267
  8
0
 10
74.98208846312174
 20
37.16443355265651
 30
0.0
 42
1.0
  0
VERTEX
  5
268
  8
0
 10
74.80475499083101
 20
37.34176702494515
 30
0.0
  0
VERTEX
  5
269
  8
0
 10
74.42044555745771
 20
37.34176702494131
 30
0.0
 42
1.0
  0
VERTEX
  5
26A
  8
0
 10
74.24311208516907
 20
37.16443355265051
 30
0.0
  0
VERTEX
  5
26B
  8
0
 10
74.24311208517186
 20
35.84176702494072
 30
0.0
 42
-0.4142135623739071
  0
VERTEX
  5
26C
  8
0
 10
73.1126002741451
 20
36.9722788359604
 30
0.0
  0
VERTEX
  5
26D
  8
0
 10
73.11260027412344
 20
37.71125521394056
 30
0.0
 42
-0.4142135623730951
  0
VERTEX
  5
26E
  8
0
 10
74.2431120851712
 20
38.84176702498834
 30
0.0
  0
VERTEX
  5
26F
  8
0
 10
74.98208846312393
 20
38.8417670249884
 30
0.0
 42
-0.0456821799454306
  0
SEQEND
  5
3E6
  8
0
  0
POLYLINE
  5
7E
  8
0
 66
     1
 10
0.0
 20
0.0
 30
0.0
 70
     1
  0
VERTEX
  5
270
  8
0
 10
75.526854558539
 20
43.04178767318451
 30
0.0
 42
0.0915554233848792
  0
VERTEX
  5
271
  8
0
 10
92.95936961180759
 20
43.04178767315779
 30
0.0
 42
-0.0456821799454368
  0
VERTEX
  5
272
  8
0
 10
93.50413570721842
 20
43.09166396366869
 30
0.0
  0
VERTEX
  5
273
  8
0
 10
94.24311208517118
 20
43.09166396367167
 30
0.0
 42
-0.4142135623733508
  0
VERTEX
  5
274
  8
0
 10
95.37362389619578
 20
41.96115215264771
 30
0.0
  0
VERTEX
  5
275
  8
0
 10
95.3736238961959
 20
41.22217577469483
 30
0.0
 42
-0.4142135623731796
  0
VERTEX
  5
276
  8
0
 10
94.24311208517183
 20
40.09166396367112
 30
0.0
  0
VERTEX
  5
277
  8
0
 10
94.24311208517126
 20
41.4143304913825
 30
0.0
 42
1.0
  0
VERTEX
  5
278
  8
0
 10
94.06577861288237
 20
41.59166396367301
 30
0.0
  0
VERTEX
  5
279
  8
0
 10
93.681469179509
 20
41.59166396367668
 30
0.0
 42
1.0
  0
VERTEX
  5
27A
  8
0
 10
93.50413570721848
 20
41.41433049138782
 30
0.0
  0
VERTEX
  5
27B
  8
0
 10
93.50413570721888
 20
40.0916639636685
 30
0.0
 42
-0.0915554233848651
  0
VERTEX
  5
27C
  8
0
 10
74.98208846312393
 20
40.09166396369593
 30
0.0
  0
VERTEX
  5
27D
  8
0
 10
74.98208846312174
 20
41.41433049136411
 30
0.0
 42
1.0
  0
VERTEX
  5
27E
  8
0
 10
74.80475499083101
 20
41.59166396365275
 30
0.0
  0
VERTEX
  5
27F
  8
0
 10
74.42044555745771
 20
41.59166396364891
 30
0.0
 42
1.0
  0
VERTEX
  5
280
  8
0
 10
74.24311208516907
 20
41.41433049135811
 30
0.0
  0
VERTEX
  5
281
  8
0
 10
74.24311208517186
 20
40.09166396364832
 30
0.0
 42
-0.4142135623739071
  0
VERTEX
  5
282
  8
0
 10
73.1126002741451
 20
41.222175774668
 30
0.0
  0
VERTEX
  5
283
  8
0
 10
73.11260027412344
 20
41.96115215264816
 30
0.0
 42
-0.4142135623730951
  0
VERTEX
  5
284
  8
0
 10
74.2431120851712
 20
43.09166396369594
 30
0.0
  0
VERTEX
  5
285
  8
0
 10
74.98208846312393
 20
43.091663963696
 30
0.0
 42
-0.0456821799454306
  0
SEQEND
  5
3E7
  8
0
  0
POLYLINE
  5
7F
  8
0
 66
     1
 10
0.0
 20
0.0
 30
0.0
 70
     1
  0
VERTEX
  5
286
  8
0
 10
75.526854558539
 20
47.29168461189211
 30
0.0
 42
0.0915554233848792
  0
VERTEX
  5
287
  8
0
 10
92.95936961180759
 20
47.29168461186539
 30
0.0
 42
-0.0456821799454368
  0
VERTEX
  5
288
  8
0
 10
93.50413570721842
 20
47.34156090237629
 30
0.0
  0
VERTEX
  5
289
  8
0
 10
94.24311208517118
 20
47.34156090237927
 30
0.0
 42
-0.4142135623733508
  0
VERTEX
  5
28A
  8
0
 10
95.37362389619578
 20
46.2110490913553
 30
0.0
  0
VERTEX
  5
28B
  8
0
 10
95.3736238961959
 20
45.47207271340243
 30
0.0
 42
-0.4142135623731796
  0
VERTEX
  5
28C
  8
0
 10
94.24311208517183
 20
44.34156090237872
 30
0.0
  0
VERTEX
  5
28D
  8
0
 10
94.24311208517126
 20
45.66422743009009
 30
0.0
 42
1.0
  0
VERTEX
  5
28E
  8
0
 10
94.06577861288237
 20
45.84156090238061
 30
0.0
  0
VERTEX
  5
28F
  8
0
 10
93.681469179509
 20
45.84156090238428
 30
0.0
 42
1.0
  0
VERTEX
  5
290
  8
0
 10
93.50413570721848
 20
45.66422743009541
 30
0.0
  0
VERTEX
  5
291
  8
0
 10
93.50413570721888
 20
44.3415609023761
 30
0.0
 42
-0.0915554233848651
  0
VERTEX
  5
292
  8
0
 10
74.98208846312393
 20
44.34156090240353
 30
0.0
  0
VERTEX
  5
293
  8
0
 10
74.98208846312174
 20
45.6642274300717
 30
0.0
 42
1.0
  0
VERTEX
  5
294
  8
0
 10
74.80475499083101
 20
45.84156090236035
 30
0.0
  0
VERTEX
  5
295
  8
0
 10
74.42044555745771
 20
45.84156090235651
 30
0.0
 42
1.0
  0
VERTEX
  5
296
  8
0
 10
74.24311208516907
 20
45.66422743006571
 30
0.0
  0
VERTEX
  5
297
  8
0
 10
74.24311208517186
 20
44.34156090235592
 30
0.0
 42
-0.4142135623739071
  0
VERTEX
  5
298
  8
0
 10
73.1126002741451
 20
45.4720727133756
 30
0.0
  0
VERTEX
  5
299
  8
0
 10
73.11260027412344
 20
46.21104909135575
 30
0.0
 42
-0.4142135623730951
  0
VERTEX
  5
29A
  8
0
 10
74.2431120851712
 20
47.34156090240354
 30
0.0
  0
VERTEX
  5
29B
  8
0
 10
74.98208846312393
 20
47.3415609024036
 30
0.0
 42
-0.0456821799454306
  0
SEQEND
  5
3E8
  8
0
  0
POLYLINE
  5
80
  8
0
 66
     1
 10
0.0
 20
0.0
 30
0.0
 70
     1
  0
VERTEX
  5
29C
  8
0
 10
52.53374247337925
 20
34.62407217884227
 30
0.0
 42
0.0915554233848792
  0
VERTEX
  5
29D
  8
0
 10
69.96625752664804
 20
34.62407217881557
 30
0.0
 42
-0.0456821799454368
  0
VERTEX
  5
29E
  8
0
 10
70.51102362205887
 20
34.67394846932646
 30
0.0
  0
VERTEX
  5
29F
  8
0
 10
71.25000000001162
 20
34.67394846932945
 30
0.0
 42
-0.4142135623733508
  0
VERTEX
  5
2A0
  8
0
 10
72.38051181103623
 20
33.5434366583055
 30
0.0
  0
VERTEX
  5
2A1
  8
0
 10
72.38051181103634
 20
32.80446028035263
 30
0.0
 42
-0.4142135623731796
  0
VERTEX
  5
2A2
  8
0
 10
71.25000000001228
 20
31.67394846932893
 30
0.0
  0
VERTEX
  5
2A3
  8
0
 10
71.25000000001171
 20
32.9966149970403
 30
0.0
 42
1.0
  0
VERTEX
  5
2A4
  8
0
 10
71.07266652772282
 20
33.1739484693308
 30
0.0
  0
VERTEX
  5
2A5
  8
0
 10
70.68835709434944
 20
33.17394846933448
 30
0.0
 42
1.0
  0
VERTEX
  5
2A6
  8
0
 10
70.51102362205893
 20
32.9966149970456
 30
0.0
  0
VERTEX
  5
2A7
  8
0
 10
70.51102362205933
 20
31.67394846932632
 30
0.0
 42
-0.0915554233848651
  0
VERTEX
  5
2A8
  8
0
 10
51.98897637796418
 20
31.67394846935375
 30
0.0
  0
VERTEX
  5
2A9
  8
0
 10
51.98897637796199
 20
32.99661499702191
 30
0.0
 42
1.0
  0
VERTEX
  5
2AA
  8
0
 10
51.81164290567125
 20
33.17394846931055
 30
0.0
  0
VERTEX
  5
2AB
  8
0
 10
51.42733347229794
 20
33.17394846930671
 30
0.0
 42
1.0
  0
VERTEX
  5
2AC
  8
0
 10
51.25000000000932
 20
32.99661499701591
 30
0.0
  0
VERTEX
  5
2AD
  8
0
 10
51.25000000001209
 20
31.67394846930614
 30
0.0
 42
-0.4142135623739071
  0
VERTEX
  5
2AE
  8
0
 10
50.11948818898532
 20
32.8044602803258
 30
0.0
  0
VERTEX
  5
2AF
  8
0
 10
50.11948818896366
 20
33.54343665830595
 30
0.0
 42
-0.4142135623730951
  0
VERTEX
  5
2B0
  8
0
 10
51.25000000001143
 20
34.6739484693537
 30
0.0
  0
VERTEX
  5
2B1
  8
0
 10
51.98897637796418
 20
34.67394846935377
 30
0.0
 42
-0.0456821799454306
  0
SEQEND
  5
3E9
  8
0
  0
POLYLINE
  5
81
  8
0
 66
     1
 10
0.0
 20
0.0
 30
0.0
 70
     1
  0
VERTEX
  5
2B2
  8
0
 10
52.53374247337925
 20
38.87396911754981
 30
0.0
 42
0.0915554233848792
  0
VERTEX
  5
2B3
  8
0
 10
69.96625752664804
 20
38.8739691175231
 30
0.0
 42
-0.0456821799454368
  0
VERTEX
  5
2B4
  8
0
 10
70.51102362205887
 20
38.923845408034
 30
0.0
  0
VERTEX
  5
2B5
  8
0
 10
71.25000000001162
 20
38.92384540803698
 30
0.0
 42
-0.4142135623733508
  0
VERTEX
  5
2B6
  8
0
 10
72.38051181103623
 20
37.79333359701303
 30
0.0
  0
VERTEX
  5
2B7
  8
0
 10
72.38051181103634
 20
37.05435721906017
 30
0.0
 42
-0.4142135623731796
  0
VERTEX
  5
2B8
  8
0
 10
71.25000000001228
 20
35.92384540803647
 30
0.0
  0
VERTEX
  5
2B9
  8
0
 10
71.25000000001171
 20
37.24651193574783
 30
0.0
 42
1.0
  0
VERTEX
  5
2BA
  8
0
 10
71.07266652772282
 20
37.42384540803833
 30
0.0
  0
VERTEX
  5
2BB
  8
0
 10
70.68835709434944
 20
37.42384540804201
 30
0.0
 42
1.0
  0
VERTEX
  5
2BC
  8
0
 10
70.51102362205893
 20
37.24651193575313
 30
0.0
  0
VERTEX
  5
2BD
  8
0
 10
70.51102362205933
 20
35.92384540803386
 30
0.0
 42
-0.0915554233848651
  0
VERTEX
  5
2BE
  8
0
 10
51.98897637796418
 20
35.92384540806128
 30
0.0
  0
VERTEX
  5
2BF
  8
0
 10
51.98897637796199
 20
37.24651193572944
 30
0.0
 42
1.0
  0
VERTEX
  5
2C0
  8
0
 10
51.81164290567125
 20
37.42384540801808
 30
0.0
  0
VERTEX
  5
2C1
  8
0
 10
51.42733347229794
 20
37.42384540801424
 30
0.0
 42
1.0
  0
VERTEX
  5
2C2
  8
0
 10
51.25000000000932
 20
37.24651193572345
 30
0.0
  0
VERTEX
  5
2C3
  8
0
 10
51.25000000001209
 20
35.92384540801368
 30
0.0
 42
-0.4142135623739071
  0
VERTEX
  5
2C4
  8
0
 10
50.11948818898532
 20
37.05435721903334
 30
0.0
  0
VERTEX
  5
2C5
  8
0
 10
50.11948818896366
 20
37.79333359701349
 30
0.0
 42
-0.4142135623730951
  0
VERTEX
  5
2C6
  8
0
 10
51.25000000001143
 20
38.92384540806124
 30
0.0
  0
VERTEX
  5
2C7
  8
0
 10
51.98897637796418
 20
38.92384540806131
 30
0.0
 42
-0.0456821799454306
  0
SEQEND
  5
3EA
  8
0
  0
POLYLINE
  5
82
  8
0
 66
     1
 10
0.0
 20
0.0
 30
0.0
 70
     1
  0
VERTEX
  5
2C8
  8
0
 10
47.31129413274056
 20
11.04801876967403
 30
0.0
 42
0.0915554233848792
  0
VERTEX
  5
2C9
  8
0
 10
64.74380918600937
 20
11.04801876964734
 30
0.0
 42
-0.0456821799454368
  0
VERTEX
  5
2CA
  8
0
 10
65.28857528142021
 20
11.09789506015824
 30
0.0
  0
VERTEX
  5
2CB
  8
0
 10
66.02755165937296
 20
11.09789506016122
 30
0.0
 42
-0.4142135623733508
  0
VERTEX
  5
2CC
  8
0
 10
67.15806347039756
 20
9.967383249137256
 30
0.0
  0
VERTEX
  5
2CD
  8
0
 10
67.15806347039768
 20
9.22840687118439
 30
0.0
 42
-0.4142135623731796
  0
VERTEX
  5
2CE
  8
0
 10
66.02755165937361
 20
8.097895060160681
 30
0.0
  0
VERTEX
  5
2CF
  8
0
 10
66.02755165937305
 20
9.420561587872065
 30
0.0
 42
1.0
  0
VERTEX
  5
2D0
  8
0
 10
65.85021818708415
 20
9.597895060162564
 30
0.0
  0
VERTEX
  5
2D1
  8
0
 10
65.46590875371078
 20
9.597895060166245
 30
0.0
 42
1.0
  0
VERTEX
  5
2D2
  8
0
 10
65.28857528142026
 20
9.420561587877366
 30
0.0
  0
VERTEX
  5
2D3
  8
0
 10
65.28857528142066
 20
8.097895060158066
 30
0.0
 42
-0.0915554233848651
  0
VERTEX
  5
2D4
  8
0
 10
46.76652803732549
 20
8.097895060185493
 30
0.0
  0
VERTEX
  5
2D5
  8
0
 10
46.7665280373233
 20
9.420561587853676
 30
0.0
 42
1.0
  0
VERTEX
  5
2D6
  8
0
 10
46.58919456503256
 20
9.597895060142314
 30
0.0
  0
VERTEX
  5
2D7
  8
0
 10
46.20488513165925
 20
9.597895060138477
 30
0.0
 42
1.0
  0
VERTEX
  5
2D8
  8
0
 10
46.02755165937062
 20
9.42056158784768
 30
0.0
  0
VERTEX
  5
2D9
  8
0
 10
46.02755165937339
 20
8.097895060137887
 30
0.0
 42
-0.4142135623739071
  0
VERTEX
  5
2DA
  8
0
 10
44.89703984834663
 20
9.22840687115756
 30
0.0
  0
VERTEX
  5
2DB
  8
0
 10
44.89703984832497
 20
9.967383249137711
 30
0.0
 42
-0.4142135623730951
  0
VERTEX
  5
2DC
  8
0
 10
46.02755165937274
 20
11.09789506018546
 30
0.0
  0
VERTEX
  5
2DD
  8
0
 10
46.76652803732549
 20
11.09789506018555
 30
0.0
 42
-0.0456821799454306
  0
SEQEND
  5
3EB
  8
0
  0
POLYLINE
  5
83
  8
0
 66
     1
 10
0.0
 20
0.0
 30
0.0
 70
     1
  0
VERTEX
  5
2DE
  8
0
 10
47.31129413274056
 20
15.29791570838157
 30
0.0
 42
0.0915554233848792
  0
VERTEX
  5
2DF
  8
0
 10
64.74380918600937
 20
15.29791570835489
 30
0.0
 42
-0.0456821799454368
  0
VERTEX
  5
2E0
  8
0
 10
65.28857528142021
 20
15.34779199886578
 30
0.0
  0
VERTEX
  5
2E1
  8
0
 10
66.02755165937296
 20
15.34779199886876
 30
0.0
 42
-0.4142135623733508
  0
VERTEX
  5
2E2
  8
0
 10
67.15806347039756
 20
14.2172801878448
 30
0.0
  0
VERTEX
  5
2E3
  8
0
 10
67.15806347039768
 20
13.47830380989195
 30
0.0
 42
-0.4142135623731796
  0
VERTEX
  5
2E4
  8
0
 10
66.02755165937361
 20
12.34779199886824
 30
0.0
  0
VERTEX
  5
2E5
  8
0
 10
66.02755165937305
 20
13.67045852657959
 30
0.0
 42
1.0
  0
VERTEX
  5
2E6
  8
0
 10
65.85021818708415
 20
13.84779199887011
 30
0.0
  0
VERTEX
  5
2E7
  8
0
 10
65.46590875371078
 20
13.84779199887377
 30
0.0
 42
1.0
  0
VERTEX
  5
2E8
  8
0
 10
65.28857528142026
 20
13.6704585265849
 30
0.0
  0
VERTEX
  5
2E9
  8
0
 10
65.28857528142066
 20
12.34779199886562
 30
0.0
 42
-0.0915554233848651
  0
VERTEX
  5
2EA
  8
0
 10
46.76652803732549
 20
12.34779199889305
 30
0.0
  0
VERTEX
  5
2EB
  8
0
 10
46.7665280373233
 20
13.6704585265612
 30
0.0
 42
1.0
  0
VERTEX
  5
2EC
  8
0
 10
46.58919456503256
 20
13.84779199884984
 30
0.0
  0
VERTEX
  5
2ED
  8
0
 10
46.20488513165925
 20
13.84779199884601
 30
0.0
 42
1.0
  0
VERTEX
  5
2EE
  8
0
 10
46.02755165937062
 20
13.6704585265552
 30
0.0
  0
VERTEX
  5
2EF
  8
0
 10
46.02755165937339
 20
12.34779199884544
 30
0.0
 42
-0.4142135623739071
  0
VERTEX
  5
2F0
  8
0
 10
44.89703984834663
 20
13.47830380986512
 30
0.0
  0
VERTEX
  5
2F1
  8
0
 10
44.89703984832497
 20
14.21728018784525
 30
0.0
 42
-0.4142135623730951
  0
VERTEX
  5
2F2
  8
0
 10
46.02755165937274
 20
15.34779199889301
 30
0.0
  0
VERTEX
  5
2F3
  8
0
 10
46.76652803732549
 20
15.34779199889309
 30
0.0
 42
-0.0456821799454306
  0
SEQEND
  5
3EC
  8
0
  0
POLYLINE
  5
84
  8
0
 66
     1
 10
0.0
 20
0.0
 30
0.0
 70
     1
  0
VERTEX
  5
2F4
  8
0
 10
19.66944226125963
 20
21.54608005180549
 30
0.0
 42
0.0915554233848792
  0
VERTEX
  5
2F5
  8
0
 10
8.566464386454411
 20
8.106717589470076
 30
0.0
 42
-0.0456821799454368
  0
VERTEX
  5
2F6
  8
0
 10
8.25794778162765
 20
7.654970705019867
 30
0.0
  0
VERTEX
  5
2F7
  8
0
 10
7.78728486527357
 20
7.085266829009488
 30
0.0
 42
-0.4142135623733508
  0
VERTEX
  5
2F8
  8
0
 10
6.195695496985143
 20
6.933750518065395
 30
0.0
  0
VERTEX
  5
2F9
  8
0
 10
5.625991620976508
 20
7.40441343442177
 30
0.0
 42
-0.4142135623731796
  0
VERTEX
  5
2FA
  8
0
 10
5.474475310033183
 20
8.996002802709693
 30
0.0
  0
VERTEX
  5
2FB
  8
0
 10
6.494167237929005
 20
8.153580630807628
 30
0.0
 42
1.0
  0
VERTEX
  5
2FC
  8
0
 10
6.743825902602646
 20
8.177347665583262
 30
0.0
  0
VERTEX
  5
2FD
  8
0
 10
6.988597189065109
 20
8.473625842139153
 30
0.0
 42
1.0
  0
VERTEX
  5
2FE
  8
0
 10
6.964830154289512
 20
8.723284506812753
 30
0.0
  0
VERTEX
  5
2FF
  8
0
 10
5.945138226387675
 20
9.565706678719998
 30
0.0
 42
-0.0915554233848651
  0
VERTEX
  5
300
  8
0
 10
17.7420522183656
 20
23.84502929494972
 30
0.0
  0
VERTEX
  5
301
  8
0
 10
18.76174414622916
 20
23.00260712307642
 30
0.0
 42
1.0
  0
VERTEX
  5
302
  8
0
 10
19.01140281090252
 20
23.02637415785467
 30
0.0
  0
VERTEX
  5
303
  8
0
 10
19.25617409735915
 20
23.32265233441527
 30
0.0
 42
1.0
  0
VERTEX
  5
304
  8
0
 10
19.23240706258086
 20
23.57231099908867
 30
0.0
  0
VERTEX
  5
305
  8
0
 10
18.21271513468485
 20
24.41473317098801
 30
0.0
 42
-0.4142135623739071
  0
VERTEX
  5
306
  8
0
 10
19.80430450297134
 20
24.56624948193648
 30
0.0
  0
VERTEX
  5
307
  8
0
 10
20.37400837901474
 20
24.09558656557935
 30
0.0
 42
-0.4142135623730951
  0
VERTEX
  5
308
  8
0
 10
20.52552468996153
 20
22.50399719725782
 30
0.0
  0
VERTEX
  5
309
  8
0
 10
20.0548617736052
 20
21.9342933212493
 30
0.0
 42
-0.0456821799454306
  0
SEQEND
  5
3ED
  8
0
  0
POLYLINE
  5
85
  8
0
 66
     1
 10
0.0
 20
0.0
 30
0.0
 70
     1
  0
VERTEX
  5
30A
  8
0
 10
20.8285616917752
 20
25.8991058019298
 30
0.0
 42
-0.4142135623730929
  0
VERTEX
  5
30B
  8
0
 10
21.85624096747502
 20
24.67436533308553
 30
0.0
  0
VERTEX
  5
30C
  8
0
 10
20.73537674396124
 20
11.86282863369532
 30
0.0
 42
-0.2914734195860877
  0
VERTEX
  5
30D
  8
0
 10
19.42702763443295
 20
10.15775487761586
 30
0.0
  0
VERTEX
  5
30E
  8
0
 10
7.948676885937523
 20
5.979976866666856
 30
0.0
 42
0.3152987888789834
  0
VERTEX
  5
30F
  8
0
 10
7.204822886553956
 20
4.917643260134938
 30
0.0
  0
VERTEX
  5
310
  8
0
 10
7.204822886555746
 20
4.131241024365991
 30
0.0
 42
0.5205670505510268
  0
VERTEX
  5
311
  8
0
 10
8.721992509217017
 20
3.068907417838322
 30
0.0
  0
VERTEX
  5
312
  8
0
 10
14.57900523451813
 20
5.200685711566248
 30
0.0
  0
VERTEX
  5
313
  8
0
 10
14.12662663913858
 20
6.443585687416228
 30
0.0
 42
-1.0
  0
VERTEX
  5
314
  8
0
 10
14.23261397485859
 20
6.670876262354167
 30
0.0
  0
VERTEX
  5
315
  8
0
 10
14.59374671349795
 20
6.802317829837929
 30
0.0
 42
-1.0
  0
VERTEX
  5
316
  8
0
 10
14.82103728843588
 20
6.69633049411792
 30
0.0
  0
VERTEX
  5
317
  8
0
 10
15.27341588381544
 20
5.45343051826794
 30
0.0
  0
VERTEX
  5
318
  8
0
 10
16.3150318577614
 20
5.832547728320463
 30
0.0
  0
VERTEX
  5
319
  8
0
 10
15.86265326238183
 20
7.075447704170454
 30
0.0
 42
-1.0
  0
VERTEX
  5
31A
  8
0
 10
15.96864059810184
 20
7.302738279108389
 30
0.0
  0
VERTEX
  5
31B
  8
0
 10
16.32977333674121
 20
7.434179846592151
 30
0.0
 42
-1.0
  0
VERTEX
  5
31C
  8
0
 10
16.55706391167914
 20
7.328192510872142
 30
0.0
  0
VERTEX
  5
31D
  8
0
 10
17.00944250705871
 20
6.085292535022148
 30
0.0
  0
VERTEX
  5
31E
  8
0
 10
18.4801377069225
 20
6.620581811450727
 30
0.0
 42
-0.0655434628146685
  0
VERTEX
  5
31F
  8
0
 10
22.30310371555882
 20
7.468112971035342
 30
0.0
  0
VERTEX
  5
320
  8
0
 10
29.56148855167242
 20
8.10313935972043
 30
0.0
 42
-0.0874886635259235
  0
VERTEX
  5
321
  8
0
 10
33.71318600587539
 20
7.739912898097678
 30
0.0
  0
VERTEX
  5
322
  8
0
 10
44.18083110920369
 20
4.935115846030588
 30
0.0
 42
0.4142135623730917
  0
VERTEX
  5
323
  8
0
 10
45.56541965180069
 20
5.734508413820034
 30
0.0
  0
VERTEX
  5
324
  8
0
 10
45.75668081229419
 20
6.448304782302774
 30
0.0
 42
0.4142135623730975
  0
VERTEX
  5
325
  8
0
 10
44.95728824450489
 20
7.832893324899548
 30
0.0
  0
VERTEX
  5
326
  8
0
 10
43.15150132082903
 20
8.316752472796843
 30
0.0
  0
VERTEX
  5
327
  8
0
 10
42.80917003314067
 20
7.039154714112076
 30
0.0
 42
-1.0
  0
VERTEX
  5
328
  8
0
 10
42.59198177242808
 20
6.913761013324194
 30
0.0
  0
VERTEX
  5
329
  8
0
 10
42.22076736544593
 20
7.01322761389299
 30
0.0
 42
-1.0
  0
VERTEX
  5
32A
  8
0
 10
42.09537366465805
 20
7.230415874605583
 30
0.0
  0
VERTEX
  5
32B
  8
0
 10
42.4377049523464
 20
8.508013633290329
 30
0.0
  0
VERTEX
  5
32C
  8
0
 10
41.36701039962268
 20
8.794905374030499
 30
0.0
  0
VERTEX
  5
32D
  8
0
 10
41.02467911193432
 20
7.5173076153458
 30
0.0
 42
-1.0
  0
VERTEX
  5
32E
  8
0
 10
40.80749085122173
 20
7.391913914557922
 30
0.0
  0
VERTEX
  5
32F
  8
0
 10
40.43627644423957
 20
7.491380515126721
 30
0.0
 42
-1.0
  0
VERTEX
  5
330
  8
0
 10
40.3108827434517
 20
7.708568775839314
 30
0.0
  0
VERTEX
  5
331
  8
0
 10
40.65321403114006
 20
8.986166534523992
 30
0.0
  0
VERTEX
  5
332
  8
0
 10
39.58251947841629
 20
9.273058275264166
 30
0.0
  0
VERTEX
  5
333
  8
0
 10
39.24018819072797
 20
7.995460516579527
 30
0.0
 42
-1.0
  0
VERTEX
  5
334
  8
0
 10
39.02299993001538
 20
7.870066815791652
 30
0.0
  0
VERTEX
  5
335
  8
0
 10
38.65178552303322
 20
7.969533416360449
 30
0.0
 42
-1.0
  0
VERTEX
  5
336
  8
0
 10
38.52639182224534
 20
8.186721677073042
 30
0.0
  0
VERTEX
  5
337
  8
0
 10
38.8687231099337
 20
9.464319435757641
 30
0.0
  0
VERTEX
  5
338
  8
0
 10
37.79802855720994
 20
9.751211176497808
 30
0.0
  0
VERTEX
  5
339
  8
0
 10
37.45569726952164
 20
8.473613417813244
 30
0.0
 42
-1.0
  0
VERTEX
  5
33A
  8
0
 10
37.23850900880905
 20
8.348219717025358
 30
0.0
  0
VERTEX
  5
33B
  8
0
 10
36.86729460182693
 20
8.447686317594147
 30
0.0
 42
-1.0
  0
VERTEX
  5
33C
  8
0
 10
36.74190090103905
 20
8.66487457830674
 30
0.0
  0
VERTEX
  5
33D
  8
0
 10
37.08423218872735
 20
9.942472336991283
 30
0.0
  0
VERTEX
  5
33E
  8
0
 10
36.01353763600351
 20
10.22936407773148
 30
0.0
  0
VERTEX
  5
33F
  8
0
 10
35.67120634831526
 20
8.951766319046982
 30
0.0
 42
-1.0
  0
VERTEX
  5
340
  8
0
 10
35.45401808760267
 20
8.826372618259096
 30
0.0
  0
VERTEX
  5
341
  8
0
 10
35.08280368062064
 20
8.92583921882786
 30
0.0
 42
-1.0
  0
VERTEX
  5
342
  8
0
 10
34.95740997983275
 20
9.143027479540446
 30
0.0
  0
VERTEX
  5
343
  8
0
 10
35.29974126752099
 20
10.42062523822493
 30
0.0
  0
VERTEX
  5
344
  8
0
 10
34.48964314117641
 20
10.63769037696666
 30
0.0
 42
0.0050574561754043
  0
VERTEX
  5
345
  8
0
 10
34.19576361537914
 20
10.71325770284955
 30
0.0
  0
VERTEX
  5
346
  8
0
 10
33.91107659915548
 20
9.421592093522147
 30
0.0
 42
-1.0
  0
VERTEX
  5
347
  8
0
 10
33.69973074682959
 20
9.286583754915643
 30
0.0
  0
VERTEX
  5
348
  8
0
 10
33.32442883358929
 20
9.36930143439196
 30
0.0
 42
-1.0
  0
VERTEX
  5
349
  8
0
 10
33.18942049498278
 20
9.580647286717834
 30
0.0
  0
VERTEX
  5
34A
  8
0
 10
33.47410751120646
 20
10.87231289604573
 30
0.0
 42
0.0201022471403453
  0
VERTEX
  5
34B
  8
0
 10
32.28237909938241
 20
11.05498634803266
 30
0.0
  0
VERTEX
  5
34C
  8
0
 10
32.16710111575527
 20
9.737352965783984
 30
0.0
 42
-1.0
  0
VERTEX
  5
34D
  8
0
 10
31.974986820375
 20
9.576149931385793
 30
0.0
  0
VERTEX
  5
34E
  8
0
 10
31.59213980042223
 20
9.60964470549548
 30
0.0
 42
-1.0
  0
VERTEX
  5
34F
  8
0
 10
31.430936766024
 20
9.801759000875713
 30
0.0
  0
VERTEX
  5
350
  8
0
 10
31.54621474965062
 20
11.11939238312448
 30
0.0
 42
0.0200463679567098
  0
VERTEX
  5
351
  8
0
 10
30.34422133632397
 20
11.14649478429449
 30
0.0
  0
VERTEX
  5
352
  8
0
 10
30.39437549343635
 20
9.82477949572073
 30
0.0
 42
-1.0
  0
VERTEX
  5
353
  8
0
 10
30.22389385959551
 20
9.640849255380555
 30
0.0
  0
VERTEX
  5
354
  8
0
 10
29.83986081499128
 20
9.626276636131958
 30
0.0
 42
-1.0
  0
VERTEX
  5
355
  8
0
 10
29.6559305746511
 20
9.796758269972806
 30
0.0
  0
VERTEX
  5
356
  8
0
 10
29.60589552253814
 20
11.11533477787953
 30
0.0
 42
0.0051132029994231
  0
VERTEX
  5
357
  8
0
 10
29.30002132342291
 20
11.0917234539951
 30
0.0
  0
VERTEX
  5
358
  8
0
 10
28.46468223468991
 20
11.01864075352924
 30
0.0
  0
VERTEX
  5
359
  8
0
 10
28.57996021832293
 20
9.701007371280792
 30
0.0
 42
-1.0
  0
VERTEX
  5
35A
  8
0
 10
28.41875718392562
 20
9.508893075899792
 30
0.0
  0
VERTEX
  5
35B
  8
0
 10
28.03591016397255
 20
9.475398301788275
 30
0.0
 42
-1.0
  0
VERTEX
  5
35C
  8
0
 10
27.84379586859155
 20
9.636601336185588
 30
0.0
  0
VERTEX
  5
35D
  8
0
 10
27.72851788495851
 20
10.95423471843409
 30
0.0
  0
VERTEX
  5
35E
  8
0
 10
27.19767534826373
 20
10.90779201435457
 30
0.0
 42
-0.032344754723449
  0
VERTEX
  5
35F
  8
0
 10
26.81004293989941
 20
10.89903022479687
 30
0.0
  0
VERTEX
  5
360
  8
0
 10
26.59208252126525
 20
9.594446000058998
 30
0.0
 42
-1.0
  0
VERTEX
  5
361
  8
0
 10
26.38795085038024
 20
9.448759412720506
 30
0.0
  0
VERTEX
  5
362
  8
0
 10
26.00889534871402
 20
9.512089241689853
 30
0.0
 42
-1.0
  0
VERTEX
  5
363
  8
0
 10
25.86320876137551
 20
9.716220912574848
 30
0.0
  0
VERTEX
  5
364
  8
0
 10
26.08116918000954
 20
11.02080513731301
 30
0.0
 42
-0.0620072674113373
  0
VERTEX
  5
365
  8
0
 10
25.40221763014987
 20
11.31822305324122
 30
0.0
  0
VERTEX
  5
366
  8
0
 10
24.59105102533685
 20
10.27349558506524
 30
0.0
 42
-1.0
  0
VERTEX
  5
367
  8
0
 10
24.34222629645017
 20
10.24218144954921
 30
0.0
  0
VERTEX
  5
368
  8
0
 10
24.03867387948626
 20
10.47787122602367
 30
0.0
 42
-1.0
  0
VERTEX
  5
369
  8
0
 10
24.00735974397013
 20
10.72669595491033
 30
0.0
  0
VERTEX
  5
36A
  8
0
 10
24.81852634878226
 20
11.77142342308691
 30
0.0
 42
-0.0620072674114675
  0
VERTEX
  5
36B
  8
0
 10
24.36215711997139
 20
12.35551224404555
 30
0.0
  0
VERTEX
  5
36C
  8
0
 10
23.15225654103971
 20
11.82110852715944
 30
0.0
 42
-1.0
  0
VERTEX
  5
36D
  8
0
 10
22.91839295484681
 20
11.9116742151524
 30
0.0
  0
VERTEX
  5
36E
  8
0
 10
22.76311845040652
 20
12.26321876261523
 30
0.0
 42
-1.0
  0
VERTEX
  5
36F
  8
0
 10
22.85368413839945
 20
12.49708234880814
 30
0.0
  0
VERTEX
  5
370
  8
0
 10
24.06358471733236
 20
13.03148606569507
 30
0.0
 42
-0.0634655589151237
  0
VERTEX
  5
371
  8
0
 10
23.93848060133012
 20
13.77962970086661
 30
0.0
  0
VERTEX
  5
372
  8
0
 10
22.61781619656418
 20
13.85237771463149
 30
0.0
 42
-1.0
  0
VERTEX
  5
373
  8
0
 10
22.45050467691253
 20
14.03919627950259
 30
0.0
  0
VERTEX
  5
374
  8
0
 10
22.47170370624282
 20
14.42404257293473
 30
0.0
 42
-1.0
  0
VERTEX
  5
375
  8
0
 10
22.65852227111404
 20
14.59135409258624
 30
0.0
  0
VERTEX
  5
376
  8
0
 10
23.9791866758808
 20
14.51860607881937
 30
0.0
  0
VERTEX
  5
377
  8
0
 10
24.07579572851846
 20
15.62285260341695
 30
0.0
  0
VERTEX
  5
378
  8
0
 10
22.75816234627014
 20
15.73813058704399
 30
0.0
 42
-1.0
  0
VERTEX
  5
379
  8
0
 10
22.59695931187193
 20
15.93024488242425
 30
0.0
  0
VERTEX
  5
37A
  8
0
 10
22.63045408598164
 20
16.31309190237774
 30
0.0
 42
-1.0
  0
VERTEX
  5
37B
  8
0
 10
22.82256838136189
 20
16.47429493677596
 30
0.0
  0
VERTEX
  5
37C
  8
0
 10
24.14020176361025
 20
16.359016953149
 30
0.0
  0
VERTEX
  5
37D
  8
0
 10
24.23681081624791
 20
17.46326347774649
 30
0.0
  0
VERTEX
  5
37E
  8
0
 10
22.91917743399955
 20
17.57854146137354
 30
0.0
 42
-1.0
  0
VERTEX
  5
37F
  8
0
 10
22.75797439960134
 20
17.7706557567538
 30
0.0
  0
VERTEX
  5
380
  8
0
 10
22.79146917371106
 20
18.15350277670731
 30
0.0
 42
-1.0
  0
VERTEX
  5
381
  8
0
 10
22.98358346909132
 20
18.31470581110551
 30
0.0
  0
VERTEX
  5
382
  8
0
 10
24.30121685133971
 20
18.19942782747849
 30
0.0
  0
VERTEX
  5
383
  8
0
 10
24.39782590397737
 20
19.30367435207605
 30
0.0
  0
VERTEX
  5
384
  8
0
 10
23.08019252172894
 20
19.41895233570309
 30
0.0
 42
-1.0
  0
VERTEX
  5
385
  8
0
 10
22.91898948733074
 20
19.61106663108335
 30
0.0
  0
VERTEX
  5
386
  8
0
 10
22.95248426144047
 20
19.99391365103685
 30
0.0
 42
-1.0
  0
VERTEX
  5
387
  8
0
 10
23.14459855682071
 20
20.15511668543506
 30
0.0
  0
VERTEX
  5
388
  8
0
 10
24.46223193906918
 20
20.03983870180817
 30
0.0
  0
VERTEX
  5
389
  8
0
 10
24.55884099170684
 20
21.14408522640557
 30
0.0
  0
VERTEX
  5
38A
  8
0
 10
23.24120760945835
 20
21.25936321003259
 30
0.0
 42
-1.0
  0
VERTEX
  5
38B
  8
0
 10
23.08000457506015
 20
21.45147750541285
 30
0.0
  0
VERTEX
  5
38C
  8
0
 10
23.11349934916988
 20
21.83432452536634
 30
0.0
 42
-1.0
  0
VERTEX
  5
38D
  8
0
 10
23.30561364455015
 20
21.99552755976453
 30
0.0
  0
VERTEX
  5
38E
  8
0
 10
24.6232470267986
 20
21.88024957613737
 30
0.0
  0
VERTEX
  5
38F
  8
0
 10
24.71985607943629
 20
22.98449610073506
 30
0.0
  0
VERTEX
  5
390
  8
0
 10
23.40222269718777
 20
23.09977408436211
 30
0.0
 42
-1.0
  0
VERTEX
  5
391
  8
0
 10
23.24101966278957
 20
23.29188837974236
 30
0.0
  0
VERTEX
  5
392
  8
0
 10
23.27451443689928
 20
23.67473539969586
 30
0.0
 42
-1.0
  0
VERTEX
  5
393
  8
0
 10
23.46662873227953
 20
23.83593843409406
 30
0.0
  0
VERTEX
  5
394
  8
0
 10
24.78426211452808
 20
23.72066045046707
 30
0.0
  0
VERTEX
  5
395
  8
0
 10
24.88087116716574
 20
24.82490697506459
 30
0.0
  0
VERTEX
  5
396
  8
0
 10
23.56323778491718
 20
24.94018495869144
 30
0.0
 42
-1.0
  0
VERTEX
  5
397
  8
0
 10
23.40203475051896
 20
25.13229925407168
 30
0.0
  0
VERTEX
  5
398
  8
0
 10
23.43552952462867
 20
25.51514627402503
 30
0.0
 42
-1.0
  0
VERTEX
  5
399
  8
0
 10
23.62764382000897
 20
25.67634930842318
 30
0.0
  0
VERTEX
  5
39A
  8
0
 10
24.94527720225745
 20
25.56107132479547
 30
0.0
  0
VERTEX
  5
39B
  8
0
 10
25.04188625489517
 20
26.66531784939348
 30
0.0
  0
VERTEX
  5
39C
  8
0
 10
16.21854491978438
 20
27.43726019061564
 30
0.0
 42
-1.0
  0
VERTEX
  5
39D
  8
0
 10
16.05734188538618
 20
27.6293744859959
 30
0.0
  0
VERTEX
  5
39E
  8
0
 10
16.09083665949582
 20
28.01222150594827
 30
0.0
 42
-1.0
  0
VERTEX
  5
39F
  8
0
 10
16.28295095487607
 20
28.17342454034648
 30
0.0
  0
VERTEX
  5
3A0
  8
0
 10
25.10629228998696
 20
27.4014821991256
 30
0.0
 42
0.4142135623730659
  0
VERTEX
  5
3A1
  8
0
 10
24.07861301428743
 20
28.62622266796941
 30
0.0
  0
VERTEX
  5
3A2
  8
0
 10
8.433865294154977
 20
29.99496073716841
 30
0.0
 42
0.4400105308911606
  0
VERTEX
  5
3A3
  8
0
 10
7.204822886559135
 20
28.86875086489635
 30
0.0
  0
VERTEX
  5
3A4
  8
0
 10
7.204822886559121
 20
28.12695171723158
 30
0.0
 42
0.3888787318536409
  0
VERTEX
  5
3A5
  8
0
 10
8.236804101010542
 20
27.00074184495952
 30
0.0
  0
SEQEND
  5
3EE
  8
0
  0
POLYLINE
  5
86
  8
0
 66
     1
 10
0.0
 20
0.0
 30
0.0
 70
     1
  0
VERTEX
  5
3A6
  8
0
 10
49.72460847206292
 20
41.03647463994993
 30
0.0
 42
-0.3611889023297254
  0
VERTEX
  5
3A7
  8
0
 10
50.32811353655188
 20
41.76292739849701
 30
0.0
 42
-0.0723449756722191
  0
VERTEX
  5
3A8
  8
0
 10
64.1350160050096
 20
42.31449274601999
 30
0.0
 42
0.4451661598388513
  0
VERTEX
  5
3A9
  8
0
 10
65.38346379537172
 20
43.43883613646667
 30
0.0
  0
VERTEX
  5
3AA
  8
0
 10
65.38346379537175
 20
44.15758928140256
 30
0.0
 42
0.3843554697754338
  0
VERTEX
  5
3AB
  8
0
 10
64.36919651384925
 20
45.28210880734456
 30
0.0
 42
0.0739621355866659
  0
VERTEX
  5
3AC
  8
0
 10
49.38504634500401
 20
44.61264158252594
 30
0.0
 42
0.2909953685596322
  0
VERTEX
  5
3AD
  8
0
 10
47.04857384677482
 20
42.39791280349906
 30
0.0
 42
0.0060887930850464
  0
VERTEX
  5
3AE
  8
0
 10
46.72460847206286
 20
41.03647463994992
 30
0.0
  0
VERTEX
  5
3AF
  8
0
 10
48.04727499977312
 20
41.03647463994994
 30
0.0
 42
-1.0
  0
VERTEX
  5
3B0
  8
0
 10
48.22460847206282
 20
40.85914116766025
 30
0.0
  0
VERTEX
  5
3B1
  8
0
 10
48.22460847206282
 20
40.47483173428688
 30
0.0
 42
-1.0
  0
VERTEX
  5
3B2
  8
0
 10
48.04727499977312
 20
40.29749826199718
 30
0.0
  0
VERTEX
  5
3B3
  8
0
 10
46.72460847206285
 20
40.29749826199719
 30
0.0
 42
0.0915554233848321
  0
VERTEX
  5
3B4
  8
0
 10
46.72460847206283
 20
21.77545101790269
 30
0.0
  0
VERTEX
  5
3B5
  8
0
 10
48.04727499977312
 20
21.7754510179027
 30
0.0
 42
-1.0
  0
VERTEX
  5
3B6
  8
0
 10
48.22460847206282
 20
21.59811754561301
 30
0.0
  0
VERTEX
  5
3B7
  8
0
 10
48.22460847206282
 20
21.21380811223964
 30
0.0
 42
-1.0
  0
VERTEX
  5
3B8
  8
0
 10
48.04727499977312
 20
21.03647463994994
 30
0.0
  0
VERTEX
  5
3B9
  8
0
 10
46.72460847206285
 20
21.03647463994994
 30
0.0
 42
0.0060887930850754
  0
VERTEX
  5
3BA
  8
0
 10
47.04857384677479
 20
19.67503647640095
 30
0.0
 42
0.2909953685596324
  0
VERTEX
  5
3BB
  8
0
 10
49.38504634500378
 20
17.46030769737397
 30
0.0
 42
0.0739621355866657
  0
VERTEX
  5
3BC
  8
0
 10
64.36919651384905
 20
16.79084047255508
 30
0.0
 42
0.3843554697754421
  0
VERTEX
  5
3BD
  8
0
 10
65.38346379537165
 20
17.91535999849713
 30
0.0
  0
VERTEX
  5
3BE
  8
0
 10
65.38346379537168
 20
18.63411314343302
 30
0.0
 42
0.4451661598388459
  0
VERTEX
  5
3BF
  8
0
 10
64.1350160050095
 20
19.75845653387982
 30
0.0
 42
-0.0723449756722187
  0
VERTEX
  5
3C0
  8
0
 10
50.32811353655175
 20
20.3100218814029
 30
0.0
 42
-0.3611889023297122
  0
VERTEX
  5
3C1
  8
0
 10
49.7246084720628
 20
21.03647463994994
 30
0.0
  0
VERTEX
  5
3C2
  8
0
 10
49.7246084720628
 20
21.7754510179027
 30
0.0
 42
0.0456821799453722
  0
VERTEX
  5
3C3
  8
0
 10
49.67473218155144
 20
22.32021711331706
 30
0.0
 42
-0.0915554233848321
  0
VERTEX
  5
3C4
  8
0
 10
49.67473218155146
 20
39.7527321665828
 30
0.0
 42
0.0456821799453719
  0
VERTEX
  5
3C5
  8
0
 10
49.72460847206282
 20
40.29749826199719
 30
0.0
  0
SEQEND
  5
3EF
  8
0
  0
POLYLINE
  5
87
  8
0
 66
     1
 10
0.0
 20
0.0
 30
0.0
 70
     1
  0
VERTEX
  5
3C6
  8
0
 10
57.99370001590032
 20
43.73380811225404
 30
0.0
  0
VERTEX
  5
3C7
  8
0
 10
57.99370001590032
 20
44.37914116767478
 30
0.0
 42
1.0
  0
VERTEX
  5
3C8
  8
0
 10
57.81636654361063
 20
44.55647463996448
 30
0.0
  0
VERTEX
  5
3C9
  8
0
 10
57.43205711023727
 20
44.55647463996448
 30
0.0
 42
1.0
  0
VERTEX
  5
3CA
  8
0
 10
57.25472363794757
 20
44.37914116767478
 30
0.0
  0
VERTEX
  5
3CB
  8
0
 10
57.25472363794757
 20
43.73380811225404
 30
0.0
 42
1.0
  0
VERTEX
  5
3CC
  8
0
 10
57.43205711023727
 20
43.55647463996434
 30
0.0
  0
VERTEX
  5
3CD
  8
0
 10
57.81636654361063
 20
43.55647463996434
 30
0.0
 42
1.0
  0
SEQEND
  5
3F0
  8
0
  0
POLYLINE
  5
88
  8
0
 66
     1
 10
0.0
 20
0.0
 30
0.0
 70
     1
  0
VERTEX
  5
3CE
  8
0
 10
57.25472363794757
 20
18.33914116765946
 30
0.0
  0
VERTEX
  5
3CF
  8
0
 10
57.25472363794757
 20
17.69380811223886
 30
0.0
 42
1.0
  0
VERTEX
  5
3D0
  8
0
 10
57.43205711023727
 20
17.51647463994916
 30
0.0
  0
VERTEX
  5
3D1
  8
0
 10
57.81636654361063
 20
17.51647463994916
 30
0.0
 42
1.0
  0
VERTEX
  5
3D2
  8
0
 10
57.99370001590032
 20
17.69380811223886
 30
0.0
  0
VERTEX
  5
3D3
  8
0
 10
57.99370001590032
 20
18.33914116765946
 30
0.0
 42
1.0
  0
VERTEX
  5
3D4
  8
0
 10
57.81636654361063
 20
18.51647463994916
 30
0.0
  0
VERTEX
  5
3D5
  8
0
 10
57.43205711023727
 20
18.51647463994916
 30
0.0
 42
1.0
  0
SEQEND
  5
3F1
  8
0
  0
ENDSEC
  0
EOF
