0
SECTION
2
HEADER
9
$INSUNITS
70
4
9
$ACADVER
1
AC1014
9
$HANDSEED
5
FFFF
0
ENDSEC
0
SECTION
2
TABLES
0
TABLE
2
VPORT
5
8
100
AcDbSymbolTable
0
ENDTAB
0
TABLE
2
LTYPE
5
5
100
AcDbSymbolTable
0
LTYPE
5
14
100
AcDbSymbolTableRecord
100
AcDbLinetypeTableRecord
2
BYBLOCK
70
0
0
LTYPE
5
15
100
AcDbSymbolTableRecord
100
AcDbLinetypeTableRecord
2
BYLAYER
70
0
0
ENDTAB
0
TABLE
2
LAYER
5
2
100
AcDbSymbolTable
70
2
0
LAYER
5
50
100
AcDbSymbolTableRecord
100
AcDbLayerTableRecord
2
0
70
0
6
CONTINUOUS
0
ENDTAB
0
TABLE
2
STYLE
5
3
100
AcDbSymbolTable
70
1
0
STYLE
5
11
100
AcDbSymbolTableRecord
100
AcDbTextStyleTableRecord
2
STANDARD
70
0
0
ENDTAB
0
TABLE
2
VIEW
5
6
100
AcDbSymbolTable
70
0
0
ENDTAB
0
TABLE
2
UCS
5
7
100
AcDbSymbolTable
70
0
0
ENDTAB
0
TABLE
2
APPID
5
9
100
AcDbSymbolTable
70
2
0
APPID
5
12
100
AcDbSymbolTableRecord
100
AcDbRegAppTableRecord
2
ACAD
70
0
0
ENDTAB
0
TABLE
2
DIMSTYLE
5
A
100
AcDbSymbolTable
70
1
0
ENDTAB
0
TABLE
2
BLOCK_RECORD
5
1
100
AcDbSymbolTable
70
1
0
BLOCK_RECORD
5
1F
100
AcDbSymbolTableRecord
100
AcDbBlockTableRecord
2
*MODEL_SPACE
0
BLOCK_RECORD
5
1B
100
AcDbSymbolTableRecord
100
AcDbBlockTableRecord
2
*PAPER_SPACE
0
ENDTAB
0
ENDSEC
0
SECTION
2
BLOCKS
0
BLOCK
5
20
100
AcDbEntity
100
AcDbBlockBegin
2
*MODEL_SPACE
0
ENDBLK
5
21
100
AcDbEntity
100
AcDbBlockEnd
0
BLOCK
5
1C
100
AcDbEntity
100
AcDbBlockBegin
2
*PAPER_SPACE
0
ENDBLK
5
1D
100
AcDbEntity
100
AcDbBlockEnd
0
ENDSEC
0
SECTION
2
ENTITIES
0
LWPOLYLINE
5
100
100
AcDbEntity
8
0
100
AcDbPolyline
90
14
70
1
43
0.0
10
0
20
-50
10
49.999951041758457
20
-50
10
49.999951041758891
20
-37.649311560086232
10
49.499951041759864
20
-37.649311560086353
42
0.4142135623730957
10
51.499951041759857
20
-35.64931156008636
10
51.499951041759857
20
-14.549311560086231
42
0.41421356237309503
10
49.499951041759864
20
-12.549311560086238
10
49.999951041759815
20
-12.549311560086238
10
49.999951041760283
20
0.069970147741922617
10
25.699974835464779
20
0.035964655939348944
10
25.717467389528359
20
-12.464035344060644
10
24.31746876035907
20
-12.465994508197426
10
24.299976206295501
20
0.034005491802574478
10
0
20
0
0
LWPOLYLINE
5
101
100
AcDbEntity
8
0
100
AcDbPolyline
90
4
70
1
43
0.0
10
12.61111955945875
20
-39.351182270219326
10
37.511119559458734
20
-39.35118227021934
10
37.511119559458741
20
-40.751182270219331
10
12.611119559458748
20
-40.751182270219346
0
LINE
5
102
100
AcDbEntity
8
0
100
AcDbLine
10
51.522993350154792
20
-37.649311560086595
30
0
11
49.999951041758891
21
-37.649311560086232
31
0
0
LINE
5
103
100
AcDbEntity
8
0
100
AcDbLine
10
49.999951041759815
20
-12.549311560086238
30
0
11
51.496432733675455
21
-12.549311560086359
31
0
0
LWPOLYLINE
5
104
100
AcDbEntity
8
0
100
AcDbPolyline
90
12
70
1
43
0.0
10
6.6934914616093355
20
-18.545041852683042
10
6.6934914616093391
20
-23.545041852683042
10
7.3074069348320716
20
-23.545041852683042
10
7.3074069348320698
20
-22.109161787718747
10
7.7405582097515797
20
-21.693063550681089
10
8.9376933601841682
20
-23.545041852683042
10
9.6948556331143134
20
-23.545041852683042
10
8.1702990559086555
20
-21.266733580321286
10
9.5550195601925587
20
-19.922940903395624
10
8.7603400376782155
20
-19.922940903395627
10
7.3074069348320698
20
-21.396337919920896
10
7.3074069348320689
20
-18.545041852683042
0
LINE
5
105
100
AcDbEntity
8
0
100
AcDbLine
10
10.175756039951779
20
-23.545041852683042
30
0
11
10.175756039951775
21
-19.922940903395627
31
0
0
LINE
5
106
100
AcDbEntity
8
0
100
AcDbLine
10
10.175756039951775
20
-19.922940903395627
30
0
11
10.728279772137139
21
-19.922940903395624
31
0
0
LINE
5
107
100
AcDbEntity
8
0
100
AcDbLine
10
10.728279772137139
20
-19.922940903395624
30
0
11
10.728279772137139
21
-20.47205405780694
31
0
0
SPLINE
5
108
100
AcDbEntity
8
0
100
AcDbSpline
70
0
71
3
72
9
73
5
74
3
42
0.000000001
43
0.0000000001
44
0.0000000001
40
0
40
0
40
0
40
0
40
0.037893762258197246
40
0.064452626417675574
40
0.064452626417675574
40
0.064452626417675574
40
0.064452626417675574
10
10.728279772137139
20
-20.472054057806943
30
0
10
10.78982686171133
20
-20.360485136079092
30
0
10
10.894510887129321
20
-20.170720129824211
30
0
10
11.053347070974468
20
-20.024231647193204
30
0
10
11.118798377846215
20
-19.963868432730646
30
0
11
10.728279772137139
21
-20.472054057806943
31
0
11
10.931639495228264
21
-20.15230643102548
31
0
11
11.118798377846215
21
-19.963868432730646
31
0
0
SPLINE
5
109
100
AcDbEntity
8
0
100
AcDbSpline
70
0
71
3
72
9
73
5
74
3
42
0.000000001
43
0.0000000001
44
0.0000000001
40
0
40
0
40
0
40
0
40
0.020935252212280878
40
0.041754519822515102
40
0.041754519822515102
40
0.041754519822515102
40
0.041754519822515102
10
11.118798377846215
20
-19.963868432730646
30
0
10
11.179876850575678
20
-19.928056874130721
30
0
10
11.301695411653977
20
-19.856632158618645
30
0
10
11.442513898728585
20
-19.846258145120913
30
0
10
11.512727561329337
20
-19.841085546702356
30
0
11
11.118798377846215
21
-19.963868432730646
31
0
11
11.306810202930899
21
-19.871781342715234
31
0
11
11.512727561329337
21
-19.841085546702356
31
0
0
SPLINE
5
110
100
AcDbEntity
8
0
100
AcDbSpline
70
0
71
3
72
9
73
5
74
3
42
0.000000001
43
0.0000000001
44
0.0000000001
40
0
40
0
40
0
40
0
40
0.03168099033782832
40
0.06677547197140607
40
0.06677547197140607
40
0.06677547197140607
40
0.06677547197140607
10
11.512727561329337
20
-19.841085546702356
30
0
10
11.619077861284758
20
-19.850890345601776
30
0
10
11.84323725144575
20
-19.871556368573657
30
0
10
12.040186979690588
20
-19.98125138121237
30
0
10
12.143695774410697
20
-20.038902633875818
30
0
11
11.512727561329337
21
-19.841085546702356
31
0
11
11.825653734539481
21
-19.890539818495721
31
0
11
12.143695774410697
21
-20.038902633875818
31
0
0
LINE
5
111
100
AcDbEntity
8
0
100
AcDbLine
10
12.143695774410695
20
-20.038902633875818
30
0
11
11.932236376141043
21
-20.608479850977869
31
0
0
SPLINE
5
112
100
AcDbEntity
8
0
100
AcDbSpline
70
0
71
3
72
9
73
5
74
3
42
0.000000001
43
0.0000000001
44
0.0000000001
40
0
40
0
40
0
40
0
40
0.024621807922883016
40
0.047376341149919364
40
0.047376341149919364
40
0.047376341149919364
40
0.047376341149919364
10
11.932236376141045
20
-20.608479850977869
30
0
10
11.858802301645524
20
-20.569701787041321
30
0
10
11.717503263970261
20
-20.495086519472615
30
0
10
11.558432410363867
20
-20.481831115579357
30
0
10
11.48203176531646
20
-20.475464635580988
30
0
11
11.932236376141045
21
-20.608479850977869
31
0
11
11.707134070728753
21
-20.508718662947626
31
0
11
11.48203176531646
21
-20.475464635580988
31
0
0
SPLINE
5
113
100
AcDbEntity
8
0
100
AcDbSpline
70
0
71
3
72
9
73
5
74
3
42
0.000000001
43
0.0000000001
44
0.0000000001
40
0
40
0
40
0
40
0
40
0.019337966791279113
40
0.038658257238544276
40
0.038658257238544276
40
0.038658257238544276
40
0.038658257238544276
10
11.48203176531646
20
-20.475464635580988
30
0
10
11.416673369060369
20
-20.480500389007208
30
0
10
11.286016318997271
20
-20.490567292805409
30
0
10
11.175657730470178
20
-20.561228221247497
30
0
10
11.120503666733239
20
-20.596542530745477
30
0
11
11.48203176531646
21
-20.475464635580988
31
0
11
11.291035833691094
21
-20.505734258383722
31
0
11
11.120503666733239
21
-20.596542530745477
31
0
0
SPLINE
5
114
100
AcDbEntity
8
0
100
AcDbSpline
70
0
71
3
72
9
73
5
74
3
42
0.000000001
43
0.0000000001
44
0.0000000001
40
0
40
0
40
0
40
0
40
0.019933156021913544
40
0.04113839137984461
40
0.04113839137984461
40
0.04113839137984461
40
0.04113839137984461
10
11.120503666733239
20
-20.596542530745477
30
0
10
11.070583996814173
20
-20.641858068905083
30
0
10
10.967558920583118
20
-20.735381058558545
30
0
10
10.917694134719483
20
-20.865446856743741
30
0
10
10.891990783546898
20
-20.932490699976896
30
0
11
11.120503666733239
21
-20.596542530745477
31
0
11
10.983225527142022
21
-20.741068595141385
31
0
11
10.891990783546898
21
-20.932490699976896
31
0
0
SPLINE
5
115
100
AcDbEntity
8
0
100
AcDbSpline
70
0
71
3
72
9
73
5
74
3
42
0.000000001
43
0.0000000001
44
0.0000000001
40
0
40
0
40
0
40
0
40
0.035125484145664146
40
0.072559496652222555
40
0.072559496652222555
40
0.072559496652222555
40
0.072559496652222555
10
10.891990783546898
20
-20.932490699976896
30
0
10
10.862156020867237
20
-21.046128879706522
30
0
10
10.800525685644033
20
-21.2808738041455
30
0
10
10.793365407649485
20
-21.52353475753824
30
0
10
10.789671364162896
20
-21.648725443572019
30
0
11
10.891990783546898
21
-20.932490699976896
31
0
11
10.815251293514702
21
-21.27526032277963
31
0
11
10.789671364162896
21
-21.648725443572019
31
0
0
LINE
5
116
100
AcDbEntity
8
0
100
AcDbLine
10
10.789671364162894
20
-21.648725443572022
30
0
11
10.789671364162896
21
-23.545041852683042
31
0
0
LINE
5
117
100
AcDbEntity
8
0
100
AcDbLine
10
10.789671364162896
20
-23.545041852683042
30
0
11
10.175756039951779
21
-23.545041852683042
31
0
0
SPLINE
5
118
100
AcDbEntity
8
0
100
AcDbSpline
70
0
71
3
72
9
73
5
74
3
42
0.000000001
43
0.0000000001
44
0.0000000001
40
0
40
0
40
0
40
0
40
0.041610917706304325
40
0.077645860965563973
40
0.077645860965563973
40
0.077645860965563973
40
0.077645860965563973
10
14.87220925364349
20
-23.098247819632501
30
0
10
14.763959016709407
20
-23.186048440402139
30
0
10
14.561964364589546
20
-23.349884163543052
30
0
10
14.32543354087521
20
-23.457555382761047
30
0
10
14.215661111210323
20
-23.507524901122064
30
0
11
14.87220925364349
21
-23.098247819632501
31
0
11
14.537539902065731
21
-23.345519476622552
31
0
11
14.215661111210323
21
-23.507524901122064
31
0
0
SPLINE
5
119
100
AcDbEntity
8
0
100
AcDbSpline
70
0
71
3
72
9
73
5
74
3
42
0.000000001
43
0.0000000001
44
0.0000000001
40
0
40
0
40
0
40
0
40
0.033903019404887075
40
0.069031706013955418
40
0.069031706013955418
40
0.069031706013955418
40
0.069031706013955418
10
14.215661111210323
20
-23.507524901122064
30
0
10
14.107547477779487
20
-23.542338977307018
30
0
10
13.887411670110922
20
-23.613225733546813
30
0
10
13.656271137817729
20
-23.62228662367523
30
0
10
13.538648906086422
20
-23.62689750739953
30
0
11
14.215661111210323
21
-23.507524901122064
31
0
11
13.888665857647396
21
-23.597054653853387
31
0
11
13.538648906086422
21
-23.62689750739953
31
0
0
SPLINE
5
120
100
AcDbEntity
8
0
100
AcDbSpline
70
0
71
3
72
9
73
5
74
3
42
0.000000001
43
0.0000000001
44
0.0000000001
40
0
40
0
40
0
40
0
40
0.053280781737597836
40
0.097965534758640865
40
0.097965534758640865
40
0.097965534758640865
40
0.097965534758640865
10
13.538648906086422
20
-23.62689750739953
30
0
10
13.356990535028011
20
-23.619627019325581
30
0
10
13.022981556860884
20
-23.60625902379525
30
0
10
12.747047328770321
20
-23.420168233491914
30
0
10
12.621186199520565
20
-23.335287147253961
30
0
11
13.538648906086422
21
-23.62689750739953
31
0
11
13.010852160786129
21
-23.55399506637475
31
0
11
12.621186199520565
21
-23.335287147253961
31
0
0
SPLINE
5
121
100
AcDbEntity
8
0
100
AcDbSpline
70
0
71
3
72
9
73
5
74
3
42
0.000000001
43
0.0000000001
44
0.0000000001
40
0
40
0
40
0
40
0
40
0.041001701572147976
40
0.083083422036472038
40
0.083083422036472038
40
0.083083422036472038
40
0.083083422036472038
10
12.621186199520565
20
-23.335287147253961
30
0
10
12.52768239145607
20
-23.230373863965262
30
0
10
12.338211807320201
20
-23.017783794322206
30
0
10
12.313236109421922
20
-22.733866295588502
30
0
10
12.30058592829559
20
-22.590062194556207
30
0
11
12.621186199520565
21
-23.335287147253961
31
0
11
12.380736294125057
21
-23.003176027029962
31
0
11
12.30058592829559
21
-22.590062194556207
31
0
0
SPLINE
5
122
100
AcDbEntity
8
0
100
AcDbSpline
70
0
71
3
72
9
73
5
74
3
42
0.000000001
43
0.0000000001
44
0.0000000001
40
0
40
0
40
0
40
0
40
0.025631262975311729
40
0.050498336901498964
40
0.050498336901498964
40
0.050498336901498964
40
0.050498336901498964
10
12.30058592829559
20
-22.590062194556207
30
0
10
12.305318499731461
20
-22.503876841589783
30
0
10
12.314642542288766
20
-22.334075728228136
30
0
10
12.386351787323937
20
-22.179945039198397
30
0
10
12.421663823460079
20
-22.104045921057672
30
0
11
12.30058592829559
21
-22.590062194556207
31
0
11
12.330855551098324
21
-22.335543208807916
31
0
11
12.421663823460079
21
-22.104045921057672
31
0
0
SPLINE
5
123
100
AcDbEntity
8
0
100
AcDbSpline
70
0
71
3
72
9
73
5
74
3
42
0.000000001
43
0.0000000001
44
0.0000000001
40
0
40
0
40
0
40
0
40
0.024259998743288828
40
0.047798093489168338
40
0.047798093489168338
40
0.047798093489168338
40
0.047798093489168338
10
12.421663823460079
20
-22.104045921057672
30
0
10
12.464642039496427
20
-22.034687543603116
30
0
10
12.549319570185562
20
-21.898034683687079
30
0
10
12.676314879706499
20
-21.799545437036393
30
0
10
12.738853516911004
20
-21.751044564932794
30
0
11
12.421663823460079
21
-22.104045921057672
31
0
11
12.561499896381829
21
-21.905802064627618
31
0
11
12.738853516911004
21
-21.751044564932794
31
0
0
SPLINE
5
124
100
AcDbEntity
8
0
100
AcDbSpline
70
0
71
3
72
9
73
5
74
3
42
0.000000001
43
0.0000000001
44
0.0000000001
40
0
40
0
40
0
40
0
40
0.023897159075804066
40
0.048698232295000407
40
0.048698232295000407
40
0.048698232295000407
40
0.048698232295000407
10
12.738853516911004
20
-21.751044564932794
30
0
10
12.807017890455539
20
-21.709204844948047
30
0
10
12.945924966672644
20
-21.623942810389391
30
0
10
13.101367692347139
20
-21.574829410219365
30
0
10
13.180531683300469
20
-21.549816899985284
30
0
11
12.738853516911004
21
-21.751044564932794
31
0
11
12.947328510616753
21
-21.634230190009088
31
0
11
13.180531683300469
21
-21.549816899985284
31
0
0
SPLINE
5
125
100
AcDbEntity
8
0
100
AcDbSpline
70
0
71
3
72
9
73
5
74
3
42
0.000000001
43
0.0000000001
44
0.0000000001
40
0
40
0
40
0
40
0
40
0.023160516270813909
40
0.055368568147634689
40
0.055368568147634689
40
0.055368568147634689
40
0.055368568147634689
10
13.180531683300469
20
-21.549816899985284
30
0
10
13.255959474596828
20
-21.533180883189917
30
0
10
13.436280532805739
20
-21.49341007588713
30
0
10
13.619597606399667
20
-21.470851752266821
30
0
10
13.726233663891289
20
-21.457729511946649
30
0
11
13.180531683300469
21
-21.549816899985284
31
0
11
13.407339277599785
21
-21.502920561522455
31
0
11
13.726233663891289
21
-21.457729511946649
31
0
0
SPLINE
5
126
100
AcDbEntity
8
0
100
AcDbSpline
70
0
71
3
72
9
73
5
74
3
42
0.000000001
43
0.0000000001
44
0.0000000001
40
0
40
0
40
0
40
0
40
0.065274157175460867
40
0.11163923671524356
40
0.11163923671524356
40
0.11163923671524356
40
0.11163923671524356
10
13.726233663891289
20
-21.457729511946649
30
0
10
13.942640535459701
20
-21.431531076359775
30
0
10
14.312764011690714
20
-21.386723552546172
30
0
10
14.671897189596201
20
-21.287484610071665
30
0
10
14.821049394939873
20
-21.246269517630548
30
0
11
13.726233663891289
21
-21.457729511946649
31
0
11
14.371697130535576
21
-21.360526257246942
31
0
11
14.821049394939873
21
-21.246269517630548
31
0
0
SPLINE
5
127
100
AcDbEntity
8
0
100
AcDbSpline
70
0
71
3
72
9
73
5
74
3
42
0.000000001
43
0.0000000001
44
0.0000000001
40
0
40
0
40
0
40
0
40
0.010320347768769608
40
0.016033821447534284
40
0.016033821447534284
40
0.016033821447534284
40
0.016033821447534284
10
14.821049394939873
20
-21.246269517630548
30
0
10
14.82201129790441
20
-21.211881097212036
30
0
10
14.823505722387846
20
-21.158454816896008
30
0
10
14.824209710454316
20
-21.105012836473605
30
0
10
14.824460568760369
20
-21.08596938201806
30
0
11
14.821049394939873
21
-21.246269517630548
31
0
11
14.823607626293633
21
-21.143097751826257
31
0
11
14.824460568760369
21
-21.08596938201806
31
0
0
SPLINE
5
128
100
AcDbEntity
8
0
100
AcDbSpline
70
0
71
3
72
9
73
5
74
3
42
0.000000001
43
0.0000000001
44
0.0000000001
40
0
40
0
40
0
40
0
40
0.032269082049341265
40
0.056898165168319678
40
0.056898165168319678
40
0.056898165168319678
40
0.056898165168319678
10
14.824460568760369
20
-21.08596938201806
30
0
10
14.822011284475995
20
-20.975034786373385
30
0
10
14.817692606258145
20
-20.779430370473975
30
0
10
14.701020505481029
20
-20.624418724062568
30
0
10
14.650517526005242
20
-20.557319992274255
30
0
11
14.824460568760369
21
-21.08596938201806
31
0
11
14.780974808071587
21
-20.766222053259821
31
0
11
14.650517526005242
21
-20.557319992274255
31
0
0
SPLINE
5
129
100
AcDbEntity
8
0
100
AcDbSpline
70
0
71
3
72
9
73
5
74
3
42
0.000000001
43
0.0000000001
44
0.0000000001
40
0
40
0
40
0
40
0
40
0.033148446882718771
40
0.074151496487759649
40
0.074151496487759649
40
0.074151496487759649
40
0.074151496487759649
10
14.650517526005242
20
-20.557319992274255
30
0
10
14.555737809341148
20
-20.496814864971704
30
0
10
14.343720098460327
20
-20.361467777654447
30
0
10
14.091052469048325
20
-20.353613822189232
30
0
10
13.951336565350029
20
-20.349270873755426
30
0
11
14.650517526005242
21
-20.557319992274255
31
0
11
14.358054819439385
21
-20.401283078879327
31
0
11
13.951336565350029
21
-20.349270873755426
31
0
0
SPLINE
5
130
100
AcDbEntity
8
0
100
AcDbSpline
70
0
71
3
72
9
73
5
74
3
42
0.000000001
43
0.0000000001
44
0.0000000001
40
0
40
0
40
0
40
0
40
0.037835720272755405
40
0.066497636104651758
40
0.066497636104651758
40
0.066497636104651758
40
0.066497636104651758
10
13.951336565350029
20
-20.349270873755426
30
0
10
13.823083239073245
20
-20.351267363491075
30
0
10
13.597673415803515
20
-20.354776265845011
30
0
10
13.397933100840032
20
-20.456988770301436
30
0
10
13.311840715740654
20
-20.501044564932794
30
0
11
13.951336565350029
21
-20.349270873755426
31
0
11
13.574886741970513
21
-20.387214296549768
31
0
11
13.311840715740654
21
-20.501044564932794
31
0
0
SPLINE
5
131
100
AcDbEntity
8
0
100
AcDbSpline
70
0
71
3
72
9
73
5
74
3
42
0.000000001
43
0.0000000001
44
0.0000000001
40
0
40
0
40
0
40
0
40
0.027638880468185183
40
0.062673610704413116
40
0.062673610704413116
40
0.062673610704413116
40
0.062673610704413116
10
13.311840715740654
20
-20.501044564932794
30
0
10
13.246112727465407
20
-20.567592524919686
30
0
10
13.097068689509928
20
-20.718495921393803
30
0
10
13.039031562784302
20
-20.923578591473504
30
0
10
13.006588640545342
20
-21.038220399111719
30
0
11
13.311840715740654
21
-20.501044564932794
31
0
11
13.132355633114312
21
-20.711225145548791
31
0
11
13.006588640545342
21
-21.038220399111719
31
0
0
LINE
5
132
100
AcDbEntity
8
0
100
AcDbLine
10
13.006588640545342
20
-21.038220399111719
30
0
11
12.406315627430413
21
-20.956365042418451
31
0
0
SPLINE
5
133
100
AcDbEntity
8
0
100
AcDbSpline
70
0
71
3
72
9
73
5
74
3
42
0.000000001
43
0.0000000001
44
0.0000000001
40
0
40
0
40
0
40
0
40
0.036475648074323859
40
0.068274672111100831
40
0.068274672111100831
40
0.068274672111100831
40
0.068274672111100831
10
12.406315627430413
20
-20.956365042418451
30
0
10
12.43559409038826
20
-20.837245730754333
30
0
10
12.490397159391746
20
-20.614279659544419
30
0
10
12.61685753784416
20
-20.423008012777181
30
0
10
12.675756635998223
20
-20.333922975748987
30
0
11
12.406315627430413
21
-20.956365042418451
31
0
11
12.514603557918999
21
-20.608053379744501
31
0
11
12.675756635998223
21
-20.333922975748987
31
0
0
SPLINE
5
134
100
AcDbEntity
8
0
100
AcDbSpline
70
0
71
3
72
9
73
5
74
3
42
0.000000001
43
0.0000000001
44
0.0000000001
40
0
40
0
40
0
40
0
40
0.031081440346885151
40
0.066010633683260253
40
0.066010633683260253
40
0.066010633683260253
40
0.066010633683260253
10
12.675756635998223
20
-20.333922975748987
30
0
10
12.748359624662392
20
-20.25838084564942
30
0
10
12.902553549896636
20
-20.097944784064023
30
0
10
13.10887479194146
20
-20.013609949222655
30
0
10
13.218048634861441
20
-19.968984597414941
30
0
11
12.675756635998223
21
-20.333922975748987
31
0
11
12.905122461651297
21
-20.124168568343134
31
0
11
13.218048634861441
21
-19.968984597414941
31
0
0
SPLINE
5
135
100
AcDbEntity
8
0
100
AcDbSpline
70
0
71
3
72
9
73
5
74
3
42
0.000000001
43
0.0000000001
44
0.0000000001
40
0
40
0
40
0
40
0
40
0.039467851388934133
40
0.083496105081685812
40
0.083496105081685812
40
0.083496105081685812
40
0.083496105081685812
10
13.218048634861441
20
-19.968984597414941
30
0
10
13.344813148276122
20
-19.931710927988139
30
0
10
13.612989467995128
20
-19.852856718556481
30
0
10
13.89258141135473
20
-19.845149587060099
30
0
10
14.040012779568167
20
-19.841085546702356
30
0
11
13.218048634861441
21
-19.968984597414941
31
0
11
13.600892844532462
21
-19.873060458392114
31
0
11
14.040012779568167
21
-19.841085546702356
31
0
0
SPLINE
5
136
100
AcDbEntity
8
0
100
AcDbSpline
70
0
71
3
72
9
73
5
74
3
42
0.000000001
43
0.0000000001
44
0.0000000001
40
0
40
0
40
0
40
0
40
0.042124633393466122
40
0.076453833442856903
40
0.076453833442856903
40
0.076453833442856903
40
0.076453833442856903
10
14.040012779568167
20
-19.841085546702356
30
0
10
14.181167894146075
20
-19.843462366609256
30
0
10
14.437356464827394
20
-19.847776160668626
30
0
10
14.683321758901782
20
-19.91847915556772
30
0
10
14.793764772747489
20
-19.950226121634454
30
0
11
14.040012779568167
21
-19.841085546702356
31
0
11
14.46037453684661
21
-19.868370466917963
31
0
11
14.793764772747489
21
-19.950226121634454
31
0
0
SPLINE
5
137
100
AcDbEntity
8
0
100
AcDbSpline
70
0
71
3
72
9
73
5
74
3
42
0.000000001
43
0.0000000001
44
0.0000000001
40
0
40
0
40
0
40
0
40
0.028008961288922496
40
0.051130252139946014
40
0.051130252139946014
40
0.051130252139946014
40
0.051130252139946014
10
14.793764772747489
20
-19.950226121634454
30
0
10
14.881242319925761
20
-19.985805934345635
30
0
10
15.040932249076331
20
-20.050756746917685
30
0
10
15.164305085852783
20
-20.170592516549704
30
0
10
15.220094743107293
20
-20.224782698840112
30
0
11
14.793764772747489
21
-19.950226121634454
31
0
11
15.045299353931876
21
-20.073435478896112
31
0
11
15.220094743107293
21
-20.224782698840112
31
0
0
SPLINE
5
138
100
AcDbEntity
8
0
100
AcDbSpline
70
0
71
3
72
9
73
5
74
3
42
0.000000001
43
0.0000000001
44
0.0000000001
40
0
40
0
40
0
40
0
40
0.022017184060961856
40
0.046271469889203352
40
0.046271469889203352
40
0.046271469889203352
40
0.046271469889203352
10
15.220094743107293
20
-20.224782698840112
30
0
10
15.262543380520473
20
-20.285407469775247
30
0
10
15.351753737415482
20
-20.412816917554665
30
0
10
15.390684299455673
20
-20.563567001291897
30
0
10
15.411090674732659
20
-20.642586224764795
30
0
11
15.220094743107293
21
-20.224782698840112
31
0
11
15.336056771610711
21
-20.411941581458063
31
0
11
15.411090674732659
21
-20.642586224764795
31
0
0
SPLINE
5
139
100
AcDbEntity
8
0
100
AcDbSpline
70
0
71
3
72
9
73
5
74
3
42
0.000000001
43
0.0000000001
44
0.0000000001
40
0
40
0
40
0
40
0
40
0.022118783704696728
40
0.056745277544594803
40
0.056745277544594803
40
0.056745277544594803
40
0.056745277544594803
10
15.411090674732659
20
-20.642586224764795
30
0
10
15.41994197966333
20
-20.71584051755832
30
0
10
15.442649817563844
20
-20.903772875476307
30
0
10
15.442113646993004
20
-21.093176636900118
30
0
10
15.441786470745537
20
-21.208752566069574
30
0
11
15.411090674732659
21
-20.642586224764795
31
0
11
15.434112968777153
21
-20.862572663516016
31
0
11
15.441786470745537
21
-21.208752566069574
31
0
0
LINE
5
140
100
AcDbEntity
8
0
100
AcDbLine
10
15.441786470745537
20
-21.208752566069574
30
0
11
15.441786470745537
21
-22.027306431025476
31
0
0
SPLINE
5
141
100
AcDbEntity
8
0
100
AcDbSpline
70
0
71
3
72
9
73
5
74
3
42
0.000000001
43
0.0000000001
44
0.0000000001
40
0
40
0
40
0
40
0
40
0.069882389066660014
40
0.10840719083010311
40
0.10840719083010311
40
0.10840719083010311
40
0.10840719083010311
10
15.441786470745537
20
-22.027306431025476
30
0
10
15.440375894234514
20
-22.260436589897921
30
0
10
15.438187694331022
20
-22.622086870586379
30
0
10
15.469781264013257
20
-22.982208100685195
30
0
10
15.481008711193539
20
-23.110184841841669
30
0
11
15.441786470745537
21
-22.027306431025476
31
0
11
15.451592626903988
21
-22.726061516493768
31
0
11
15.481008711193539
21
-23.110184841841669
31
0
0
SPLINE
5
142
100
AcDbEntity
8
0
100
AcDbSpline
70
0
71
3
72
9
73
5
74
3
42
0.000000001
43
0.0000000001
44
0.0000000001
40
0
40
0
40
0
40
0
40
0.022966865654255202
40
0.046338610944213696
40
0.046338610944213696
40
0.046338610944213696
40
0.046338610944213696
10
15.481008711193539
20
-23.110184841841669
30
0
10
15.497446412854416
20
-23.185303310669557
30
0
10
15.530611594100618
20
-23.33686450121867
30
0
10
15.60079477828095
20
-23.475246368964385
30
0
10
15.636192980144955
20
-23.545041852683038
30
0
11
15.481008711193539
21
-23.110184841841669
31
0
11
15.539415302608944
21
-23.332302742690057
31
0
11
15.636192980144955
21
-23.545041852683038
31
0
0
LINE
5
143
100
AcDbEntity
8
0
100
AcDbLine
10
15.636192980144955
20
-23.545041852683042
30
0
11
14.994992437695004
21
-23.545041852683038
31
0
0
SPLINE
5
144
100
AcDbEntity
8
0
100
AcDbSpline
70
0
71
3
72
9
73
5
74
3
42
0.000000001
43
0.0000000001
44
0.0000000001
40
0
40
0
40
0
40
0
40
0.022154890081489
40
0.046521447258159855
40
0.046521447258159855
40
0.046521447258159855
40
0.046521447258159855
10
14.994992437695004
20
-23.545041852683038
30
0
10
14.965817818733322
20
-23.476821958821922
30
0
10
14.904556151791603
20
-23.33357195024395
30
0
10
14.883327954889179
20
-23.179136524700588
30
0
10
14.87220925364349
20
-23.098247819632501
30
0
11
14.994992437695004
21
-23.545041852683038
31
0
11
14.916547956799008
21
-23.337845378607721
31
0
11
14.87220925364349
21
-23.098247819632501
31
0
0
SPLINE
5
145
100
AcDbEntity
8
0
100
AcDbSpline
70
0
71
3
72
9
73
5
74
3
42
0.000000001
43
0.0000000001
44
0.0000000001
40
0
40
0
40
0
40
0
40
0.043644556019762165
40
0.10308493042313996
40
0.10308493042313996
40
0.10308493042313996
40
0.10308493042313996
10
14.821049394939873
20
-21.727169924468011
30
0
10
14.682605886615711
20
-21.772661287768056
30
0
10
14.355613456754138
20
-21.88010822842466
30
0
10
14.014824985523111
20
-21.930206335575335
30
0
10
13.818321051929924
20
-21.959093683451623
30
0
11
14.821049394939873
21
-21.727169924468011
31
0
11
14.403245869015191
21
-21.853363984316797
31
0
11
13.818321051929924
21
-21.959093683451623
31
0
0
SPLINE
5
146
100
AcDbEntity
8
0
100
AcDbSpline
70
0
71
3
72
9
73
5
74
3
42
0.000000001
43
0.0000000001
44
0.0000000001
40
0
40
0
40
0
40
0
40
0.032831813231787681
40
0.055029977849549966
40
0.055029977849549966
40
0.055029977849549966
40
0.055029977849549966
10
13.818321051929924
20
-21.959093683451623
30
0
10
13.709692804548316
20
-21.974655556810376
30
0
10
13.527619094362322
20
-22.000739085617752
30
0
10
13.353206074313011
20
-22.058554718585913
30
0
10
13.282850804661248
20
-22.081876569479913
30
0
11
13.818321051929924
21
-21.959093683451623
31
0
11
13.495163145397637
21
-22.017074399680109
31
0
11
13.282850804661248
21
-22.081876569479913
31
0
0
SPLINE
5
147
100
AcDbEntity
8
0
100
AcDbSpline
70
0
71
3
72
9
73
5
74
3
42
0.000000001
43
0.0000000001
44
0.0000000001
40
0
40
0
40
0
40
0
40
0.016238938395999072
40
0.031728570697529046
40
0.031728570697529046
40
0.031728570697529046
40
0.031728570697529046
10
13.282850804661248
20
-22.081876569479913
30
0
10
13.233893844718205
20
-22.10670442845986
30
0
10
13.138238924007894
20
-22.155214525592051
30
0
10
13.072693675826423
20
-22.240004946128337
30
0
10
13.040695014332272
20
-22.281398945540399
30
0
11
13.282850804661248
21
-22.081876569479913
31
0
11
13.143867078159786
21
-22.165863686293573
31
0
11
13.040695014332272
21
-22.281398945540399
31
0
0
SPLINE
5
148
100
AcDbEntity
8
0
100
AcDbSpline
70
0
71
3
72
9
73
5
74
3
42
0.000000001
43
0.0000000001
44
0.0000000001
40
0
40
0
40
0
40
0
40
0.015260307746101886
40
0.030713325702102386
40
0.030713325702102386
40
0.030713325702102386
40
0.030713325702102386
10
13.040695014332272
20
-22.281398945540399
30
0
10
13.015826197104619
20
-22.326542496544199
30
0
10
12.965774514265256
20
-22.417399680317793
30
0
10
12.958891754566897
20
-22.520922912343902
30
0
10
12.955428781841732
20
-22.573009305685968
30
0
11
13.040695014332272
21
-22.281398945540399
31
0
11
12.976745786999203
21
-22.41995649883172
31
0
11
12.955428781841732
21
-22.573009305685968
31
0
0
SPLINE
5
149
100
AcDbEntity
8
0
100
AcDbSpline
70
0
71
3
72
9
73
5
74
3
42
0.000000001
43
0.0000000001
44
0.0000000001
40
0
40
0
40
0
40
0
40
0.02298483322063424
40
0.046083635847764842
40
0.046083635847764842
40
0.046083635847764842
40
0.046083635847764842
10
12.955428781841732
20
-22.573009305685968
30
0
10
12.963250192054552
20
-22.651520891077297
30
0
10
12.978931794640211
20
-22.808933358519383
30
0
10
13.087093997462222
20
-22.924406454782222
30
0
10
13.141308846806027
20
-22.982285791129083
30
0
11
12.955428781841732
21
-22.573009305685968
31
0
11
13.001898947094418
21
-22.798111015051813
31
0
11
13.141308846806027
21
-22.982285791129083
31
0
0
SPLINE
5
150
100
AcDbEntity
8
0
100
AcDbSpline
70
0
71
3
72
9
73
5
74
3
42
0.000000001
43
0.0000000001
44
0.0000000001
40
0
40
0
40
0
40
0
40
0.025978635106344058
40
0.057749179924025153
40
0.057749179924025153
40
0.057749179924025153
40
0.057749179924025153
10
13.141308846806027
20
-22.982285791129083
30
0
10
13.215471368106154
20
-23.029910341733917
30
0
10
13.380330867793067
20
-23.135777287030365
30
0
10
13.57707043109604
20
-23.142370089366775
30
0
10
13.685306134556271
20
-23.145997100562067
30
0
11
13.141308846806027
21
-22.982285791129083
31
0
11
13.370247903202511
21
-23.105069571227045
31
0
11
13.685306134556271
21
-23.145997100562067
31
0
0
SPLINE
5
151
100
AcDbEntity
8
0
100
AcDbSpline
70
0
71
3
72
9
73
5
74
3
42
0.000000001
43
0.0000000001
44
0.0000000001
40
0
40
0
40
0
40
0
40
0.033733387847354447
40
0.065527603340773843
40
0.065527603340773843
40
0.065527603340773843
40
0.065527603340773843
10
13.685306134556271
20
-23.145997100562067
30
0
10
13.798821576883096
20
-23.14033150165324
30
0
10
14.019326997551307
20
-23.12932599222545
30
0
10
14.219264559961609
20
-23.036063910248672
30
0
10
14.316274943684078
20
-22.990812831610651
30
0
11
13.685306134556271
21
-23.145997100562067
31
0
11
14.020401659344174
21
-23.107201033324213
31
0
11
14.316274943684078
21
-22.990812831610651
31
0
0
SPLINE
5
152
100
AcDbEntity
8
0
100
AcDbSpline
70
0
71
3
72
9
73
5
74
3
42
0.000000001
43
0.0000000001
44
0.0000000001
40
0
40
0
40
0
40
0
40
0.030194506941728316
40
0.059463387372799187
40
0.059463387372799187
40
0.059463387372799187
40
0.059463387372799187
10
14.316274943684078
20
-22.990812831610651
30
0
10
14.401901929080058
20
-22.935042766948229
30
0
10
14.570530965215433
20
-22.825212294629953
30
0
10
14.672131803952254
20
-22.651628446645518
30
0
10
14.722141447399594
20
-22.566187554091425
30
0
11
14.316274943684078
21
-22.990812831610651
31
0
11
14.555873098705746
21
-22.807064228743524
31
0
11
14.722141447399594
21
-22.566187554091425
31
0
0
SPLINE
5
153
100
AcDbEntity
8
0
100
AcDbSpline
70
0
71
3
72
9
73
5
74
3
42
0.000000001
43
0.0000000001
44
0.0000000001
40
0
40
0
40
0
40
0
40
0.026797522742926037
40
0.062524392180816526
40
0.062524392180816526
40
0.062524392180816526
40
0.062524392180816526
10
14.722141447399594
20
-22.566187554091425
30
0
10
14.750842224824163
20
-22.481055212569512
30
0
10
14.817807320098204
20
-22.282423124086918
30
0
10
14.819870487079886
20
-22.072324203746017
30
0
10
14.821049394939873
20
-21.952272229880304
30
0
11
14.722141447399594
21
-22.566187554091425
31
0
11
14.796321812008358
21
-22.30868416377923
31
0
11
14.821049394939873
21
-21.952272229880304
31
0
0
LINE
5
154
100
AcDbEntity
8
0
100
AcDbLine
10
14.821049394939877
20
-21.9522722298803
30
0
11
14.821049394939873
21
-21.727169924468011
31
0
0
LINE
5
155
100
AcDbEntity
8
0
100
AcDbLine
10
16.540012779568173
20
-23.545041852683038
30
0
11
16.540012779568169
21
-20.400430732459039
31
0
0
LINE
5
156
100
AcDbEntity
8
0
100
AcDbLine
10
16.540012779568169
20
-20.400430732459039
30
0
11
15.997720780704949
21
-20.400430732459039
31
0
0
LINE
5
157
100
AcDbEntity
8
0
100
AcDbLine
10
15.997720780704949
20
-20.400430732459039
30
0
11
15.997720780704949
21
-19.922940903395624
31
0
0
LINE
5
158
100
AcDbEntity
8
0
100
AcDbLine
10
15.997720780704949
20
-19.922940903395624
30
0
11
16.540012779568166
21
-19.922940903395624
31
0
0
LINE
5
159
100
AcDbEntity
8
0
100
AcDbLine
10
16.540012779568166
20
-19.922940903395624
30
0
11
16.540012779568169
21
-19.537538462370843
31
0
0
SPLINE
5
160
100
AcDbEntity
8
0
100
AcDbSpline
70
0
71
3
72
9
73
5
74
3
42
0.000000001
43
0.0000000001
44
0.0000000001
40
0
40
0
40
0
40
0
40
0.031845468479680686
40
0.054791062528575352
40
0.054791062528575352
40
0.054791062528575352
40
0.054791062528575352
10
16.540012779568169
20
-19.537538462370843
30
0
10
16.540448196823995
20
-19.430864350844352
30
0
10
16.541197344983182
20
-19.247328413272655
30
0
10
16.586036887783578
20
-19.069653703811273
30
0
10
16.60481494936797
20
-18.995246463507623
30
0
11
16.540012779568169
21
-19.537538462370843
31
0
11
16.55621332201812
21
-19.219496124476404
31
0
11
16.60481494936797
21
-18.995246463507623
31
0
0
SPLINE
5
161
100
AcDbEntity
8
0
100
AcDbSpline
70
0
71
3
72
9
73
5
74
3
42
0.000000001
43
0.0000000001
44
0.0000000001
40
0
40
0
40
0
40
0
40
0.02483780403499598
40
0.050375858840839977
40
0.050375858840839977
40
0.050375858840839977
40
0.050375858840839977
10
16.60481494936797
20
-18.995246463507623
30
0
10
16.640492558299631
20
-18.919097886167087
30
0
10
16.712853632925537
20
-18.764653879054681
30
0
10
16.848249307498794
20
-18.660791694965667
30
0
10
16.916888180111378
20
-18.608138733595819
30
0
11
16.60481494936797
21
-18.995246463507623
31
0
11
16.727171364162892
21
-18.779097073763818
31
0
11
16.916888180111378
21
-18.608138733595819
31
0
0
SPLINE
5
162
100
AcDbEntity
8
0
100
AcDbSpline
70
0
71
3
72
9
73
5
74
3
42
0.000000001
43
0.0000000001
44
0.0000000001
40
0
40
0
40
0
40
0
40
0.029033086930836043
40
0.064994102710239574
40
0.064994102710239574
40
0.064994102710239574
40
0.064994102710239574
10
16.916888180111378
20
-18.608138733595819
30
0
10
17.004740023117026
20
-18.564993103862314
30
0
10
17.20140707823229
20
-18.468406354507088
30
0
10
17.421155606173386
20
-18.462849956368
30
0
10
17.542741718624562
20
-18.459775620192499
30
0
11
16.916888180111378
21
-18.608138733595819
31
0
11
17.185049476955861
21
-18.496866398543329
31
0
11
17.542741718624562
21
-18.459775620192499
31
0
0
SPLINE
5
163
100
AcDbEntity
8
0
100
AcDbSpline
70
0
71
3
72
9
73
5
74
3
42
0.000000001
43
0.0000000001
44
0.0000000001
40
0
40
0
40
0
40
0
40
0.027328230985265413
40
0.057692915676921142
40
0.057692915676921142
40
0.057692915676921142
40
0.057692915676921142
10
17.542741718624562
20
-18.459775620192499
30
0
10
17.633907479821318
20
-18.462831734372422
30
0
10
17.826368476516731
20
-18.469283529140125
30
0
10
18.015949081276691
20
-18.503276290018295
30
0
10
18.115728321407765
20
-18.521167212218256
30
0
11
17.542741718624562
21
-18.459775620192499
31
0
11
17.815592708919972
21
-18.475123518198938
31
0
11
18.115728321407765
21
-18.521167212218256
31
0
0
LINE
5
164
100
AcDbEntity
8
0
100
AcDbLine
10
18.115728321407765
20
-18.521167212218256
30
0
11
18.023641529415578
21
-19.05663805553338
31
0
0
SPLINE
5
165
100
AcDbEntity
8
0
100
AcDbSpline
70
0
71
3
72
9
73
5
74
3
42
0.000000001
43
0.0000000001
44
0.0000000001
40
0
40
0
40
0
40
0
40
0.018763247400181843
40
0.036348704407522844
40
0.036348704407522844
40
0.036348704407522844
40
0.036348704407522844
10
18.023641529415578
20
-19.05663805553338
30
0
10
17.961813037252558
20
-19.046693447202692
30
0
10
17.842037097743557
20
-19.027428464923709
30
0
10
17.720778087764241
20
-19.02412829820954
30
0
10
17.662113132809132
20
-19.022531681746454
30
0
11
18.023641529415578
21
-19.05663805553338
31
0
11
17.837760868404835
21
-19.031058275193185
31
0
11
17.662113132809132
21
-19.022531681746454
31
0
0
SPLINE
5
166
100
AcDbEntity
8
0
100
AcDbSpline
70
0
71
3
72
9
73
5
74
3
42
0.000000001
43
0.0000000001
44
0.0000000001
40
0
40
0
40
0
40
0
40
0.024060317997377272
40
0.042123987676840016
40
0.042123987676840016
40
0.042123987676840016
40
0.042123987676840016
10
17.662113132809132
20
-19.022531681746454
30
0
10
17.579697076797714
20
-19.023968147823908
30
0
10
17.435405844729328
20
-19.026483063850851
30
0
10
17.317177716439204
20
-19.107263574080765
30
0
10
17.266478958462208
20
-19.141903990000696
30
0
11
17.662113132809132
21
-19.022531681746454
31
0
11
17.423367920254201
21
-19.05237483331582
31
0
11
17.266478958462208
21
-19.141903990000696
31
0
0
SPLINE
5
167
100
AcDbEntity
8
0
100
AcDbSpline
70
0
71
3
72
9
73
5
74
3
42
0.000000001
43
0.0000000001
44
0.0000000001
40
0
40
0
40
0
40
0
40
0.019218948751118042
40
0.046912032521766595
40
0.046912032521766595
40
0.046912032521766595
40
0.046912032521766595
10
17.266478958462208
20
-19.141903990000696
30
0
10
17.232923779155033
20
-19.197683818862512
30
0
10
17.151018068113444
20
-19.333838255794031
30
0
10
17.150702950188869
20
-19.494095223200905
30
0
10
17.150516929958794
20
-19.588698023051233
30
0
11
17.266478958462208
21
-19.141903990000696
31
0
11
17.179507437084649
21
-19.313288801402063
31
0
11
17.150516929958794
21
-19.588698023051233
31
0
0
LINE
5
168
100
AcDbEntity
8
0
100
AcDbLine
10
17.150516929958794
20
-19.588698023051233
30
0
11
17.150516929958794
21
-19.922940903395624
31
0
0
LINE
5
169
100
AcDbEntity
8
0
100
AcDbLine
10
17.150516929958794
20
-19.922940903395624
30
0
11
17.85651964220855
21
-19.922940903395624
31
0
0
LINE
5
170
100
AcDbEntity
8
0
100
AcDbLine
10
17.85651964220855
20
-19.922940903395624
30
0
11
17.85651964220855
21
-20.400430732459039
31
0
0
LINE
5
171
100
AcDbEntity
8
0
100
AcDbLine
10
17.85651964220855
20
-20.400430732459039
30
0
11
17.150516929958794
21
-20.400430732459039
31
0
0
LINE
5
172
100
AcDbEntity
8
0
100
AcDbLine
10
17.150516929958794
20
-20.400430732459039
30
0
11
17.150516929958798
21
-23.545041852683038
31
0
0
LINE
5
173
100
AcDbEntity
8
0
100
AcDbLine
10
17.150516929958798
20
-23.545041852683038
30
0
11
16.540012779568173
21
-23.545041852683038
31
0
0
LINE
5
174
100
AcDbEntity
8
0
100
AcDbLine
10
19.674392166470025
20
-22.995928698271719
30
0
11
19.76306957278106
21
-23.538220697134939
31
0
0
SPLINE
5
175
100
AcDbEntity
8
0
100
AcDbSpline
70
0
71
3
72
9
73
5
74
3
42
0.000000001
43
0.0000000001
44
0.0000000001
40
0
40
0
40
0
40
0
40
0.024895361777001877
40
0.046766126109746273
40
0.046766126109746273
40
0.046766126109746273
40
0.046766126109746273
10
19.763069572781063
20
-23.538220697134939
30
0
10
19.681471630846978
20
-23.554116641798622
30
0
10
19.528189277412352
20
-23.583977294535245
30
0
10
19.372180783834168
20
-23.58998224657142
30
0
10
19.299221458767391
20
-23.592790537566152
30
0
11
19.763069572781063
21
-23.538220697134939
31
0
11
19.517503204678036
21
-23.579148226469961
31
0
11
19.299221458767391
21
-23.592790537566152
31
0
0
SPLINE
5
176
100
AcDbEntity
8
0
100
AcDbSpline
70
0
71
3
72
9
73
5
74
3
42
0.000000001
43
0.0000000001
44
0.0000000001
40
0
40
0
40
0
40
0
40
0.02979011897884901
40
0.053334765754373112
40
0.053334765754373112
40
0.053334765754373112
40
0.053334765754373112
10
19.299221458767391
20
-23.592790537566152
30
0
10
19.198801920947872
20
-23.590859216926788
30
0
10
19.019015712958268
20
-23.587401475318899
30
0
10
18.853757418971149
20
-23.517790584861558
30
0
10
18.780804100368954
20
-23.487060838431326
30
0
11
19.299221458767391
21
-23.592790537566152
31
0
11
19.002495231960751
21
-23.566358261794058
31
0
11
18.780804100368954
21
-23.487060838431326
31
0
0
SPLINE
5
177
100
AcDbEntity
8
0
100
AcDbSpline
70
0
71
3
72
9
73
5
74
3
42
0.000000001
43
0.0000000001
44
0.0000000001
40
0
40
0
40
0
40
0
40
0.019896076104147831
40
0.038519649547035649
40
0.038519649547035649
40
0.038519649547035649
40
0.038519649547035649
10
18.780804100368954
20
-23.487060838431326
30
0
10
18.724411968284596
20
-23.450053087114799
30
0
10
18.615234402128891
20
-23.378404506571869
30
0
10
18.552113343466793
20
-23.264274050673155
30
0
10
18.521595421169735
20
-23.209093981474847
30
0
11
18.780804100368954
21
-23.487060838431326
31
0
11
18.623915138576962
21
-23.364703827589956
31
0
11
18.521595421169735
21
-23.209093981474847
31
0
0
SPLINE
5
178
100
AcDbEntity
8
0
100
AcDbSpline
70
0
71
3
72
9
73
5
74
3
42
0.000000001
43
0.0000000001
44
0.0000000001
40
0
40
0
40
0
40
0
40
0.027316838242495912
40
0.073100537737869759
40
0.073100537737869759
40
0.073100537737869759
40
0.073100537737869759
10
18.521595421169735
20
-23.209093981474847
30
0
10
18.500029228904236
20
-23.120341645242974
30
0
10
18.442317562657525
20
-22.882838188713762
30
0
10
18.444927121572849
20
-22.637801662852706
30
0
10
18.446561518047783
20
-22.484332495421381
30
0
11
18.521595421169735
21
-23.209093981474847
31
0
11
18.465320291851494
21
-22.941785031050653
31
0
11
18.446561518047783
21
-22.484332495421381
31
0
0
LINE
5
179
100
AcDbEntity
8
0
100
AcDbLine
10
18.44656151804778
20
-22.484332495421381
30
0
11
18.44656151804778
21
-20.400430732459039
31
0
0
LINE
5
180
100
AcDbEntity
8
0
100
AcDbLine
10
18.44656151804778
20
-20.400430732459039
30
0
11
17.996356907223198
21
-20.400430732459039
31
0
0
LINE
5
181
100
AcDbEntity
8
0
100
AcDbLine
10
17.996356907223198
20
-20.400430732459039
30
0
11
17.996356907223198
21
-19.922940903395624
31
0
0
LINE
5
182
100
AcDbEntity
8
0
100
AcDbLine
10
17.996356907223198
20
-19.922940903395624
30
0
11
18.446561518047783
21
-19.922940903395624
31
0
0
LINE
5
183
100
AcDbEntity
8
0
100
AcDbLine
10
18.446561518047783
20
-19.922940903395624
30
0
11
18.446561518047783
21
-19.025942259520502
31
0
0
LINE
5
184
100
AcDbEntity
8
0
100
AcDbLine
10
18.446561518047783
20
-19.025942259520502
30
0
11
19.0570668605313
21
-18.657593005389185
31
0
0
LINE
5
185
100
AcDbEntity
8
0
100
AcDbLine
10
19.0570668605313
20
-18.657593005389185
30
0
11
19.0570668605313
21
-19.922940903395624
31
0
0
LINE
5
186
100
AcDbEntity
8
0
100
AcDbLine
10
19.0570668605313
20
-19.922940903395624
30
0
11
19.674392166470025
21
-19.922940903395624
31
0
0
LINE
5
187
100
AcDbEntity
8
0
100
AcDbLine
10
19.674392166470025
20
-19.922940903395624
30
0
11
19.674392166470025
21
-20.400430732459036
31
0
0
LINE
5
188
100
AcDbEntity
8
0
100
AcDbLine
10
19.674392166470025
20
-20.400430732459036
30
0
11
19.057066860531304
21
-20.400430732459039
31
0
0
LINE
5
189
100
AcDbEntity
8
0
100
AcDbLine
10
19.057066860531304
20
-20.400430732459039
30
0
11
19.057066860531307
21
-22.518438869208307
31
0
0
SPLINE
5
190
100
AcDbEntity
8
0
100
AcDbSpline
70
0
71
3
72
9
73
5
74
3
42
0.000000001
43
0.0000000001
44
0.0000000001
40
0
40
0
40
0
40
0
40
0.02158749451987859
40
0.0340203778180986
40
0.0340203778180986
40
0.0340203778180986
40
0.0340203778180986
10
19.057066860531304
20
-22.518438869208303
30
0
10
19.056161272621232
20
-22.590770773197434
30
0
10
19.05473412956766
20
-22.704760782540422
30
0
10
19.080171687886402
20
-22.815589739314809
30
0
10
19.089467945431206
20
-22.856092625349966
30
0
11
19.057066860531304
21
-22.518438869208303
31
0
11
19.065167131756279
21
-22.73416178771874
31
0
11
19.089467945431206
21
-22.856092625349966
31
0
0
SPLINE
5
191
100
AcDbEntity
8
0
100
AcDbSpline
70
0
71
3
72
9
73
5
74
3
42
0.000000001
43
0.0000000001
44
0.0000000001
40
0
40
0
40
0
40
0
40
0.0079717630005054427
40
0.01614881053967521
40
0.01614881053967521
40
0.01614881053967521
40
0.01614881053967521
10
19.089467945431206
20
-22.856092625349966
30
0
10
19.102125598183136
20
-22.879916032586287
30
0
10
19.127766856729707
20
-22.928176334585292
30
0
10
19.172530638066398
20
-22.95956884748442
30
0
10
19.195197048519585
20
-22.975464635580984
30
0
11
19.089467945431206
21
-22.856092625349966
31
0
11
19.132100763653252
21
-22.923452430457083
31
0
11
19.195197048519585
21
-22.975464635580984
31
0
0
SPLINE
5
192
100
AcDbEntity
8
0
100
AcDbSpline
70
0
71
3
72
9
73
5
74
3
42
0.000000001
43
0.0000000001
44
0.0000000001
40
0
40
0
40
0
40
0
40
0.0095106109163393838
40
0.021626595419421794
40
0.021626595419421794
40
0.021626595419421794
40
0.021626595419421794
10
19.195197048519585
20
-22.975464635580984
30
0
10
19.224487283283366
20
-22.988348898194523
30
0
10
19.291091633156185
20
-23.01764698821961
30
0
10
19.364067877783619
20
-23.019029055634679
30
0
10
19.404951753948662
20
-23.019803338736502
30
0
11
19.195197048519585
21
-22.975464635580984
31
0
11
19.284300031994317
21
-23.008718662947622
31
0
11
19.404951753948662
21
-23.019803338736502
31
0
0
SPLINE
5
193
100
AcDbEntity
8
0
100
AcDbSpline
70
0
71
3
72
9
73
5
74
3
42
0.000000001
43
0.0000000001
44
0.0000000001
40
0
40
0
40
0
40
0
40
0.011867043256008403
40
0.027064915680074401
40
0.027064915680074401
40
0.027064915680074401
40
0.027064915680074401
10
19.404951753948662
20
-23.019803338736502
30
0
10
19.44450793680662
20
-23.018399561662093
30
0
10
19.534722890150974
20
-23.015197996846606
30
0
10
19.624166520262584
20
-23.00285801729158
30
0
10
19.674392166470025
20
-22.995928698271719
30
0
11
19.404951753948662
21
-23.019803338736502
31
0
11
19.52347201380584
21
-23.013835125655142
31
0
11
19.674392166470025
21
-22.995928698271719
31
0
0
LINE
5
194
100
AcDbEntity
8
0
100
AcDbLine
10
20.27466458353851
20
-24.933172636717764
30
0
11
20.274664583538502
21
-19.92294090339562
31
0
0
LINE
5
195
100
AcDbEntity
8
0
100
AcDbLine
10
20.274664583538502
20
-19.92294090339562
30
0
11
20.83401006731841
21
-19.92294090339562
31
0
0
LINE
5
196
100
AcDbEntity
8
0
100
AcDbLine
10
20.83401006731841
20
-19.92294090339562
30
0
11
20.83401006731841
21
-20.39360957691094
31
0
0
SPLINE
5
197
100
AcDbEntity
8
0
100
AcDbSpline
70
0
71
3
72
9
73
5
74
3
42
0.000000001
43
0.0000000001
44
0.0000000001
40
0
40
0
40
0
40
0
40
0.032060629126564127
40
0.061317597337124385
40
0.061317597337124385
40
0.061317597337124385
40
0.061317597337124385
10
20.83401006731841
20
-20.39360957691094
30
0
10
20.900010922709484
20
-20.308456393948944
30
0
10
21.026240943299499
20
-20.145596564710225
30
0
10
21.198576312149093
20
-20.032959889548003
30
0
10
21.280804100368947
20
-19.979216628760305
30
0
11
20.83401006731841
21
-20.39360957691094
31
0
11
21.044617119167775
21
-20.151880257815328
31
0
11
21.280804100368947
21
-19.979216628760305
31
0
0
SPLINE
5
198
100
AcDbEntity
8
0
100
AcDbSpline
70
0
71
3
72
9
73
5
74
3
42
0.000000001
43
0.0000000001
44
0.0000000001
40
0
40
0
40
0
40
0
40
0.029424971679878047
40
0.062433483847469121
40
0.062433483847469121
40
0.062433483847469121
40
0.062433483847469121
10
21.280804100368947
20
-19.979216628760305
30
0
10
21.371254084868969
20
-19.938964173858629
30
0
10
21.563169567667796
20
-19.853557091049325
30
0
10
21.773359772225565
20
-19.845398622013903
30
0
10
21.884487095211476
20
-19.841085248679128
30
0
11
21.280804100368947
21
-19.979216628760305
31
0
11
21.556213322018117
21
-19.875618093699423
31
0
11
21.884487095211476
21
-19.841085248679128
31
0
0
SPLINE
5
199
100
AcDbEntity
8
0
100
AcDbSpline
70
0
71
3
72
9
73
5
74
3
42
0.000000001
43
0.0000000001
44
0.0000000001
40
0
40
0
40
0
40
0
40
0.044062353129004861
40
0.086250014433121344
40
0.086250014433121344
40
0.086250014433121344
40
0.086250014433121344
10
21.884487095211476
20
-19.841085248679128
30
0
10
22.033208948689325
20
-19.850139264931823
30
0
10
22.324325085211349
20
-19.867862082190044
30
0
10
22.578645129528745
20
-20.010205640238496
30
0
10
22.703041258190602
20
-20.07983046123406
30
0
11
21.884487095211476
21
-19.841085248679128
31
0
11
22.32104939493987
21
-19.900771551817861
31
0
11
22.703041258190602
21
-20.07983046123406
31
0
0
SPLINE
5
200
100
AcDbEntity
8
0
100
AcDbSpline
70
0
71
3
72
9
73
5
74
3
42
0.000000001
43
0.0000000001
44
0.0000000001
40
0
40
0
40
0
40
0
40
0.042387683870449527
40
0.087014102762826923
40
0.087014102762826923
40
0.087014102762826923
40
0.087014102762826923
10
22.703041258190602
20
-20.07983046123406
30
0
10
22.814756067004875
20
-20.169365048914539
30
0
10
23.044085980005171
20
-20.353163055832482
30
0
10
23.172600835756747
20
-20.617740028869974
30
0
10
23.238511505459279
20
-20.753432088583914
30
0
11
22.703041258190602
21
-20.07983046123406
31
0
11
23.014262142513722
21
-20.367603176325765
31
0
11
23.238511505459279
21
-20.753432088583914
31
0
0
SPLINE
5
201
100
AcDbEntity
8
0
100
AcDbSpline
70
0
71
3
72
9
73
5
74
3
42
0.000000001
43
0.0000000001
44
0.0000000001
40
0
40
0
40
0
40
0
40
0.047548434245784331
40
0.097505992746158066
40
0.097505992746158066
40
0.097505992746158066
40
0.097505992746158066
10
23.238511505459279
20
-20.753432088583914
30
0
10
23.291225422610424
20
-20.903902029599148
30
0
10
23.399324099357411
20
-21.212465733322944
30
0
10
23.412516518622731
20
-21.539268065768212
30
0
10
23.419275703762501
20
-21.706706457823721
30
0
11
23.238511505459279
21
-20.753432088583914
31
0
11
23.374084654186696
21
-21.209179037302938
31
0
11
23.419275703762501
21
-21.706706457823721
31
0
0
SPLINE
5
202
100
AcDbEntity
8
0
100
AcDbSpline
70
0
71
3
72
9
73
5
74
3
42
0.000000001
43
0.0000000001
44
0.0000000001
40
0
40
0
40
0
40
0
40
0.053057284152563139
40
0.10264889281363382
40
0.10264889281363382
40
0.10264889281363382
40
0.10264889281363382
10
23.419275703762501
20
-21.706706457823721
30
0
10
23.412143822375555
20
-21.884708857580108
30
0
10
23.398345910557374
20
-22.229086628606304
30
0
10
23.277928597813677
20
-22.551813902571404
30
0
10
23.219752731655568
20
-22.707729511946646
30
0
11
23.419275703762501
21
-21.706706457823721
31
0
11
23.369394960735768
21
-22.234929376334158
31
0
11
23.219752731655568
21
-22.707729511946646
31
0
0
SPLINE
5
203
100
AcDbEntity
8
0
100
AcDbSpline
70
0
71
3
72
9
73
5
74
3
42
0.000000001
43
0.0000000001
44
0.0000000001
40
0
40
0
40
0
40
0
40
0.04630271244230727
40
0.090556458029622644
40
0.090556458029622644
40
0.090556458029622644
40
0.090556458029622644
10
23.219752731655568
20
-22.707729511946646
30
0
10
23.147205723264157
20
-22.846479416439518
30
0
10
23.005322024144856
20
-23.117839326908669
30
0
10
22.759885413030844
20
-23.300562957586308
30
0
10
22.639943781231381
20
-23.389857583731619
30
0
11
23.219752731655568
21
-22.707729511946646
31
0
11
22.975038709972836
21
-23.100806050986257
31
0
11
22.639943781231381
21
-23.389857583731619
31
0
0
SPLINE
5
204
100
AcDbEntity
8
0
100
AcDbSpline
70
0
71
3
72
9
73
5
74
3
42
0.000000001
43
0.0000000001
44
0.0000000001
40
0
40
0
40
0
40
0
40
0.042869281361110852
40
0.084265962376705111
40
0.084265962376705111
40
0.084265962376705111
40
0.084265962376705111
10
22.639943781231381
20
-23.389857583731619
30
0
10
22.512811642141635
20
-23.458988012830684
30
0
10
22.262914473136966
20
-23.594874175429901
30
0
10
21.979418998898819
20
-23.616348153806314
30
0
10
21.840148392055966
20
-23.626897507399526
30
0
11
22.639943781231381
21
-23.389857583731619
31
0
11
22.249851646755673
21
-23.567637377470938
31
0
11
21.840148392055966
21
-23.626897507399526
31
0
0
SPLINE
5
205
100
AcDbEntity
8
0
100
AcDbSpline
70
0
71
3
72
9
73
5
74
3
42
0.000000001
43
0.0000000001
44
0.0000000001
40
0
40
0
40
0
40
0
40
0.029298014743008634
40
0.057021477517176289
40
0.057021477517176289
40
0.057021477517176289
40
0.057021477517176289
10
21.840148392055966
20
-23.626897507399526
30
0
10
21.741648600624821
20
-23.622119201386379
30
0
10
21.549942654273018
20
-23.612819388027397
30
0
10
21.374586798488025
20
-23.535086419584697
30
0
10
21.289329948757626
20
-23.497293167799917
30
0
11
21.840148392055966
21
-23.626897507399526
31
0
11
21.548965397213436
21
-23.594496422499624
31
0
11
21.289329948757626
21
-23.497293167799917
31
0
0
SPLINE
5
206
100
AcDbEntity
8
0
100
AcDbSpline
70
0
71
3
72
9
73
5
74
3
42
0.000000001
43
0.0000000001
44
0.0000000001
40
0
40
0
40
0
40
0
40
0.026616701405160523
40
0.052030265488235986
40
0.052030265488235986
40
0.052030265488235986
40
0.052030265488235986
10
21.289329948757626
20
-23.497293167799917
30
0
10
21.212304020230182
20
-23.452044787101165
30
0
10
21.061733915777499
20
-23.363593358622801
30
0
10
20.945401626356155
20
-23.233442018450479
30
0
10
20.888580503796078
20
-23.169871144980398
30
0
11
21.289329948757626
21
-23.497293167799917
31
0
11
21.067212047909237
21
-23.350635343283621
31
0
11
20.888580503796078
21
-23.169871144980398
31
0
0
LINE
5
207
100
AcDbEntity
8
0
100
AcDbLine
10
20.888580503796081
20
-23.169871144980398
30
0
11
20.888580503796078
21
-24.933172636717764
31
0
0
LINE
5
208
100
AcDbEntity
8
0
100
AcDbLine
10
20.888580503796078
20
-24.933172636717764
30
0
11
20.27466458353851
21
-24.933172636717764
31
0
0
SPLINE
5
209
100
AcDbEntity
8
0
100
AcDbSpline
70
0
71
3
72
9
73
5
74
3
42
0.000000001
43
0.0000000001
44
0.0000000001
40
0
40
0
40
0
40
0
40
0.061205187415799771
40
0.10875594823058606
40
0.10875594823058606
40
0.10875594823058606
40
0.10875594823058606
10
20.830599489544362
20
-21.754455142706838
30
0
10
20.835195476324905
20
-21.962759028494702
30
0
10
20.843362119079821
20
-22.332895737088894
30
0
10
21.031446932183691
20
-22.649466709179137
30
0
10
21.113682213161916
20
-22.787879281729666
30
0
11
20.830599489544362
21
-21.754455142706838
31
0
11
20.901370468471974
21
-22.362401657790151
31
0
11
21.113682213161916
21
-22.787879281729666
31
0
0
SPLINE
5
210
100
AcDbEntity
8
0
100
AcDbSpline
70
0
71
3
72
9
73
5
74
3
42
0.000000001
43
0.0000000001
44
0.0000000001
40
0
40
0
40
0
40
0
40
0.040095479264337416
40
0.078282190150030656
40
0.078282190150030656
40
0.078282190150030656
40
0.078282190150030656
10
21.113682213161916
20
-22.787879281729666
30
0
10
21.211306114363744
20
-22.885349825737293
30
0
10
21.4019064747357
20
-23.075650772378399
30
0
10
21.668953616529247
20
-23.106885766975683
30
0
10
21.799221458767391
20
-23.12212246009728
30
0
11
21.113682213161916
21
-22.787879281729666
31
0
11
21.426608982418507
21
-23.038561516493765
31
0
11
21.799221458767391
21
-23.12212246009728
31
0
0
SPLINE
5
211
100
AcDbEntity
8
0
100
AcDbSpline
70
0
71
3
72
9
73
5
74
3
42
0.000000001
43
0.0000000001
44
0.0000000001
40
0
40
0
40
0
40
0
40
0.038959455653823929
40
0.080247245789470123
40
0.080247245789470123
40
0.080247245789470123
40
0.080247245789470123
10
21.799221458767391
20
-23.12212246009728
30
0
10
21.932067074231668
20
-23.106095192751759
30
0
10
22.205697559496645
20
-23.073082820262847
30
0
10
22.400090916069697
20
-22.876886625228153
30
0
10
22.500107708309621
20
-22.775942259520498
30
0
11
21.799221458767391
21
-23.12212246009728
31
0
11
22.179081859920949
21
-23.035577707976309
31
0
11
22.500107708309621
21
-22.775942259520498
31
0
0
SPLINE
5
212
100
AcDbEntity
8
0
100
AcDbSpline
70
0
71
3
72
9
73
5
74
3
42
0.000000001
43
0.0000000001
44
0.0000000001
40
0
40
0
40
0
40
0
40
0.049247912972388681
40
0.11280690631269411
40
0.11280690631269411
40
0.11280690631269411
40
0.11280690631269411
10
22.500107708309621
20
-22.775942259520498
30
0
10
22.584812930157128
20
-22.632349114567401
30
0
10
22.778838086725788
20
-22.30343571555796
30
0
10
22.787075981108778
20
-21.919574744871142
30
0
10
22.791717472408742
20
-21.703295284003225
30
0
11
22.500107708309621
21
-22.775942259520498
31
0
11
22.718813839291066
21
-22.334690266341177
31
0
11
22.791717472408742
21
-21.703295284003225
31
0
0
SPLINE
5
213
100
AcDbEntity
8
0
100
AcDbSpline
70
0
71
3
72
9
73
5
74
3
42
0.000000001
43
0.0000000001
44
0.0000000001
40
0
40
0
40
0
40
0
40
0.06095604348022244
40
0.10909828994634296
40
0.10909828994634296
40
0.10909828994634296
40
0.10909828994634296
10
22.791717472408742
20
-21.703295284003225
30
0
10
22.786539299033684
20
-21.495995201937909
30
0
10
22.777271475401918
20
-21.124972360430814
30
0
10
22.589699508961061
20
-20.806842864676597
30
0
10
22.506928863857716
20
-20.66646056720635
30
0
11
22.791717472408742
21
-21.703295284003225
31
0
11
22.720520916317433
21
-21.097907000273672
31
0
11
22.506928863857716
21
-20.66646056720635
31
0
0
SPLINE
5
214
100
AcDbEntity
8
0
100
AcDbSpline
70
0
71
3
72
9
73
5
74
3
42
0.000000001
43
0.0000000001
44
0.0000000001
40
0
40
0
40
0
40
0
40
0.040546793299467906
40
0.078333508400015073
40
0.078333508400015073
40
0.078333508400015073
40
0.078333508400015073
10
22.506928863857716
20
-20.66646056720635
30
0
10
22.409861941421187
20
-20.566025582113227
30
0
10
22.222335580757164
20
-20.371992364977146
30
0
10
21.955313071562607
20
-20.338258353127205
30
0
10
21.826506080959767
20
-20.321985655516592
30
0
11
22.506928863857716
21
-20.66646056720635
31
0
11
22.194428863857716
21
-20.408104234427419
31
0
11
21.826506080959767
21
-20.321985655516592
31
0
0
SPLINE
5
215
100
AcDbEntity
8
0
100
AcDbSpline
70
0
71
3
72
9
73
5
74
3
42
0.000000001
43
0.0000000001
44
0.0000000001
40
0
40
0
40
0
40
0
40
0.038082427756993865
40
0.080611790737181749
40
0.080611790737181749
40
0.080611790737181749
40
0.080611790737181749
10
21.826506080959767
20
-20.321985655516592
30
0
10
21.697067241621319
20
-20.340369193482033
30
0
10
21.423074819273758
20
-20.379282939342332
30
0
10
21.232817436068299
20
-20.581790494445919
30
0
10
21.132440986965626
20
-20.688629918784109
30
0
11
21.826506080959767
21
-20.321985655516592
31
0
11
21.456877413128346
21
-20.413646870345083
31
0
11
21.132440986965626
21
-20.688629918784109
31
0
0
SPLINE
5
216
100
AcDbEntity
8
0
100
AcDbSpline
70
0
71
3
72
9
73
5
74
3
42
0.000000001
43
0.0000000001
44
0.0000000001
40
0
40
0
40
0
40
0
40
0.050353641466125587
40
0.11241876500556532
40
0.11241876500556532
40
0.11241876500556532
40
0.11241876500556532
10
21.132440986965626
20
-20.688629918784109
30
0
10
21.044651255363476
20
-20.834821799898275
30
0
10
20.848653251653584
20
-21.161207543812175
30
0
10
20.837021337343629
20
-21.543432876858056
30
0
10
20.830599489544362
20
-21.754455142706838
30
0
11
21.132440986965626
21
-20.688629918784109
31
0
11
20.906060161922902
21
-21.13840835639855
31
0
11
20.830599489544362
21
-21.754455142706838
31
0
0
LWPOLYLINE
5
217
100
AcDbEntity
8
0
100
AcDbPolyline
90
4
70
1
43
0.0
10
24.14574307474944
20
-18.545041852683035
10
24.145743074749447
20
-23.545041852683035
10
24.759658995007015
20
-23.545041852683035
10
24.759658995007008
20
-18.545041852683035
0
LINE
5
218
100
AcDbEntity
8
0
100
AcDbLine
10
28.190763416622616
20
-22.378602200240103
30
0
11
28.825142803524471
21
-22.457047277182546
31
0
0
SPLINE
5
219
100
AcDbEntity
8
0
100
AcDbSpline
70
0
71
3
72
9
73
5
74
3
42
0.000000001
43
0.0000000001
44
0.0000000001
40
0
40
0
40
0
40
0
40
0.053808291039416964
40
0.10412909001914121
40
0.10412909001914121
40
0.10412909001914121
40
0.10412909001914121
10
28.825142803524471
20
-22.457047277182546
30
0
10
28.766860332546717
20
-22.630128505781432
30
0
10
28.654072868946827
20
-22.965073000119581
30
0
10
28.3945994597082
20
-23.204321670821809
30
0
10
28.269207897518612
20
-23.319939547270742
30
0
11
28.825142803524471
21
-22.457047277182546
31
0
11
28.611126365993954
21
-22.950737648695913
31
0
11
28.269207897518612
21
-23.319939547270742
31
0
0
SPLINE
5
220
100
AcDbEntity
8
0
100
AcDbSpline
70
0
71
3
72
9
73
5
74
3
42
0.000000001
43
0.0000000001
44
0.0000000001
40
0
40
0
40
0
40
0
40
0.051630876887818054
40
0.10961034055245156
40
0.10961034055245156
40
0.10961034055245156
40
0.10961034055245156
10
28.269207897518612
20
-23.319939547270742
30
0
10
28.119056804946009
20
-23.409387694690707
30
0
10
27.800291883967333
20
-23.59928262755794
30
0
10
27.428850657219304
20
-23.617343847916132
30
0
10
27.232373180721737
20
-23.626897507399526
30
0
11
28.269207897518612
21
-23.319939547270742
31
0
11
27.807066860531307
21
-23.550157719344107
31
0
11
27.232373180721737
21
-23.626897507399526
31
0
0
SPLINE
5
221
100
AcDbEntity
8
0
100
AcDbSpline
70
0
71
3
72
9
73
5
74
3
42
0.000000001
43
0.0000000001
44
0.0000000001
40
0
40
0
40
0
40
0
40
0.072282837804837213
40
0.13822701816985539
40
0.13822701816985539
40
0.13822701816985539
40
0.13822701816985539
10
27.232373180721737
20
-23.626897507399526
30
0
10
26.985154539613035
20
-23.610514885755187
30
0
10
26.512396459905041
20
-23.579186274310576
30
0
10
26.146635569212169
20
-23.28013765428755
30
0
10
25.972141447399594
20
-23.137470060080496
30
0
11
27.232373180721737
21
-23.626897507399526
31
0
11
26.519976082180477
21
-23.504540496558157
31
0
11
25.972141447399594
21
-23.137470060080496
31
0
0
SPLINE
5
222
100
AcDbEntity
8
0
100
AcDbSpline
70
0
71
3
72
9
73
5
74
3
42
0.000000001
43
0.0000000001
44
0.0000000001
40
0
40
0
40
0
40
0
40
0.068377890477857278
40
0.14772351063353006
40
0.14772351063353006
40
0.14772351063353006
40
0.14772351063353006
10
25.972141447399594
20
-23.137470060080496
30
0
10
25.8365540036373
20
-22.948325717377529
30
0
10
25.543631056608405
20
-22.539698511634736
30
0
10
25.519532511270413
20
-22.035502299800189
30
0
10
25.506588640545338
20
-21.764687174052206
30
0
11
25.972141447399594
21
-23.137470060080496
31
0
11
25.622976246212453
21
-22.549560838431326
31
0
11
25.506588640545338
21
-21.764687174052206
31
0
0
SPLINE
5
223
100
AcDbEntity
8
0
100
AcDbSpline
70
0
71
3
72
9
73
5
74
3
42
0.000000001
43
0.0000000001
44
0.0000000001
40
0
40
0
40
0
40
0
40
0.082021687947464825
40
0.15224792559631339
40
0.15224792559631339
40
0.15224792559631339
40
0.15224792559631339
10
25.506588640545338
20
-21.764687174052206
30
0
10
25.519357157244791
20
-21.484891010347852
30
0
10
25.54305796405675
20
-20.965535866851187
30
0
10
25.840197454873408
20
-20.541467207230362
30
0
10
25.97725671801421
20
-20.345860295981375
30
0
11
25.506588640545338
21
-21.764687174052206
31
0
11
25.624256553982228
21
-20.952954464644399
31
0
11
25.97725671801421
21
-20.345860295981375
31
0
0
SPLINE
5
224
100
AcDbEntity
8
0
100
AcDbSpline
70
0
71
3
72
9
73
5
74
3
42
0.000000001
43
0.0000000001
44
0.0000000001
40
0
40
0
40
0
40
0
40
0.065996882041858565
40
0.1351994852450818
40
0.1351994852450818
40
0.1351994852450818
40
0.1351994852450818
10
25.97725671801421
20
-20.345860295981375
30
0
10
26.14864044297995
20
-20.198657465630951
30
0
10
26.499732656397779
20
-19.897101600046668
30
0
10
26.961770685856436
20
-19.860050405339681
30
0
10
27.198267402981251
20
-19.841085546702352
30
0
11
25.97725671801421
21
-20.345860295981375
31
0
11
26.517844620083302
21
-19.967279308527914
31
0
11
27.198267402981251
21
-19.841085546702352
31
0
0
SPLINE
5
225
100
AcDbEntity
8
0
100
AcDbSpline
70
0
71
3
72
9
73
5
74
3
42
0.000000001
43
0.0000000001
44
0.0000000001
40
0
40
0
40
0
40
0
40
0.067144033033297357
40
0.13158325128506887
40
0.13158325128506887
40
0.13158325128506887
40
0.13158325128506887
10
27.198267402981251
20
-19.841085546702352
30
0
10
27.427685295948095
20
-19.859943907509447
30
0
10
27.877279264254664
20
-19.896900943254884
30
0
10
28.218209080773043
20
-20.191403949599941
30
0
10
28.385169926022023
20
-20.335628562659231
30
0
11
27.198267402981251
21
-19.841085546702352
31
0
11
27.858226719234914
21
-19.964721375197378
31
0
11
28.385169926022023
21
-20.335628562659231
31
0
0
SPLINE
5
226
100
AcDbEntity
8
0
100
AcDbSpline
70
0
71
3
72
9
73
5
74
3
42
0.000000001
43
0.0000000001
44
0.0000000001
40
0
40
0
40
0
40
0
40
0.068808647791554003
40
0.14927468147138528
40
0.14927468147138528
40
0.14927468147138528
40
0.14927468147138528
10
28.385169926022023
20
-20.335628562659231
30
0
10
28.519247092281748
20
-20.527418494755789
30
0
10
28.810116436882687
20
-20.943490920853463
30
0
10
28.833176056749213
20
-21.452688576843059
30
0
10
28.845606270168759
20
-21.727169924468008
30
0
11
28.385169926022023
21
-20.335628562659231
31
0
11
28.730497780178517
21
-20.930785411089865
31
0
11
28.845606270168759
21
-21.727169924468008
31
0
0
SPLINE
5
227
100
AcDbEntity
8
0
100
AcDbSpline
70
0
71
3
72
9
73
5
74
3
42
0.000000001
43
0.0000000001
44
0.0000000001
40
0
40
0
40
0
40
0
40
0.0068218087481016453
40
0.016375024871013555
40
0.016375024871013555
40
0.016375024871013555
40
0.016375024871013555
10
28.845606270168759
20
-21.727169924468008
30
0
10
28.845389215281312
20
-21.749908831673267
30
0
10
28.844868198156448
20
-21.804491155038672
30
0
10
28.843181125447742
20
-21.859050580417172
30
0
10
28.842196884487606
20
-21.890880637854544
30
0
11
28.845606270168759
21
-21.727169924468008
31
0
11
28.844752731655575
21
-21.79538267204186
31
0
11
28.842196884487606
21
-21.890880637854544
31
0
0
LINE
5
228
100
AcDbEntity
8
0
100
AcDbLine
10
28.842196884487606
20
-21.890880637854547
30
0
11
26.140968027447201
21
-21.890880637854544
31
0
0
SPLINE
5
229
100
AcDbEntity
8
0
100
AcDbSpline
70
0
71
3
72
9
73
5
74
3
42
0.000000001
43
0.0000000001
44
0.0000000001
40
0
40
0
40
0
40
0
40
0.053662466108632269
40
0.099009647349189336
40
0.099009647349189336
40
0.099009647349189336
40
0.099009647349189336
10
26.140968027447194
20
-21.890880637854544
30
0
10
26.158708753488035
20
-22.072748399929011
30
0
10
26.191441185602997
20
-22.408302545926091
30
0
10
26.388409413737634
20
-22.680338296954865
30
0
10
26.478622379635311
20
-22.804932766646353
30
0
11
26.140968027447194
21
-21.890880637854544
31
0
11
26.242435398434139
21
-22.417825036734548
31
0
11
26.478622379635311
21
-22.804932766646353
31
0
0
SPLINE
5
230
100
AcDbEntity
8
0
100
AcDbSpline
70
0
71
3
72
9
73
5
74
3
42
0.000000001
43
0.0000000001
44
0.0000000001
40
0
40
0
40
0
40
0
40
0.041583412392179525
40
0.083942039399014748
40
0.083942039399014748
40
0.083942039399014748
40
0.083942039399014748
10
26.478622379635311
20
-22.804932766646353
30
0
10
26.586744439095785
20
-22.897444193507948
30
0
10
26.805004212717463
20
-23.0841916822719
30
0
10
27.091310015368776
20
-23.109401263006983
30
0
10
27.23578495058868
20
-23.12212246009728
30
0
11
26.478622379635311
21
-22.804932766646353
31
0
11
26.819687309597469
21
-23.042825036734548
31
0
11
27.23578495058868
21
-23.12212246009728
31
0
0
SPLINE
5
231
100
AcDbEntity
8
0
100
AcDbSpline
70
0
71
3
72
9
73
5
74
3
42
0.000000001
43
0.0000000001
44
0.0000000001
40
0
40
0
40
0
40
0
40
0.031604998239115903
40
0.061119444538969038
40
0.061119444538969038
40
0.061119444538969038
40
0.061119444538969038
10
27.23578495058868
20
-23.12212246009728
30
0
10
27.342746735127065
20
-23.115797328459692
30
0
10
27.549595183857299
20
-23.103565448887984
30
0
10
27.726671279265691
20
-22.996480113959986
30
0
10
27.812180939053036
20
-22.944768839568106
30
0
11
27.23578495058868
21
-23.12212246009728
31
0
11
27.548709335659481
21
-23.077783756941763
31
0
11
27.812180939053036
21
-22.944768839568106
31
0
0
SPLINE
5
232
100
AcDbEntity
8
0
100
AcDbSpline
70
0
71
3
72
9
73
5
74
3
42
0.000000001
43
0.0000000001
44
0.0000000001
40
0
40
0
40
0
40
0
40
0.031433177186157658
40
0.068842075790438301
40
0.068842075790438301
40
0.068842075790438301
40
0.068842075790438301
10
27.812180939053036
20
-22.944768839568106
30
0
10
27.889284542432375
20
-22.871991632060244
30
0
10
28.058149817365315
20
-22.712601634498093
30
0
10
28.144072751276468
20
-22.496196895641454
30
0
10
28.190763416622616
20
-22.378602200240103
30
0
11
27.812180939053036
21
-22.944768839568106
31
0
11
28.026199760769344
21
-22.714550667494741
31
0
11
28.190763416622616
21
-22.378602200240103
31
0
0
LINE
5
233
100
AcDbEntity
8
0
100
AcDbLine
10
26.175073805187672
20
-21.386105888575521
30
0
11
28.197584572170705
21
-21.386105888575521
31
0
0
SPLINE
5
234
100
AcDbEntity
8
0
100
AcDbSpline
70
0
71
3
72
9
73
5
74
3
42
0.000000001
43
0.0000000001
44
0.0000000001
40
0
40
0
40
0
40
0
40
0.040751895995107479
40
0.073178259604900736
40
0.073178259604900736
40
0.073178259604900736
40
0.073178259604900736
10
28.197584572170712
20
-21.386105888575521
30
0
10
28.182058189082003
20
-21.24900893233761
30
0
10
28.154177432502539
20
-21.002823658999059
30
0
10
28.023545463020682
20
-20.793376194444541
30
0
10
27.965660515163869
20
-20.700566940993276
30
0
11
28.197584572170712
21
-21.386105888575521
31
0
11
28.119140091274708
21
-20.986208193987814
31
0
11
27.965660515163869
21
-20.700566940993276
31
0
0
SPLINE
5
235
100
AcDbEntity
8
0
100
AcDbSpline
70
0
71
3
72
9
73
5
74
3
42
0.000000001
43
0.0000000001
44
0.0000000001
40
0
40
0
40
0
40
0
40
0.042919209926731282
40
0.08621430995370219
40
0.08621430995370219
40
0.08621430995370219
40
0.08621430995370219
10
27.965660515163869
20
-20.700566940993276
30
0
10
27.86030483684895
20
-20.597111469938937
30
0
10
27.648670766204798
20
-20.389294455993159
30
0
10
27.353378447691526
20
-20.360380370642964
30
0
10
27.205088558529347
20
-20.345860295981375
30
0
11
27.965660515163869
21
-20.700566940993276
31
0
11
27.628860893581837
21
-20.434537106245962
31
0
11
27.205088558529347
21
-20.345860295981375
31
0
0
SPLINE
5
236
100
AcDbEntity
8
0
100
AcDbSpline
70
0
71
3
72
9
73
5
74
3
42
0.000000001
43
0.0000000001
44
0.0000000001
40
0
40
0
40
0
40
0
40
0.039562121285871513
40
0.078121539038384188
40
0.078121539038384188
40
0.078121539038384188
40
0.078121539038384188
10
27.205088558529347
20
-20.345860295981375
30
0
10
27.070363015661322
20
-20.35703812835397
30
0
10
26.804326554153612
20
-20.37911049049427
30
0
10
26.596532750569381
20
-20.546381558339135
30
0
10
26.493969383572072
20
-20.628943615645376
30
0
11
27.205088558529347
21
-20.345860295981375
31
0
11
26.815848770473927
21
-20.416631274908987
31
0
11
26.493969383572072
21
-20.628943615645376
31
0
0
SPLINE
5
237
100
AcDbEntity
8
0
100
AcDbSpline
70
0
71
3
72
9
73
5
74
3
42
0.000000001
43
0.0000000001
44
0.0000000001
40
0
40
0
40
0
40
0
40
0.039943280519963612
40
0.083623495268278225
40
0.083623495268278225
40
0.083623495268278225
40
0.083623495268278225
10
26.493969383572072
20
-20.628943615645376
30
0
10
26.408464659427597
20
-20.734522167343691
30
0
10
26.229455729719447
20
-20.955556779509887
30
0
10
26.19373323107294
20
-21.238376670462152
30
0
10
26.175073805187672
20
-21.386105888575521
30
0
11
26.493969383572072
21
-20.628943615645376
31
0
11
26.270146789883107
21
-20.959775918215719
31
0
11
26.175073805187672
21
-21.386105888575521
31
0
0
LINE
5
238
100
AcDbEntity
8
0
100
AcDbLine
10
29.186671200130917
20
-23.545041852683035
30
0
11
30.509999218319393
21
-21.662367754668203
31
0
0
LINE
5
239
100
AcDbEntity
8
0
100
AcDbLine
10
30.509999218319393
20
-21.662367754668203
30
0
11
29.2855791476712
21
-19.92294090339562
31
0
0
LINE
5
240
100
AcDbEntity
8
0
100
AcDbLine
10
29.2855791476712
20
-19.92294090339562
30
0
11
30.052974644039601
21
-19.92294090339562
31
0
0
LINE
5
241
100
AcDbEntity
8
0
100
AcDbLine
10
30.052974644039601
20
-19.92294090339562
30
0
11
30.60890955004546
21
-20.772190564364401
31
0
0
SPLINE
5
242
100
AcDbEntity
8
0
100
AcDbSpline
70
0
71
3
72
9
73
5
74
3
42
0.000000001
43
0.0000000001
44
0.0000000001
40
0
40
0
40
0
40
0
40
0.02637425323658539
40
0.047797052805022146
40
0.047797052805022146
40
0.047797052805022146
40
0.047797052805022146
10
30.60890955004546
20
-20.772190564364401
30
0
10
30.656557082039416
20
-20.846082452267019
30
0
10
30.742906886233499
20
-20.979993901295085
30
0
10
30.824656584444927
20
-21.116758443146992
30
0
10
30.861297073696591
20
-21.178056770056692
30
0
11
30.60890955004546
21
-20.772190564364401
31
0
11
30.750451507900685
21
-20.994734936446157
31
0
11
30.861297073696591
21
-21.178056770056692
31
0
0
SPLINE
5
243
100
AcDbEntity
8
0
100
AcDbSpline
70
0
71
3
72
9
73
5
74
3
42
0.000000001
43
0.0000000001
44
0.0000000001
40
0
40
0
40
0
40
0
40
0.025659578047783582
40
0.048536513972251574
40
0.048536513972251574
40
0.048536513972251574
40
0.048536513972251574
10
30.861297073696591
20
-21.178056770056692
30
0
10
30.908966101829002
20
-21.107033433191123
30
0
10
30.999134710435278
20
-20.972688855282943
30
0
10
31.093214428286927
20
-20.841055206430958
30
0
10
31.137557449673146
20
-20.779011719912496
30
0
11
30.861297073696591
21
-21.178056770056692
31
0
11
31.005397262905568
21
-20.965744429320303
31
0
11
31.137557449673146
21
-20.779011719912496
31
0
0
LINE
5
244
100
AcDbEntity
8
0
100
AcDbLine
10
31.137557449673153
20
-20.779011719912496
30
0
11
31.748061600063771
21
-19.92294090339562
31
0
0
LINE
5
245
100
AcDbEntity
8
0
100
AcDbLine
10
31.748061600063771
20
-19.92294090339562
30
0
11
32.481351318691701
21
-19.922940903395617
31
0
0
LINE
5
246
100
AcDbEntity
8
0
100
AcDbLine
10
32.481351318691701
20
-19.922940903395617
30
0
11
31.229644241665333
21
-21.628261380881277
31
0
0
LINE
5
247
100
AcDbEntity
8
0
100
AcDbLine
10
31.229644241665333
20
-21.628261380881277
30
0
11
32.576847496365048
21
-23.545041852683035
31
0
0
LINE
5
248
100
AcDbEntity
8
0
100
AcDbLine
10
32.576847496365048
20
-23.545041852683035
30
0
11
31.823096695278622
21
-23.545041852683028
31
0
0
LINE
5
249
100
AcDbEntity
8
0
100
AcDbLine
10
31.823096695278622
20
-23.545041852683028
30
0
11
31.079576435421444
21
-22.419530325621572
31
0
0
LINE
5
250
100
AcDbEntity
8
0
100
AcDbLine
10
31.079576435421444
20
-22.419530325621572
30
0
11
30.881760540340878
21
-22.11598324129006
31
0
0
LINE
5
251
100
AcDbEntity
8
0
100
AcDbLine
10
30.881760540340878
20
-22.11598324129006
30
0
11
29.930191459988094
21
-23.545041852683035
31
0
0
LINE
5
252
100
AcDbEntity
8
0
100
AcDbLine
10
29.930191459988094
20
-23.545041852683035
30
0
11
29.186671200130917
21
-23.545041852683035
31
0
0
LINE
5
253
100
AcDbEntity
8
0
100
AcDbLine
10
8.8319633630261229
20
-31.34858863899133
30
0
11
8.2180480388150023
21
-31.34858863899133
31
0
0
LINE
5
254
100
AcDbEntity
8
0
100
AcDbLine
10
8.2180480388150023
20
-31.34858863899133
30
0
11
8.2180480388149988
21
-27.436583214491819
31
0
0
SPLINE
5
255
100
AcDbEntity
8
0
100
AcDbSpline
70
0
71
3
72
9
73
5
74
3
42
0.000000001
43
0.0000000001
44
0.0000000001
40
0
40
0
40
0
40
0
40
0.033221383533766878
40
0.072019391381009823
40
0.072019391381009823
40
0.072019391381009823
40
0.072019391381009823
10
8.2180480388149988
20
-27.436583214491819
30
0
10
8.1343550987860738
20
-27.509406396790794
30
0
10
7.9529203130359836
20
-27.667277042432936
30
0
10
7.7473031057703974
20
-27.792202598736246
30
0
10
7.6365337995037823
20
-27.859502011031125
30
0
11
8.2180480388149988
21
-27.436583214491819
31
0
11
7.9618236151680719
21
-27.648042612761472
31
0
11
7.6365337995037823
21
-27.859502011031125
31
0
0
SPLINE
5
256
100
AcDbEntity
8
0
100
AcDbSpline
70
0
71
3
72
9
73
5
74
3
42
0.000000001
43
0.0000000001
44
0.0000000001
40
0
40
0
40
0
40
0
40
0.038839516283908561
40
0.072063884829796088
40
0.072063884829796088
40
0.072063884829796088
40
0.072063884829796088
10
7.6365337995037823
20
-27.859502011031125
30
0
10
7.5240378473438119
20
-27.923919959292949
30
0
10
7.3153098271229968
20
-28.043442755884406
30
0
10
7.0928022452531669
20
-28.134644163235798
30
0
10
6.9902172413811474
20
-28.176691704482053
30
0
11
7.6365337995037823
21
-27.859502011031125
31
0
11
7.2950432923779278
21
-28.044529133528684
31
0
11
6.9902172413811474
21
-28.176691704482053
31
0
0
LINE
5
257
100
AcDbEntity
8
0
100
AcDbLine
10
6.9902172413811474
20
-28.176691704482057
30
0
11
6.9902172413811474
21
-27.583240442961667
31
0
0
SPLINE
5
258
100
AcDbEntity
8
0
100
AcDbSpline
70
0
71
3
72
9
73
5
74
3
42
0.000000001
43
0.0000000001
44
0.0000000001
40
0
40
0
40
0
40
0
40
0.055189733931113032
40
0.10774956083327356
40
0.10774956083327356
40
0.10774956083327356
40
0.10774956083327356
10
6.9902172413811456
20
-27.583240442961667
30
0
10
7.1548331415786501
20
-27.499724630106378
30
0
10
7.476220647715107
20
-27.336672708728695
30
0
10
7.7547574277107714
20
-27.108104864209793
30
0
10
7.8906266120419275
20
-26.996610336989377
30
0
11
6.9902172413811456
21
-27.583240442961667
31
0
11
7.4728229371056329
21
-27.315504723280881
31
0
11
7.8906266120419275
21
-26.996610336989377
31
0
0
SPLINE
5
259
100
AcDbEntity
8
0
100
AcDbSpline
70
0
71
3
72
9
73
5
74
3
42
0.000000001
43
0.0000000001
44
0.0000000001
40
0
40
0
40
0
40
0
40
0.047274586190072458
40
0.086673802720933252
40
0.086673802720933252
40
0.086673802720933252
40
0.086673802720933252
10
7.8906266120419275
20
-26.996610336989377
30
0
10
8.0066317144498349
20
-26.888541268917781
30
0
10
8.2193168836081405
20
-26.690406121872549
30
0
10
8.3685104369105918
20
-26.441341576605929
30
0
10
8.4363291886791956
20
-26.328124576300596
30
0
11
7.8906266120419275
21
-26.996610336989377
31
0
11
8.2197534767136347
21
-26.657251888007139
31
0
11
8.4363291886791956
21
-26.328124576300596
31
0
0
LINE
5
260
100
AcDbEntity
8
0
100
AcDbLine
10
8.4363291886791956
20
-26.328124576300592
30
0
11
8.8319633630261194
21
-26.328124576300596
31
0
0
LINE
5
261
100
AcDbEntity
8
0
100
AcDbLine
10
8.8319633630261194
20
-26.328124576300596
30
0
11
8.8319633630261229
21
-31.34858863899133
31
0
0
LWPOLYLINE
5
262
100
AcDbEntity
8
0
100
AcDbPolyline
90
4
70
1
43
0.0
10
10.748743834827881
20
-30.649407082289667
10
10.748743834827881
20
-31.348588638991327
10
11.447925391529541
20
-31.348588638991327
10
11.447925391529541
20
-30.649407082289667
0
LINE
5
263
100
AcDbEntity
8
0
100
AcDbLine
10
12.344924035404663
20
-30.038902931899042
30
0
11
12.989535155628662
21
-29.984332495421381
31
0
0
SPLINE
5
264
100
AcDbEntity
8
0
100
AcDbSpline
70
0
71
3
72
9
73
5
74
3
42
0.000000001
43
0.0000000001
44
0.0000000001
40
0
40
0
40
0
40
0
40
0.042907652245380776
40
0.079364517953730229
40
0.079364517953730229
40
0.079364517953730229
40
0.079364517953730229
10
12.989535155628662
20
-29.984332495421381
30
0
10
13.017250114194191
20
-30.12756770994028
30
0
10
13.068513332094851
20
-30.392503989587595
30
0
10
13.242260152022748
20
-30.597755579826604
30
0
10
13.322072449062805
20
-30.692039900511713
30
0
11
12.989535155628662
21
-29.984332495421381
31
0
11
13.108480992649536
21
-30.396592789381952
31
0
11
13.322072449062805
21
-30.692039900511713
31
0
0
SPLINE
5
265
100
AcDbEntity
8
0
100
AcDbSpline
70
0
71
3
72
9
73
5
74
3
42
0.000000001
43
0.0000000001
44
0.0000000001
40
0
40
0
40
0
40
0
40
0.033825840744845674
40
0.068485259299724308
40
0.068485259299724308
40
0.068485259299724308
40
0.068485259299724308
10
13.322072449062805
20
-30.692039900511713
30
0
10
13.414250903577237
20
-30.761173332018057
30
0
10
13.600879387016498
20
-30.901143865750118
30
0
10
13.833573020953283
20
-30.919692186189216
30
0
10
13.951335969303589
20
-30.929079228133173
30
0
11
13.322072449062805
21
-30.692039900511713
31
0
11
13.609845462177734
21
-30.869819098204584
31
0
11
13.951335969303589
21
-30.929079228133173
31
0
0
SPLINE
5
266
100
AcDbEntity
8
0
100
AcDbSpline
70
0
71
3
72
9
73
5
74
3
42
0.000000001
43
0.0000000001
44
0.0000000001
40
0
40
0
40
0
40
0
40
0.041772019430298589
40
0.084099995672911487
40
0.084099995672911487
40
0.084099995672911487
40
0.084099995672911487
10
13.951335969303589
20
-30.929079228133173
30
0
10
14.093779371138107
20
-30.914787672302669
30
0
10
14.38056199839191
20
-30.886014349875438
30
0
10
14.594167833106255
20
-30.692322690658244
30
0
10
14.701676788662414
20
-30.594836645812002
30
0
11
13.951335969303589
21
-30.929079228133173
31
0
11
14.360613050793152
21
-30.845518284529657
31
0
11
14.701676788662414
21
-30.594836645812002
31
0
0
SPLINE
5
267
100
AcDbEntity
8
0
100
AcDbSpline
70
0
71
3
72
9
73
5
74
3
42
0.000000001
43
0.0000000001
44
0.0000000001
40
0
40
0
40
0
40
0
40
0.045185835207535892
40
0.095569073827526857
40
0.095569073827526857
40
0.095569073827526857
40
0.095569073827526857
10
14.701676788662414
20
-30.594836645812002
30
0
10
14.79113429730929
20
-30.469784916527153
30
0
10
14.980338971938693
20
-30.205297652025045
30
0
10
14.998866949616311
20
-29.879714516755385
30
0
10
15.008634748791197
20
-29.708069735259024
30
0
11
14.701676788662414
21
-30.594836645812002
31
0
11
14.931894960735779
21
-30.206023627013174
31
0
11
15.008634748791197
21
-29.708069735259024
31
0
0
SPLINE
5
268
100
AcDbEntity
8
0
100
AcDbSpline
70
0
71
3
72
9
73
5
74
3
42
0.000000001
43
0.0000000001
44
0.0000000001
40
0
40
0
40
0
40
0
40
0.047556984527479876
40
0.089725427864787793
40
0.089725427864787793
40
0.089725427864787793
40
0.089725427864787793
10
15.008634748791197
20
-29.708069735259024
30
0
10
14.999578040814034
20
-29.545724804246206
30
0
10
14.982490813640752
20
-29.239429765956153
30
0
10
14.799578215685557
20
-28.99442787845997
30
0
10
14.713614406918028
20
-28.879283838957754
30
0
11
15.008634748791197
21
-29.708069735259024
31
0
11
14.934879365299681
21
-29.23825400421044
31
0
11
14.713614406918028
21
-28.879283838957754
31
0
0
SPLINE
5
269
100
AcDbEntity
8
0
100
AcDbSpline
70
0
71
3
72
9
73
5
74
3
42
0.000000001
43
0.0000000001
44
0.0000000001
40
0
40
0
40
0
40
0
40
0.040971087252518586
40
0.084819994983781122
40
0.084819994983781122
40
0.084819994983781122
40
0.084819994983781122
10
14.713614406918028
20
-28.879283838957754
30
0
10
14.605131658237811
20
-28.790777551037571
30
0
10
14.380546302663264
20
-28.607548269101393
30
0
10
14.090861125397378
20
-28.586578348582222
30
0
10
13.941104235981443
20
-28.575737648695917
30
0
11
14.713614406918028
21
-28.879283838957754
31
0
11
14.372976842258909
21
-28.651623898238153
31
0
11
13.941104235981443
21
-28.575737648695917
31
0
0
SPLINE
5
270
100
AcDbEntity
8
0
100
AcDbSpline
70
0
71
3
72
9
73
5
74
3
42
0.000000001
43
0.0000000001
44
0.0000000001
40
0
40
0
40
0
40
0
40
0.028423290049500446
40
0.055688596939296328
40
0.055688596939296328
40
0.055688596939296328
40
0.055688596939296328
10
13.941104235981443
20
-28.575737648695917
30
0
10
13.845476300384412
20
-28.580869353899381
30
0
10
13.658116372933167
20
-28.590923695328165
30
0
10
13.488619552734313
20
-28.67116894161277
30
0
10
13.405633392666319
20
-28.71045725891015
30
0
11
13.941104235981443
21
-28.575737648695917
31
0
11
13.658873858784178
21
-28.609417849272699
31
0
11
13.405633392666319
21
-28.71045725891015
31
0
0
SPLINE
5
271
100
AcDbEntity
8
0
100
AcDbSpline
70
0
71
3
72
9
73
5
74
3
42
0.000000001
43
0.0000000001
44
0.0000000001
40
0
40
0
40
0
40
0
40
0.026341922983509559
40
0.051680687657779362
40
0.051680687657779362
40
0.051680687657779362
40
0.051680687657779362
10
13.405633392666319
20
-28.71045725891015
30
0
10
13.330777078397304
20
-28.757983960695697
30
0
10
13.183915142791031
20
-28.851227443030709
30
0
10
13.080947278139078
20
-28.991347783803832
30
0
10
13.030462684963682
20
-29.06004803726098
30
0
11
13.405633392666319
21
-28.71045725891015
31
0
11
13.192468109463194
21
-28.86521595069787
31
0
11
13.030462684963682
21
-29.06004803726098
31
0
0
LINE
5
272
100
AcDbEntity
8
0
100
AcDbLine
10
13.030462684963682
20
-29.060048037260977
30
0
11
12.454064312313536
21
-28.985014134139032
31
0
0
LINE
5
273
100
AcDbEntity
8
0
100
AcDbLine
10
12.454064312313536
20
-28.985014134139032
30
0
11
12.938375892971493
21
-26.416801386565179
31
0
0
LINE
5
274
100
AcDbEntity
8
0
100
AcDbLine
10
12.938375892971493
20
-26.416801386565179
30
0
11
15.424732985828854
21
-26.416801386565179
31
0
0
LINE
5
275
100
AcDbEntity
8
0
100
AcDbLine
10
15.424732985828854
20
-26.416801386565179
30
0
11
15.424732985828854
21
-27.003431492537469
31
0
0
LINE
5
276
100
AcDbEntity
8
0
100
AcDbLine
10
15.424732985828854
20
-27.003431492537469
30
0
11
13.4295080331311
21
-27.003431492537469
31
0
0
LINE
5
277
100
AcDbEntity
8
0
100
AcDbLine
10
13.4295080331311
20
-27.003431492537469
30
0
11
13.16006702456329
21
-28.347224169463129
31
0
0
SPLINE
5
278
100
AcDbEntity
8
0
100
AcDbSpline
70
0
71
3
72
9
73
5
74
3
42
0.000000001
43
0.0000000001
44
0.0000000001
40
0
40
0
40
0
40
0
40
0.051785151952254693
40
0.10076328905696237
40
0.10076328905696237
40
0.10076328905696237
40
0.10076328905696237
10
13.160067024563292
20
-28.347224169463129
30
0
10
13.309557904500458
20
-28.255725982478136
30
0
10
13.600436509247551
20
-28.077689268945708
30
0
10
13.939840452823479
20
-28.047916661889076
30
0
10
14.104814949367979
20
-28.033445053786249
30
0
11
13.160067024563292
21
-28.347224169463129
31
0
11
13.621356311176756
21
-28.111889534682245
31
0
11
14.104814949367979
21
-28.033445053786249
31
0
0
SPLINE
5
279
100
AcDbEntity
8
0
100
AcDbSpline
70
0
71
3
72
9
73
5
74
3
42
0.000000001
43
0.0000000001
44
0.0000000001
40
0
40
0
40
0
40
0
40
0.061424228075736213
40
0.12201384122658403
40
0.12201384122658403
40
0.12201384122658403
40
0.12201384122658403
10
14.104814949367979
20
-28.033445053786249
30
0
10
14.314048025912305
20
-28.051823197666693
30
0
10
14.729671179521194
20
-28.088329768440403
30
0
10
15.050530262992368
20
-28.354757569085969
30
0
10
15.209862413738707
20
-28.487060242384878
30
0
11
14.104814949367979
21
-28.033445053786249
31
0
11
14.708497944210508
21
-28.146848850935903
31
0
11
15.209862413738707
21
-28.487060242384878
31
0
0
SPLINE
5
280
100
AcDbEntity
8
0
100
AcDbSpline
70
0
71
3
72
9
73
5
74
3
42
0.000000001
43
0.0000000001
44
0.0000000001
40
0
40
0
40
0
40
0
40
0.061868102767993365
40
0.12764043358708155
40
0.12764043358708155
40
0.12764043358708155
40
0.12764043358708155
10
15.209862413738707
20
-28.487060242384878
30
0
10
15.341137886389138
20
-28.652503508230023
30
0
10
15.611973058291627
20
-28.993830447989719
30
0
10
15.64371209437172
20
-29.429170992329983
30
0
10
15.660067024563292
20
-29.653499298781362
30
0
11
15.209862413738707
21
-28.487060242384878
31
0
11
15.547515573833921
21
-29.005477600783315
31
0
11
15.660067024563292
21
-29.653499298781362
31
0
0
SPLINE
5
281
100
AcDbEntity
8
0
100
AcDbSpline
70
0
71
3
72
9
73
5
74
3
42
0.000000001
43
0.0000000001
44
0.0000000001
40
0
40
0
40
0
40
0
40
0.064035940572461467
40
0.12570279479358437
40
0.12570279479358437
40
0.12570279479358437
40
0.12570279479358437
10
15.660067024563292
20
-29.653499298781362
30
0
10
15.644860809304362
20
-29.870446208706181
30
0
10
15.615010950940569
20
-30.296313817670601
30
0
10
15.379814656950611
20
-30.652180716623114
30
0
10
15.26443285021637
20
-30.826760702818838
30
0
11
15.660067024563292
21
-29.653499298781362
31
0
11
15.561158480976562
21
-30.286173992842642
31
0
11
15.26443285021637
21
-30.826760702818838
31
0
0
SPLINE
5
282
100
AcDbEntity
8
0
100
AcDbSpline
70
0
71
3
72
9
73
5
74
3
42
0.000000001
43
0.0000000001
44
0.0000000001
40
0
40
0
40
0
40
0
40
0.072853563603011415
40
0.1488223034207134
40
0.1488223034207134
40
0.1488223034207134
40
0.1488223034207134
10
15.26443285021637
20
-30.826760702818838
30
0
10
15.086698364199652
20
-31.003807802181143
30
0
10
14.723629568410356
20
-31.365472432406118
30
0
10
14.212334675694184
20
-31.410744447007612
30
0
10
13.951335969303589
20
-31.433854275435419
30
0
11
15.26443285021637
21
-30.826760702818838
31
0
11
14.695707979534607
21
-31.282080584258047
31
0
11
13.951335969303589
21
-31.433854275435419
31
0
0
SPLINE
5
283
100
AcDbEntity
8
0
100
AcDbSpline
70
0
71
3
72
9
73
5
74
3
42
0.000000001
43
0.0000000001
44
0.0000000001
40
0
40
0
40
0
40
0
40
0.062677598843931204
40
0.11979410884863652
40
0.11979410884863652
40
0.11979410884863652
40
0.11979410884863652
10
13.951335969303589
20
-31.433854275435419
30
0
10
13.738115185959572
20
-31.421108932225842
30
0
10
13.330591697507078
20
-31.396749080222524
30
0
10
12.996874258920048
20
-31.163210860079744
30
0
10
12.837761464451294
20
-31.051862412184686
30
0
11
13.951335969303589
21
-31.433854275435419
31
0
11
13.331878009174805
21
-31.338355713576288
31
0
11
12.837761464451294
21
-31.051862412184686
31
0
0
SPLINE
5
284
100
AcDbEntity
8
0
100
AcDbSpline
70
0
71
3
72
9
73
5
74
3
42
0.000000001
43
0.0000000001
44
0.0000000001
40
0
40
0
40
0
40
0
40
0.05587669774326591
40
0.11479472713937788
40
0.11479472713937788
40
0.11479472713937788
40
0.11479472713937788
10
12.837761464451294
20
-31.051862412184686
30
0
10
12.709129111043165
20
-30.911501325771798
30
0
10
12.444863030419931
20
-30.623139391969158
30
0
10
12.378820271717766
20
-30.237057987493124
30
0
10
12.344924035404663
20
-30.038902931899042
30
0
11
12.837761464451294
21
-31.051862412184686
31
0
11
12.498829188679199
21
-30.607626610487909
31
0
11
12.344924035404663
21
-30.038902931899042
31
0
0
LINE
5
285
100
AcDbEntity
8
0
100
AcDbLine
10
16.400176706646423
20
-31.348588638991323
30
0
11
16.40017670664642
21
-27.726488285750357
31
0
0
LINE
5
286
100
AcDbEntity
8
0
100
AcDbLine
10
16.40017670664642
20
-27.726488285750357
30
0
11
16.949290457104183
21
-27.726488285750357
31
0
0
LINE
5
287
100
AcDbEntity
8
0
100
AcDbLine
10
16.949290457104183
20
-27.726488285750357
30
0
11
16.949290457104183
21
-28.234672718733755
31
0
0
SPLINE
5
288
100
AcDbEntity
8
0
100
AcDbSpline
70
0
71
3
72
9
73
5
74
3
42
0.000000001
43
0.0000000001
44
0.0000000001
40
0
40
0
40
0
40
0
40
0.031157767847909461
40
0.062835188265385644
40
0.062835188265385644
40
0.062835188265385644
40
0.062835188265385644
10
16.949290457104183
20
-28.234672718733755
30
0
10
17.011208331747984
20
-28.150111705257032
30
0
10
17.136076753941353
20
-27.979579360717516
30
0
10
17.313473652430687
20
-27.864601718324199
30
0
10
17.402905645702816
20
-27.806637459486929
30
0
11
16.949290457104183
21
-28.234672718733755
31
0
11
17.147959890697933
21
-27.994649582594839
31
0
11
17.402905645702816
21
-27.806637459486929
31
0
0
SPLINE
5
289
100
AcDbEntity
8
0
100
AcDbSpline
70
0
71
3
72
9
73
5
74
3
42
0.000000001
43
0.0000000001
44
0.0000000001
40
0
40
0
40
0
40
0
40
0.032617100332639107
40
0.067047750710442514
40
0.067047750710442514
40
0.067047750710442514
40
0.067047750710442514
10
17.402905645702816
20
-27.806637459486929
30
0
10
17.502084181310448
20
-27.759395494526107
30
0
10
17.705955698503317
20
-27.662284854479573
30
0
10
17.931628364365373
20
-27.650621467710039
30
0
10
18.047516765926815
20
-27.644632034987417
30
0
11
17.402905645702816
21
-27.806637459486929
31
0
11
17.705600681637264
21
-27.685133391112295
31
0
11
18.047516765926815
21
-27.644632034987417
31
0
0
SPLINE
5
290
100
AcDbEntity
8
0
100
AcDbSpline
70
0
71
3
72
9
73
5
74
3
42
0.000000001
43
0.0000000001
44
0.0000000001
40
0
40
0
40
0
40
0
40
0.036859367508036228
40
0.06879592624298711
40
0.06879592624298711
40
0.06879592624298711
40
0.06879592624298711
10
18.047516765926815
20
-27.644632034987417
30
0
10
18.172018199562388
20
-27.649371913027394
30
0
10
18.4043930888947
20
-27.658218627501483
30
0
10
18.611385651980569
20
-27.763076586795414
30
0
10
18.707476082180477
20
-27.811753922194448
30
0
11
18.047516765926815
21
-27.644632034987417
31
0
11
18.413734855984188
21
-27.686412506789175
31
0
11
18.707476082180477
21
-27.811753922194448
31
0
0
SPLINE
5
291
100
AcDbEntity
8
0
100
AcDbSpline
70
0
71
3
72
9
73
5
74
3
42
0.000000001
43
0.0000000001
44
0.0000000001
40
0
40
0
40
0
40
0
40
0.029724857736156827
40
0.06003461692780887
40
0.06003461692780887
40
0.06003461692780887
40
0.06003461692780887
10
18.707476082180477
20
-27.811753922194448
30
0
10
18.787153674533155
20
-27.873482450758708
30
0
10
18.948076689777878
20
-27.998154151419694
30
0
10
19.029567031368298
20
-28.184786229344894
30
0
10
19.070709171627499
20
-28.279011421889273
30
0
11
18.707476082180477
21
-27.811753922194448
31
0
11
18.927035751675106
21
-28.01212924072167
31
0
11
19.070709171627499
21
-28.279011421889273
31
0
0
SPLINE
5
292
100
AcDbEntity
8
0
100
AcDbSpline
70
0
71
3
72
9
73
5
74
3
42
0.000000001
43
0.0000000001
44
0.0000000001
40
0
40
0
40
0
40
0
40
0.068625275153660514
40
0.13302345982348901
40
0.13302345982348901
40
0.13302345982348901
40
0.13302345982348901
10
19.070709171627499
20
-28.279011421889273
30
0
10
19.22089030610903
20
-28.094039234651611
30
0
10
19.512001912790648
20
-27.735488536495897
30
0
10
19.968434627696475
20
-27.674269077965221
30
0
10
20.189398947094421
20
-27.644632034987417
30
0
11
19.070709171627499
21
-28.279011421889273
31
0
11
19.565251293514706
21
-27.803226881712881
31
0
11
20.189398947094421
21
-27.644632034987417
31
0
0
SPLINE
5
293
100
AcDbEntity
8
0
100
AcDbSpline
70
0
71
3
72
9
73
5
74
3
42
0.000000001
43
0.0000000001
44
0.0000000001
40
0
40
0
40
0
40
0
40
0.048244197615794425
40
0.08997004558732577
40
0.08997004558732577
40
0.08997004558732577
40
0.08997004558732577
10
20.189398947094421
20
-27.644632034987417
30
0
10
20.354487637483558
20
-27.653041198280732
30
0
10
20.662359624878796
20
-27.668723349549502
30
0
10
20.905447015578478
20
-27.85614260848704
30
0
10
21.018184843395691
20
-27.943062954634634
30
0
11
20.189398947094421
21
-27.644632034987417
31
0
11
20.666037025783996
21
-27.719240360945669
31
0
11
21.018184843395691
21
-27.943062954634634
31
0
0
SPLINE
5
294
100
AcDbEntity
8
0
100
AcDbSpline
70
0
71
3
72
9
73
5
74
3
42
0.000000001
43
0.0000000001
44
0.0000000001
40
0
40
0
40
0
40
0
40
0.043694533674199773
40
0.098194696279418986
40
0.098194696279418986
40
0.098194696279418986
40
0.098194696279418986
10
21.018184843395691
20
-27.943062954634634
30
0
10
21.102476734269366
20
-28.065389489719248
30
0
10
21.29190584420963
20
-28.340293830136545
30
0
10
21.302312696387105
20
-28.675940081391545
30
0
10
21.30808872256134
20
-28.862230950087515
30
0
11
21.018184843395691
21
-27.943062954634634
31
0
11
21.235613050793152
21
-28.322069817275015
31
0
11
21.30808872256134
21
-28.862230950087515
31
0
0
LINE
5
295
100
AcDbEntity
8
0
100
AcDbLine
10
21.30808872256134
20
-28.862230950087515
30
0
11
21.30808872256134
21
-31.348588638991323
31
0
0
LINE
5
296
100
AcDbEntity
8
0
100
AcDbLine
10
21.30808872256134
20
-31.348588638991323
30
0
11
20.697584572170715
21
-31.348588638991323
31
0
0
LINE
5
297
100
AcDbEntity
8
0
100
AcDbLine
10
20.697584572170715
20
-31.348588638991323
30
0
11
20.697584572170715
21
-29.066869192809072
31
0
0
SPLINE
5
298
100
AcDbEntity
8
0
100
AcDbSpline
70
0
71
3
72
9
73
5
74
3
42
0.000000001
43
0.0000000001
44
0.0000000001
40
0
40
0
40
0
40
0
40
0.031711417363639034
40
0.0535345464758301
40
0.0535345464758301
40
0.0535345464758301
40
0.0535345464758301
10
20.697584572170715
20
-29.066869192809072
30
0
10
20.697559490029306
20
-28.960650515508817
30
0
10
20.697517146886788
20
-28.781334383046971
30
0
10
20.655163960520909
20
-28.607413509263694
30
0
10
20.63789886507843
20
-28.536515408247915
30
0
11
20.697584572170715
21
-29.066869192809072
31
0
11
20.682663145397644
21
-28.750106268614736
31
0
11
20.63789886507843
21
-28.536515408247915
31
0
0
SPLINE
5
299
100
AcDbEntity
8
0
100
AcDbSpline
70
0
71
3
72
9
73
5
74
3
42
0.000000001
43
0.0000000001
44
0.0000000001
40
0
40
0
40
0
40
0
40
0.016863401648038109
40
0.034393975977389704
40
0.034393975977389704
40
0.034393975977389704
40
0.034393975977389704
10
20.63789886507843
20
-28.536515408247915
30
0
10
20.613462680388448
20
-28.484836803014574
30
0
10
20.563623533652358
20
-28.379435013741091
30
0
10
20.469365981761438
20
-28.310656951829198
30
0
10
20.421323004101257
20
-28.275600844115225
30
0
11
20.63789886507843
21
-28.536515408247915
31
0
11
20.553912344311218
21
-28.390283756941763
31
0
11
20.421323004101257
21
-28.275600844115225
31
0
0
SPLINE
5
300
100
AcDbEntity
8
0
100
AcDbSpline
70
0
71
3
72
9
73
5
74
3
42
0.000000001
43
0.0000000001
44
0.0000000001
40
0
40
0
40
0
40
0
40
0.018596881951348489
40
0.038532527007803866
40
0.038532527007803866
40
0.038532527007803866
40
0.038532527007803866
10
20.421323004101257
20
-28.275600844115225
30
0
10
20.365605010874965
20
-28.246761523593811
30
0
10
20.250157965266506
20
-28.187006780847952
30
0
10
20.120206620513244
20
-28.180208792393309
30
0
10
20.052973451946716
20
-28.176691704482046
30
0
11
20.421323004101257
21
-28.275600844115225
31
0
11
20.250790539120178
21
-28.201418095320669
31
0
11
20.052973451946716
21
-28.176691704482046
31
0
0
SPLINE
5
301
100
AcDbEntity
8
0
100
AcDbSpline
70
0
71
3
72
9
73
5
74
3
42
0.000000001
43
0.0000000001
44
0.0000000001
40
0
40
0
40
0
40
0
40
0.035531519910221014
40
0.069798356875437936
40
0.069798356875437936
40
0.069798356875437936
40
0.069798356875437936
10
20.052973451946716
20
-28.176691704482046
30
0
10
19.931836924488699
20
-28.18649021563802
30
0
10
19.693875514576323
20
-28.205738476906895
30
0
10
19.509239401900594
20
-28.356681216208834
30
0
10
19.418594065044857
20
-28.430785113066641
30
0
11
20.052973451946716
21
-28.176691704482046
31
0
11
19.703382673595883
21
-28.240214758604971
31
0
11
19.418594065044857
21
-28.430785113066641
31
0
0
SPLINE
5
302
100
AcDbEntity
8
0
100
AcDbSpline
70
0
71
3
72
9
73
5
74
3
42
0.000000001
43
0.0000000001
44
0.0000000001
40
0
40
0
40
0
40
0
40
0.038078751165564334
40
0.086792250545777133
40
0.086792250545777133
40
0.086792250545777133
40
0.086792250545777133
10
19.418594065044857
20
-28.430785113066641
30
0
10
19.345262620809315
20
-28.537471166736243
30
0
10
19.178119505918232
20
-28.780638876191116
30
0
10
19.170489180250744
20
-29.077567185461
30
0
10
19.166206541393734
20
-29.244222813338247
30
0
11
19.418594065044857
21
-28.430785113066641
31
0
11
19.229304018352963
21
-28.761191540450064
31
0
11
19.166206541393734
21
-29.244222813338247
31
0
0
LINE
5
303
100
AcDbEntity
8
0
100
AcDbLine
10
19.166206541393734
20
-29.244222813338247
30
0
11
19.166206541393738
21
-31.348588638991323
31
0
0
LINE
5
304
100
AcDbEntity
8
0
100
AcDbLine
10
19.166206541393738
20
-31.348588638991323
30
0
11
18.552291813229065
21
-31.348588638991323
31
0
0
LINE
5
305
100
AcDbEntity
8
0
100
AcDbLine
10
18.552291813229065
20
-31.348588638991323
30
0
11
18.552291813229061
21
-28.995245867461172
31
0
0
SPLINE
5
306
100
AcDbEntity
8
0
100
AcDbSpline
70
0
71
3
72
9
73
5
74
3
42
0.000000001
43
0.0000000001
44
0.0000000001
40
0
40
0
40
0
40
0
40
0.036007768404019293
40
0.063954125570066911
40
0.063954125570066911
40
0.063954125570066911
40
0.063954125570066911
10
18.552291813229061
20
-28.995245867461172
30
0
10
18.549873542715915
20
-28.87319573158134
30
0
10
18.545578403558029
20
-28.656420017287665
30
0
10
18.445816345234281
20
-28.464983932055198
30
0
10
18.402222814892269
20
-28.381331139296499
30
0
11
18.552291813229061
21
-28.995245867461172
31
0
11
18.514774265621639
21
-28.637128048628774
31
0
11
18.402222814892269
21
-28.381331139296499
31
0
0
SPLINE
5
307
100
AcDbEntity
8
0
100
AcDbSpline
70
0
71
3
72
9
73
5
74
3
42
0.000000001
43
0.0000000001
44
0.0000000001
40
0
40
0
40
0
40
0
40
0.025037487945270411
40
0.054811755659590976
40
0.054811755659590976
40
0.054811755659590976
40
0.054811755659590976
10
18.402222814892269
20
-28.381331139296499
30
0
10
18.340001607807984
20
-28.321761865020694
30
0
10
18.203787718978404
20
-28.19135355434824
30
0
10
18.014120377244996
20
-28.181852673465933
30
0
10
17.91109127077911
20
-28.176691704482046
30
0
11
18.402222814892269
21
-28.381331139296499
31
0
11
18.204405727718807
21
-28.227851563185659
31
0
11
17.91109127077911
21
-28.176691704482046
31
0
0
SPLINE
5
308
100
AcDbEntity
8
0
100
AcDbSpline
70
0
71
3
72
9
73
5
74
3
42
0.000000001
43
0.0000000001
44
0.0000000001
40
0
40
0
40
0
40
0
40
0.025172386436394391
40
0.050326702417079192
40
0.050326702417079192
40
0.050326702417079192
40
0.050326702417079192
10
17.91109127077911
20
-28.176691704482046
30
0
10
17.826336110535934
20
-28.182368130136748
30
0
10
17.656886633083793
20
-28.193716906520685
30
0
10
17.506875025042071
20
-28.273327425051981
30
0
10
17.431896152828671
20
-28.313118391722647
30
0
11
17.91109127077911
21
-28.176691704482046
31
0
11
17.661688747738339
21
-28.21079867431542
31
0
11
17.431896152828671
21
-28.313118391722647
31
0
0
SPLINE
5
309
100
AcDbEntity
8
0
100
AcDbSpline
70
0
71
3
72
9
73
5
74
3
42
0.000000001
43
0.0000000001
44
0.0000000001
40
0
40
0
40
0
40
0
40
0.02533926072645315
40
0.051812027333175498
40
0.051812027333175498
40
0.051812027333175498
40
0.051812027333175498
10
17.431896152828671
20
-28.313118391722647
30
0
10
17.363271898253196
20
-28.364773267180048
30
0
10
17.222953607511919
20
-28.470393705281332
30
0
10
17.150182264982231
20
-28.630406450141244
30
0
10
17.113000574444271
20
-28.712163143843618
30
0
11
17.431896152828671
21
-28.313118391722647
31
0
11
17.242179336880184
21
-28.481092625349966
31
0
11
17.113000574444271
21
-28.712163143843618
31
0
0
SPLINE
5
310
100
AcDbEntity
8
0
100
AcDbSpline
70
0
71
3
72
9
73
5
74
3
42
0.000000001
43
0.0000000001
44
0.0000000001
40
0
40
0
40
0
40
0
40
0.032907029705371037
40
0.076633234080068238
40
0.076633234080068238
40
0.076633234080068238
40
0.076633234080068238
10
17.113000574444271
20
-28.712163143843618
30
0
10
17.084296658987952
20
-28.81846140444393
30
0
10
17.017451553493075
20
-29.066006672425317
30
0
10
17.015312914339688
20
-29.322801178779159
30
0
10
17.014092626903988
20
-29.469325714796987
30
0
11
17.113000574444271
21
-28.712163143843618
31
0
11
17.038820209835507
21
-29.032763415068594
31
0
11
17.014092626903988
21
-29.469325714796987
31
0
0
LINE
5
311
100
AcDbEntity
8
0
100
AcDbLine
10
17.014092626903992
20
-29.46932571479698
30
0
11
17.014092626903988
21
-31.348588638991323
31
0
0
LINE
5
312
100
AcDbEntity
8
0
100
AcDbLine
10
17.014092626903988
20
-31.348588638991323
30
0
11
16.400176706646423
21
-31.348588638991323
31
0
0
LINE
5
313
100
AcDbEntity
8
0
100
AcDbLine
10
22.218729677532654
20
-31.348588638991323
30
0
11
22.218729677532654
21
-27.726488285750357
31
0
0
LINE
5
314
100
AcDbEntity
8
0
100
AcDbLine
10
22.218729677532654
20
-27.726488285750357
30
0
11
22.767843427990417
21
-27.726488285750357
31
0
0
LINE
5
315
100
AcDbEntity
8
0
100
AcDbLine
10
22.767843427990417
20
-27.726488285750357
30
0
11
22.767843427990417
21
-28.234672718733755
31
0
0
SPLINE
5
316
100
AcDbEntity
8
0
100
AcDbSpline
70
0
71
3
72
9
73
5
74
3
42
0.000000001
43
0.0000000001
44
0.0000000001
40
0
40
0
40
0
40
0
40
0.031157767847909461
40
0.062835188265385644
40
0.062835188265385644
40
0.062835188265385644
40
0.062835188265385644
10
22.767843427990417
20
-28.234672718733755
30
0
10
22.829761302634214
20
-28.150111705257025
30
0
10
22.954629724827591
20
-27.979579360717509
30
0
10
23.132026623316921
20
-27.864601718324195
30
0
10
23.22145861658905
20
-27.806637459486929
30
0
11
22.767843427990417
21
-28.234672718733755
31
0
11
22.966512861584167
21
-27.994649582594839
31
0
11
23.22145861658905
21
-27.806637459486929
31
0
0
SPLINE
5
317
100
AcDbEntity
8
0
100
AcDbSpline
70
0
71
3
72
9
73
5
74
3
42
0.000000001
43
0.0000000001
44
0.0000000001
40
0
40
0
40
0
40
0
40
0.032617100332639107
40
0.067047750710442514
40
0.067047750710442514
40
0.067047750710442514
40
0.067047750710442514
10
23.22145861658905
20
-27.806637459486929
30
0
10
23.320637152196682
20
-27.759395494526107
30
0
10
23.524508669389554
20
-27.662284854479569
30
0
10
23.750181335251604
20
-27.650621467710032
30
0
10
23.866069736813049
20
-27.644632034987417
30
0
11
23.22145861658905
21
-27.806637459486929
31
0
11
23.524153652523498
21
-27.685133391112295
31
0
11
23.866069736813049
21
-27.644632034987417
31
0
0
SPLINE
5
318
100
AcDbEntity
8
0
100
AcDbSpline
70
0
71
3
72
9
73
5
74
3
42
0.000000001
43
0.0000000001
44
0.0000000001
40
0
40
0
40
0
40
0
40
0.036859367508036228
40
0.06879592624298711
40
0.06879592624298711
40
0.06879592624298711
40
0.06879592624298711
10
23.866069736813049
20
-27.644632034987417
30
0
10
23.990571170448618
20
-27.649371913027394
30
0
10
24.222946059780934
20
-27.658218627501483
30
0
10
24.4299386228668
20
-27.763076586795407
30
0
10
24.526029053066711
20
-27.811753922194448
30
0
11
23.866069736813049
21
-27.644632034987417
31
0
11
24.232287826870422
21
-27.686412506789175
31
0
11
24.526029053066711
21
-27.811753922194448
31
0
0
SPLINE
5
319
100
AcDbEntity
8
0
100
AcDbSpline
70
0
71
3
72
9
73
5
74
3
42
0.000000001
43
0.0000000001
44
0.0000000001
40
0
40
0
40
0
40
0
40
0.029724857736156827
40
0.06003461692780887
40
0.06003461692780887
40
0.06003461692780887
40
0.06003461692780887
10
24.526029053066711
20
-27.811753922194448
30
0
10
24.605706645419385
20
-27.873482450758704
30
0
10
24.766629660664105
20
-27.998154151419694
30
0
10
24.848120002254529
20
-28.184786229344894
30
0
10
24.889262142513733
20
-28.279011421889273
30
0
11
24.526029053066711
21
-27.811753922194448
31
0
11
24.74558872256134
21
-28.01212924072167
31
0
11
24.889262142513733
21
-28.279011421889273
31
0
0
SPLINE
5
320
100
AcDbEntity
8
0
100
AcDbSpline
70
0
71
3
72
9
73
5
74
3
42
0.000000001
43
0.0000000001
44
0.0000000001
40
0
40
0
40
0
40
0
40
0.068625275153660514
40
0.13302345982348901
40
0.13302345982348901
40
0.13302345982348901
40
0.13302345982348901
10
24.889262142513733
20
-28.279011421889273
30
0
10
25.039443276995264
20
-28.094039234651603
30
0
10
25.330554883676875
20
-27.735488536495893
30
0
10
25.786987598582705
20
-27.674269077965221
30
0
10
26.007951917980652
20
-27.644632034987417
30
0
11
24.889262142513733
21
-28.279011421889273
31
0
11
25.38380426440094
21
-27.803226881712881
31
0
11
26.007951917980652
21
-27.644632034987417
31
0
0
SPLINE
5
321
100
AcDbEntity
8
0
100
AcDbSpline
70
0
71
3
72
9
73
5
74
3
42
0.000000001
43
0.0000000001
44
0.0000000001
40
0
40
0
40
0
40
0
40
0.048244197615794425
40
0.089970146194775669
40
0.089970146194775669
40
0.089970146194775669
40
0.089970146194775669
10
26.007951917980652
20
-27.644632034987417
30
0
10
26.173040565982433
20
-27.65304127245232
30
0
10
26.480912818602423
20
-27.668723579579279
30
0
10
26.724000771884626
20
-27.856142604593771
30
0
10
26.836739006374813
20
-27.943062954634634
30
0
11
26.007951917980652
21
-27.644632034987417
31
0
11
26.484589996670223
21
-27.719240360945669
31
0
11
26.836739006374813
21
-27.943062954634634
31
0
0
SPLINE
5
322
100
AcDbEntity
8
0
100
AcDbSpline
70
0
71
3
72
9
73
5
74
3
42
0.000000001
43
0.0000000001
44
0.0000000001
40
0
40
0
40
0
40
0
40
0.043694533674199773
40
0.098194680426799227
40
0.098194680426799227
40
0.098194680426799227
40
0.098194680426799227
10
26.836739006374813
20
-27.943062954634634
30
0
10
26.921030968783185
20
-28.065389479729923
30
0
10
27.110460208901731
20
-28.340293753317496
30
0
10
27.120866165234112
20
-28.675940069479054
30
0
10
27.126641693447567
20
-28.862230950087515
30
0
11
26.836739006374813
21
-27.943062954634634
31
0
11
27.054167213772274
21
-28.322069817275015
31
0
11
27.126641693447567
21
-28.862230950087515
31
0
0
LINE
5
323
100
AcDbEntity
8
0
100
AcDbLine
10
27.126641693447567
20
-28.862230950087518
30
0
11
27.126641693447567
21
-31.348588638991323
31
0
0
LINE
5
324
100
AcDbEntity
8
0
100
AcDbLine
10
27.126641693447567
20
-31.348588638991323
30
0
11
26.516137543056946
21
-31.348588638991323
31
0
0
LINE
5
325
100
AcDbEntity
8
0
100
AcDbLine
10
26.516137543056946
20
-31.348588638991323
30
0
11
26.516137543056946
21
-29.066869192809072
31
0
0
SPLINE
5
326
100
AcDbEntity
8
0
100
AcDbSpline
70
0
71
3
72
9
73
5
74
3
42
0.000000001
43
0.0000000001
44
0.0000000001
40
0
40
0
40
0
40
0
40
0.03171141175461259
40
0.053534565319695311
40
0.053534565319695311
40
0.053534565319695311
40
0.053534565319695311
10
26.516137543056946
20
-29.066869192809072
30
0
10
26.51611313603776
20
-28.960650476088791
30
0
10
26.51607193260055
20
-28.781334182243601
30
0
10
26.473717466396479
20
-28.607413489819251
30
0
10
26.456451835964657
20
-28.536515408247915
30
0
11
26.516137543056946
21
-29.066869192809072
31
0
11
26.501217308376766
21
-28.750106268614736
31
0
11
26.456451835964657
21
-28.536515408247915
31
0
0
SPLINE
5
327
100
AcDbEntity
8
0
100
AcDbSpline
70
0
71
3
72
9
73
5
74
3
42
0.000000001
43
0.0000000001
44
0.0000000001
40
0
40
0
40
0
40
0
40
0.016863461019374398
40
0.034394035348725989
40
0.034394035348725989
40
0.034394035348725989
40
0.034394035348725989
10
26.456451835964657
20
-28.536515408247915
30
0
10
26.432015199577918
20
-28.484836829487087
30
0
10
26.382175221015757
20
-28.379435283349572
30
0
10
26.287917674753544
20
-28.310657002769656
30
0
10
26.239874782894589
20
-28.275600844115225
30
0
11
26.456451835964657
21
-28.536515408247915
31
0
11
26.37246412310455
21
-28.390283756941763
31
0
11
26.239874782894589
21
-28.275600844115225
31
0
0
SPLINE
5
328
100
AcDbEntity
8
0
100
AcDbSpline
70
0
71
3
72
9
73
5
74
3
42
0.000000001
43
0.0000000001
44
0.0000000001
40
0
40
0
40
0
40
0
40
0.018596881951348489
40
0.038532408719013797
40
0.038532408719013797
40
0.038532408719013797
40
0.038532408719013797
10
26.239874782894589
20
-28.275600844115225
30
0
10
26.184156791749366
20
-28.246761521980417
30
0
10
26.068710104857068
20
-28.187006959329292
30
0
10
25.938759181069024
20
-28.180208846611503
30
0
10
25.871526422832947
20
-28.176691704482046
30
0
11
26.239874782894589
21
-28.275600844115225
31
0
11
26.069342317913513
21
-28.201418095320669
31
0
11
25.871526422832947
21
-28.176691704482046
31
0
0
SPLINE
5
329
100
AcDbEntity
8
0
100
AcDbSpline
70
0
71
3
72
9
73
5
74
3
42
0.000000001
43
0.0000000001
44
0.0000000001
40
0
40
0
40
0
40
0
40
0.035531519910221014
40
0.069798356875437936
40
0.069798356875437936
40
0.069798356875437936
40
0.069798356875437936
10
25.871526422832947
20
-28.176691704482046
30
0
10
25.75038989537493
20
-28.18649021563801
30
0
10
25.512428485462557
20
-28.205738476906895
30
0
10
25.327792372786824
20
-28.356681216208827
30
0
10
25.237147035931091
20
-28.430785113066641
30
0
11
25.871526422832947
21
-28.176691704482046
31
0
11
25.521935644482117
21
-28.240214758604971
31
0
11
25.237147035931091
21
-28.430785113066641
31
0
0
SPLINE
5
330
100
AcDbEntity
8
0
100
AcDbSpline
70
0
71
3
72
9
73
5
74
3
42
0.000000001
43
0.0000000001
44
0.0000000001
40
0
40
0
40
0
40
0
40
0.038078751165564334
40
0.086792250545777133
40
0.086792250545777133
40
0.086792250545777133
40
0.086792250545777133
10
25.237147035931091
20
-28.430785113066641
30
0
10
25.163815591695553
20
-28.537471166736239
30
0
10
24.996672476804463
20
-28.780638876191116
30
0
10
24.989042151136971
20
-29.077567185460996
30
0
10
24.984759512279968
20
-29.244222813338247
30
0
11
25.237147035931091
21
-28.430785113066641
31
0
11
25.047856989239197
21
-28.761191540450064
31
0
11
24.984759512279968
21
-29.244222813338247
31
0
0
LINE
5
331
100
AcDbEntity
8
0
100
AcDbLine
10
24.984759512279968
20
-29.244222813338247
30
0
11
24.984759512279968
21
-31.348588638991323
31
0
0
LINE
5
332
100
AcDbEntity
8
0
100
AcDbLine
10
24.984759512279968
20
-31.348588638991323
30
0
11
24.370844784115295
21
-31.348588638991323
31
0
0
LINE
5
333
100
AcDbEntity
8
0
100
AcDbLine
10
24.370844784115295
20
-31.348588638991323
30
0
11
24.370844784115295
21
-28.995245867461172
31
0
0
SPLINE
5
334
100
AcDbEntity
8
0
100
AcDbSpline
70
0
71
3
72
9
73
5
74
3
42
0.000000001
43
0.0000000001
44
0.0000000001
40
0
40
0
40
0
40
0
40
0.036007768404019293
40
0.063954125570066911
40
0.063954125570066911
40
0.063954125570066911
40
0.063954125570066911
10
24.370844784115295
20
-28.995245867461172
30
0
10
24.368426513602142
20
-28.87319573158134
30
0
10
24.364131374444256
20
-28.656420017287665
30
0
10
24.264369316120515
20
-28.464983932055191
30
0
10
24.220775785778503
20
-28.381331139296499
30
0
11
24.370844784115295
21
-28.995245867461172
31
0
11
24.333327236507873
21
-28.637128048628774
31
0
11
24.220775785778503
21
-28.381331139296499
31
0
0
SPLINE
5
335
100
AcDbEntity
8
0
100
AcDbSpline
70
0
71
3
72
9
73
5
74
3
42
0.000000001
43
0.0000000001
44
0.0000000001
40
0
40
0
40
0
40
0
40
0.025037487945270411
40
0.054811755659590976
40
0.054811755659590976
40
0.054811755659590976
40
0.054811755659590976
10
24.220775785778503
20
-28.381331139296499
30
0
10
24.158554578694211
20
-28.321761865020694
30
0
10
24.022340689864635
20
-28.19135355434824
30
0
10
23.83267334813123
20
-28.181852673465933
30
0
10
23.729644241665344
20
-28.176691704482046
30
0
11
24.220775785778503
21
-28.381331139296499
31
0
11
24.022958698605041
21
-28.227851563185659
31
0
11
23.729644241665344
21
-28.176691704482046
31
0
0
SPLINE
5
336
100
AcDbEntity
8
0
100
AcDbSpline
70
0
71
3
72
9
73
5
74
3
42
0.000000001
43
0.0000000001
44
0.0000000001
40
0
40
0
40
0
40
0
40
0.025172386436394391
40
0.050326702417079192
40
0.050326702417079192
40
0.050326702417079192
40
0.050326702417079192
10
23.729644241665344
20
-28.176691704482046
30
0
10
23.644889081422164
20
-28.182368130136744
30
0
10
23.475439603970017
20
-28.193716906520685
30
0
10
23.325427995928301
20
-28.273327425051981
30
0
10
23.250449123714905
20
-28.313118391722647
30
0
11
23.729644241665344
21
-28.176691704482046
31
0
11
23.480241718624573
21
-28.21079867431542
31
0
11
23.250449123714905
21
-28.313118391722647
31
0
0
SPLINE
5
337
100
AcDbEntity
8
0
100
AcDbSpline
70
0
71
3
72
9
73
5
74
3
42
0.000000001
43
0.0000000001
44
0.0000000001
40
0
40
0
40
0
40
0
40
0.02533926072645315
40
0.051812027333175498
40
0.051812027333175498
40
0.051812027333175498
40
0.051812027333175498
10
23.250449123714905
20
-28.313118391722647
30
0
10
23.181824869139426
20
-28.364773267180045
30
0
10
23.041506578398156
20
-28.470393705281332
30
0
10
22.968735235868458
20
-28.630406450141241
30
0
10
22.931553545330505
20
-28.712163143843618
30
0
11
23.250449123714905
21
-28.313118391722647
31
0
11
23.060732307766418
21
-28.481092625349966
31
0
11
22.931553545330505
21
-28.712163143843618
31
0
0
SPLINE
5
338
100
AcDbEntity
8
0
100
AcDbSpline
70
0
71
3
72
9
73
5
74
3
42
0.000000001
43
0.0000000001
44
0.0000000001
40
0
40
0
40
0
40
0
40
0.032907029705371037
40
0.076633234080068238
40
0.076633234080068238
40
0.076633234080068238
40
0.076633234080068238
10
22.931553545330505
20
-28.712163143843618
30
0
10
22.902849629874183
20
-28.818461404443923
30
0
10
22.836004524379305
20
-29.066006672425317
30
0
10
22.833865885225919
20
-29.322801178779159
30
0
10
22.832645597790222
20
-29.469325714796987
30
0
11
22.931553545330505
21
-28.712163143843618
31
0
11
22.857373180721741
21
-29.032763415068594
31
0
11
22.832645597790222
21
-29.469325714796987
31
0
0
LINE
5
339
100
AcDbEntity
8
0
100
AcDbLine
10
22.832645597790222
20
-29.46932571479698
30
0
11
22.832645597790222
21
-31.348588638991323
31
0
0
LINE
5
340
100
AcDbEntity
8
0
100
AcDbLine
10
22.832645597790222
20
-31.348588638991323
30
0
11
22.218729677532654
21
-31.348588638991323
31
0
0
ENDSEC
0
SECTION
2
OBJECTS
0
DICTIONARY
5
C
100
AcDbDictionary
3
ACAD_GROUP
350
D
3
ACAD_MLINESTYLE
350
17
0
DICTIONARY
5
D
100
AcDbDictionary
0
DICTIONARY
5
1A
330
C
100
AcDbDictionary
0
DICTIONARY
5
17
100
AcDbDictionary
0
ENDSEC
0
EOF
