  0
SECTION
  2
HEADER
  9
$ACADVER
  1
AC1024
  9
$ACADMAINTVER
 70
     6
  9
$DWGCODEPAGE
  3
ANSI_1252
  9
$INSBASE
 10
0.0
 20
0.0
 30
0.0
  9
$EXTMIN
 10
1.000000000000000E+20
 20
1.000000000000000E+20
 30
1.000000000000000E+20
  9
$EXTMAX
 10
-1.000000000000000E+20
 20
-1.000000000000000E+20
 30
-1.000000000000000E+20
  9
$LIMMIN
 10
0.0
 20
0.0
  9
$LIMMAX
 10
12.0
 20
9.0
  9
$ORTHOMODE
 70
     0
  9
$REGENMODE
 70
     1
  9
$FILLMODE
 70
     1
  9
$QTEXTMODE
 70
     0
  9
$MIRRTEXT
 70
     1
  9
$LTSCALE
 40
1.0
  9
$ATTMODE
 70
     1
  9
$TEXTSIZE
 40
0.2
  9
$TRACEWID
 40
0.05
  9
$TEXTSTYLE
  7
Standard
  9
$CLAYER
  8
0
  9
$CELTYPE
  6
ByLayer
  9
$CECOLOR
 62
   256
  9
$CELTSCALE
 40
1.0
  9
$DISPSILH
 70
     0
  9
$DIMSCALE
 40
1.0
  9
$DIMASZ
 40
0.18
  9
$DIMEXO
 40
0.0625
  9
$DIMDLI
 40
0.38
  9
$DIMRND
 40
0.0
  9
$DIMDLE
 40
0.0
  9
$DIMEXE
 40
0.18
  9
$DIMTP
 40
0.0
  9
$DIMTM
 40
0.0
  9
$DIMTXT
 40
0.18
  9
$DIMCEN
 40
0.09
  9
$DIMTSZ
 40
0.0
  9
$DIMTOL
 70
     0
  9
$DIMLIM
 70
     0
  9
$DIMTIH
 70
     1
  9
$DIMTOH
 70
     1
  9
$DIMSE1
 70
     0
  9
$DIMSE2
 70
     0
  9
$DIMTAD
 70
     0
  9
$DIMZIN
 70
     0
  9
$DIMBLK
  1

  9
$DIMASO
 70
     1
  9
$DIMSHO
 70
     1
  9
$DIMPOST
  1

  9
$DIMAPOST
  1

  9
$DIMALT
 70
     0
  9
$DIMALTD
 70
     2
  9
$DIMALTF
 40
25.4
  9
$DIMLFAC
 40
1.0
  9
$DIMTOFL
 70
     0
  9
$DIMTVP
 40
0.0
  9
$DIMTIX
 70
     0
  9
$DIMSOXD
 70
     0
  9
$DIMSAH
 70
     0
  9
$DIMBLK1
  1

  9
$DIMBLK2
  1

  9
$DIMSTYLE
  2
Standard
  9
$DIMCLRD
 70
     0
  9
$DIMCLRE
 70
     0
  9
$DIMCLRT
 70
     0
  9
$DIMTFAC
 40
1.0
  9
$DIMGAP
 40
0.09
  9
$DIMJUST
 70
     0
  9
$DIMSD1
 70
     0
  9
$DIMSD2
 70
     0
  9
$DIMTOLJ
 70
     1
  9
$DIMTZIN
 70
     0
  9
$DIMALTZ
 70
     0
  9
$DIMALTTZ
 70
     0
  9
$DIMUPT
 70
     0
  9
$DIMDEC
 70
     4
  9
$DIMTDEC
 70
     4
  9
$DIMALTU
 70
     2
  9
$DIMALTTD
 70
     2
  9
$DIMTXSTY
  7
Standard
  9
$DIMAUNIT
 70
     0
  9
$DIMADEC
 70
     0
  9
$DIMALTRND
 40
0.0
  9
$DIMAZIN
 70
     0
  9
$DIMDSEP
 70
    46
  9
$DIMATFIT
 70
     3
  9
$DIMFRAC
 70
     0
  9
$DIMLDRBLK
  1

  9
$DIMLUNIT
 70
     2
  9
$DIMLWD
 70
    -2
  9
$DIMLWE
 70
    -2
  9
$DIMTMOVE
 70
     0
  9
$DIMFXL
 40
1.0
  9
$DIMFXLON
 70
     0
  9
$DIMJOGANG
 40
0.7853981633974483
  9
$DIMTFILL
 70
     0
  9
$DIMTFILLCLR
 70
     0
  9
$DIMARCSYM
 70
     0
  9
$DIMLTYPE
  6

  9
$DIMLTEX1
  6

  9
$DIMLTEX2
  6

  9
$DIMTXTDIRECTION
 70
     0
  9
$LUNITS
 70
     2
  9
$LUPREC
 70
     4
  9
$SKETCHINC
 40
0.1
  9
$FILLETRAD
 40
0.5
  9
$AUNITS
 70
     0
  9
$AUPREC
 70
     0
  9
$MENU
  1
.
  9
$ELEVATION
 40
0.0
  9
$PELEVATION
 40
0.0
  9
$THICKNESS
 40
0.0
  9
$LIMCHECK
 70
     0
  9
$CHAMFERA
 40
0.5
  9
$CHAMFERB
 40
0.5
  9
$CHAMFERC
 40
1.0
  9
$CHAMFERD
 40
0.0
  9
$SKPOLY
 70
     0
  9
$TDCREATE
 40
2459354.60465691
  9
$TDUCREATE
 40
2459354.521323577
  9
$TDUPDATE
 40
2459354.604670104
  9
$TDUUPDATE
 40
2459354.521336771
  9
$TDINDWG
 40
0.0000000116
  9
$TDUSRTIMER
 40
0.0000000116
  9
$USRTIMER
 70
     1
  9
$ANGBASE
 50
0.0
  9
$ANGDIR
 70
     0
  9
$PDMODE
 70
     0
  9
$PDSIZE
 40
0.0
  9
$PLINEWID
 40
0.0
  9
$SPLFRAME
 70
     0
  9
$SPLINETYPE
 70
     6
  9
$SPLINESEGS
 70
     8
  9
$HANDSEED
  5
B9
  9
$SURFTAB1
 70
     6
  9
$SURFTAB2
 70
     6
  9
$SURFTYPE
 70
     6
  9
$SURFU
 70
     6
  9
$SURFV
 70
     6
  9
$UCSBASE
  2

  9
$UCSNAME
  2

  9
$UCSORG
 10
0.0
 20
0.0
 30
0.0
  9
$UCSXDIR
 10
1.0
 20
0.0
 30
0.0
  9
$UCSYDIR
 10
0.0
 20
1.0
 30
0.0
  9
$UCSORTHOREF
  2

  9
$UCSORTHOVIEW
 70
     0
  9
$UCSORGTOP
 10
0.0
 20
0.0
 30
0.0
  9
$UCSORGBOTTOM
 10
0.0
 20
0.0
 30
0.0
  9
$UCSORGLEFT
 10
0.0
 20
0.0
 30
0.0
  9
$UCSORGRIGHT
 10
0.0
 20
0.0
 30
0.0
  9
$UCSORGFRONT
 10
0.0
 20
0.0
 30
0.0
  9
$UCSORGBACK
 10
0.0
 20
0.0
 30
0.0
  9
$PUCSBASE
  2

  9
$PUCSNAME
  2

  9
$PUCSORG
 10
0.0
 20
0.0
 30
0.0
  9
$PUCSXDIR
 10
1.0
 20
0.0
 30
0.0
  9
$PUCSYDIR
 10
0.0
 20
1.0
 30
0.0
  9
$PUCSORTHOREF
  2

  9
$PUCSORTHOVIEW
 70
     0
  9
$PUCSORGTOP
 10
0.0
 20
0.0
 30
0.0
  9
$PUCSORGBOTTOM
 10
0.0
 20
0.0
 30
0.0
  9
$PUCSORGLEFT
 10
0.0
 20
0.0
 30
0.0
  9
$PUCSORGRIGHT
 10
0.0
 20
0.0
 30
0.0
  9
$PUCSORGFRONT
 10
0.0
 20
0.0
 30
0.0
  9
$PUCSORGBACK
 10
0.0
 20
0.0
 30
0.0
  9
$USERI1
 70
     0
  9
$USERI2
 70
     0
  9
$USERI3
 70
     0
  9
$USERI4
 70
     0
  9
$USERI5
 70
     0
  9
$USERR1
 40
0.0
  9
$USERR2
 40
0.0
  9
$USERR3
 40
0.0
  9
$USERR4
 40
0.0
  9
$USERR5
 40
0.0
  9
$WORLDVIEW
 70
     1
  9
$SHADEDGE
 70
     3
  9
$SHADEDIF
 70
    70
  9
$TILEMODE
 70
     1
  9
$MAXACTVP
 70
    64
  9
$PINSBASE
 10
0.0
 20
0.0
 30
0.0
  9
$PLIMCHECK
 70
     0
  9
$PEXTMIN
 10
1.000000000000000E+20
 20
1.000000000000000E+20
 30
1.000000000000000E+20
  9
$PEXTMAX
 10
-1.000000000000000E+20
 20
-1.000000000000000E+20
 30
-1.000000000000000E+20
  9
$PLIMMIN
 10
0.0
 20
0.0
  9
$PLIMMAX
 10
12.0
 20
9.0
  9
$UNITMODE
 70
     0
  9
$VISRETAIN
 70
     1
  9
$PLINEGEN
 70
     0
  9
$PSLTSCALE
 70
     1
  9
$TREEDEPTH
 70
  3020
  9
$CMLSTYLE
  2
Standard
  9
$CMLJUST
 70
     0
  9
$CMLSCALE
 40
1.0
  9
$PROXYGRAPHICS
 70
     1
  9
$MEASUREMENT
 70
     0
  9
$CELWEIGHT
370
    -1
  9
$ENDCAPS
280
     0
  9
$JOINSTYLE
280
     0
  9
$LWDISPLAY
290
     1
  9
$INSUNITS
 70
     1
  9
$HYPERLINKBASE
  1

  9
$STYLESHEET
  1

  9
$XEDIT
290
     1
  9
$CEPSNTYPE
380
     0
  9
$PSTYLEMODE
290
     1
  9
$FINGERPRINTGUID
  2
{9276C96E-5B4C-4A75-A319-B9F9E058EFCE}
  9
$VERSIONGUID
  2
{FAEB1C32-E019-11D5-929B-00C0DF256EC4}
  9
$EXTNAMES
290
     1
  9
$PSVPSCALE
 40
0.0
  9
$OLESTARTUP
290
     0
  9
$SORTENTS
280
   127
  9
$INDEXCTL
280
     0
  9
$HIDETEXT
280
     1
  9
$XCLIPFRAME
280
     2
  9
$HALOGAP
280
     0
  9
$OBSCOLOR
 70
   257
  9
$OBSLTYPE
280
     0
  9
$INTERSECTIONDISPLAY
280
     0
  9
$INTERSECTIONCOLOR
 70
   257
  9
$DIMASSOC
280
     2
  9
$PROJECTNAME
  1

  9
$CAMERADISPLAY
290
     0
  9
$LENSLENGTH
 40
50.0
  9
$CAMERAHEIGHT
 40
0.0
  9
$STEPSPERSEC
 40
2.0
  9
$STEPSIZE
 40
6.0
  9
$3DDWFPREC
 40
2.0
  9
$PSOLWIDTH
 40
0.25
  9
$PSOLHEIGHT
 40
4.0
  9
$LOFTANG1
 40
1.570796326794897
  9
$LOFTANG2
 40
1.570796326794897
  9
$LOFTMAG1
 40
0.0
  9
$LOFTMAG2
 40
0.0
  9
$LOFTPARAM
 70
     7
  9
$LOFTNORMALS
280
     1
  9
$LATITUDE
 40
37.795
  9
$LONGITUDE
 40
-122.394
  9
$NORTHDIRECTION
 40
0.0
  9
$TIMEZONE
 70
 -8000
  9
$LIGHTGLYPHDISPLAY
280
     1
  9
$TILEMODELIGHTSYNCH
280
     1
  9
$CMATERIAL
347
3C
  9
$SOLIDHIST
280
     1
  9
$SHOWHIST
280
     1
  9
$DWFFRAME
280
     2
  9
$DGNFRAME
280
     2
  9
$REALWORLDSCALE
290
     1
  9
$INTERFERECOLOR
 62
   256
  9
$CSHADOW
280
     0
  9
$SHADOWPLANELOCATION
 40
0.0
  0
ENDSEC
  0
SECTION
  2
CLASSES
  0
CLASS
  1
ACDBDICTIONARYWDFLT
  2
AcDbDictionaryWithDefault
  3
ObjectDBX Classes
 90
        0
 91
        4
280
     0
281
     0
  0
CLASS
  1
VISUALSTYLE
  2
AcDbVisualStyle
  3
ObjectDBX Classes
 90
     4095
 91
        4
280
     0
281
     0
  0
CLASS
  1
MATERIAL
  2
AcDbMaterial
  3
ObjectDBX Classes
 90
     1153
 91
        4
280
     0
281
     0
  0
CLASS
  1
SUN
  2
AcDbSun
  3
SCENEOE
 90
     1024
 91
        4
280
     0
281
     0
  0
CLASS
  1
IMAGEDEF
  2
AcDbRasterImageDef
  3
ISM
 90
        0
 91
        4
280
     0
281
     0
  0
CLASS
  1
RASTERVARIABLES
  2
AcDbRasterVariables
  3
ISM
 90
        0
 91
        4
280
     0
281
     0
  0
CLASS
  1
IMAGE
  2
AcDbRasterImage
  3
ISM
 90
      127
 91
        5
280
     0
281
     1
  0
CLASS
  1
IMAGEDEF_REACTOR
  2
AcDbRasterImageDefReactor
  3
ISM
 90
        1
 91
        4
280
     0
281
     0
  0
ENDSEC
  0
SECTION
  2
TABLES
  0
TABLE
  2
VPORT
  5
8
330
0
100
AcDbSymbolTable
 70
     1
  0
VPORT
  5
29
330
8
100
AcDbSymbolTableRecord
100
AcDbViewportTableRecord
  2
*Active
 70
     0
 10
0.0
 20
0.0
 11
1.0
 21
1.0
 12
0.0
 22
0.0
 13
0.0
 23
0.0
 14
0.5
 24
0.5
 15
0.5
 25
0.5
 16
0.0
 26
0.0
 36
1.0
 17
105.0000721959722
 27
-148.5000416295416
 37
0.0
 40
297.0000832590831
 41
0.7070709950231031
 42
50.0
 43
0.0
 44
0.0
 50
0.0
 51
0.0
 71
     0
 72
   100
 73
     1
 74
     3
 75
     0
 76
     0
 77
     0
 78
     0
281
     0
 65
     1
110
0.0
120
0.0
130
0.0
111
1.0
121
0.0
131
0.0
112
0.0
122
1.0
132
0.0
 79
     0
146
0.0
 60
     3
 61
     5
292
     1
282
     1
141
0.0
142
0.0
 63
   250
361
3F
  0
ENDTAB
  0
TABLE
  2
LTYPE
  5
5
330
0
100
AcDbSymbolTable
 70
     1
  0
LTYPE
  5
14
330
5
100
AcDbSymbolTableRecord
100
AcDbLinetypeTableRecord
  2
ByBlock
 70
     0
  3

 72
    65
 73
     0
 40
0.0
  0
LTYPE
  5
15
330
5
100
AcDbSymbolTableRecord
100
AcDbLinetypeTableRecord
  2
ByLayer
 70
     0
  3

 72
    65
 73
     0
 40
0.0
  0
LTYPE
  5
16
330
5
100
AcDbSymbolTableRecord
100
AcDbLinetypeTableRecord
  2
Continuous
 70
     0
  3
Solid line
 72
    65
 73
     0
 40
0.0
  0
ENDTAB
  0
TABLE
  2
LAYER
  5
2
330
0
100
AcDbSymbolTable
 70
     2
  0
LAYER
  5
10
330
2
100
AcDbSymbolTableRecord
100
AcDbLayerTableRecord
  2
0
 70
     0
 62
     7
  6
Continuous
370
    -3
390
F
347
3E
  0
LAYER
  5
40
330
2
100
AcDbSymbolTableRecord
100
AcDbLayerTableRecord
  2
Layer 1
 70
     0
 62
     7
  6
Continuous
370
    -3
390
F
347
3E
  0
ENDTAB
  0
TABLE
  2
STYLE
  5
3
330
0
100
AcDbSymbolTable
 70
     1
  0
STYLE
  5
11
330
3
100
AcDbSymbolTableRecord
100
AcDbTextStyleTableRecord
  2
Standard
 70
     0
 40
0.0
 41
1.0
 50
0.0
 71
     0
 42
0.2
  3
txt
  4

  0
ENDTAB
  0
TABLE
  2
VIEW
  5
6
330
0
100
AcDbSymbolTable
 70
     0
  0
ENDTAB
  0
TABLE
  2
UCS
  5
7
330
0
100
AcDbSymbolTable
 70
     0
  0
ENDTAB
  0
TABLE
  2
APPID
  5
9
330
0
100
AcDbSymbolTable
 70
     1
  0
APPID
  5
12
330
9
100
AcDbSymbolTableRecord
100
AcDbRegAppTableRecord
  2
ACAD
 70
     0
  0
ENDTAB
  0
TABLE
  2
DIMSTYLE
  5
A
330
0
100
AcDbSymbolTable
 70
     1
100
AcDbDimStyleTable
  0
DIMSTYLE
105
27
330
A
100
AcDbSymbolTableRecord
100
AcDbDimStyleTableRecord
  2
Standard
 70
     0
178
     0
340
11
  0
ENDTAB
  0
TABLE
  2
BLOCK_RECORD
  5
1
330
0
100
AcDbSymbolTable
 70
     5
  0
BLOCK_RECORD
  5
1F
330
1
100
AcDbSymbolTableRecord
100
AcDbBlockTableRecord
  2
*Model_Space
340
22
 70
     0
280
     1
281
     0
  0
BLOCK_RECORD
  5
1B
330
1
100
AcDbSymbolTableRecord
100
AcDbBlockTableRecord
  2
*Paper_Space
340
1E
 70
     0
280
     1
281
     0
  0
BLOCK_RECORD
  5
23
330
1
100
AcDbSymbolTableRecord
100
AcDbBlockTableRecord
  2
*Paper_Space0
340
26
 70
     0
280
     1
281
     0
  0
BLOCK_RECORD
  5
42
330
1
100
AcDbSymbolTableRecord
100
AcDbBlockTableRecord
  2
block 2
340
0
102
{BLKREFS
331
43
102
}
 70
     0
280
     1
281
     0
  0
BLOCK_RECORD
  5
50
330
1
100
AcDbSymbolTableRecord
100
AcDbBlockTableRecord
  2
block 3
340
0
102
{BLKREFS
331
51
102
}
 70
     0
280
     1
281
     0
  0
BLOCK_RECORD
  5
64
330
1
100
AcDbSymbolTableRecord
100
AcDbBlockTableRecord
  2
block 4
340
0
102
{BLKREFS
331
65
102
}
 70
     0
280
     1
281
     0
  0
BLOCK_RECORD
  5
6E
330
1
100
AcDbSymbolTableRecord
100
AcDbBlockTableRecord
  2
block 5
340
0
102
{BLKREFS
331
6F
102
}
 70
     0
280
     1
281
     0
  0
ENDTAB
  0
ENDSEC
  0
SECTION
  2
BLOCKS
  0
BLOCK
  5
20
330
1F
100
AcDbEntity
  8
0
100
AcDbBlockBegin
  2
*Model_Space
 70
     0
 10
0.0
 20
0.0
 30
0.0
  3
*Model_Space
  1

  0
ENDBLK
  5
21
330
1F
100
AcDbEntity
  8
0
100
AcDbBlockEnd
  0
BLOCK
  5
1C
330
1B
100
AcDbEntity
 67
     1
  8
0
100
AcDbBlockBegin
  2
*Paper_Space
 70
     0
 10
0.0
 20
0.0
 30
0.0
  3
*Paper_Space
  1

  0
ENDBLK
  5
1D
330
1B
100
AcDbEntity
 67
     1
  8
0
100
AcDbBlockEnd
  0
BLOCK
  5
24
330
23
100
AcDbEntity
  8
0
100
AcDbBlockBegin
  2
*Paper_Space0
 70
     0
 10
0.0
 20
0.0
 30
0.0
  3
*Paper_Space0
  1

  0
ENDBLK
  5
25
330
23
100
AcDbEntity
  8
0
100
AcDbBlockEnd
  0
BLOCK
  5
44
330
42
100
AcDbEntity
  8
0
100
AcDbBlockBegin
  2
block 2
 70
     0
 10
0.0
 20
0.0
 30
0.0
  3
block 2
  1

  0
SPLINE
  5
46
330
42
100
AcDbEntity
  8
Layer 1
370
     0
100
AcDbSpline
210
0.0
220
0.0
230
1.0
 70
    11
 71
     3
 72
    17
 73
    13
 74
     0
 42
0.0000000001
 43
0.0000000001
 12
1.0
 22
0.0
 32
0.0
 13
1.0
 23
0.0
 33
0.0
 40
0.0
 40
0.0
 40
0.0
 40
0.0
 40
1.0
 40
1.0
 40
1.0
 40
2.0
 40
2.0
 40
2.0
 40
3.0
 40
3.0
 40
3.0
 40
4.0
 40
4.0
 40
4.0
 40
4.0
 10
93.44490267259411
 20
-114.571576320311
 30
0.0
 10
93.44490267259411
 20
-104.8765676028369
 30
0.0
 10
93.44490267259411
 20
-95.18155961470099
 30
0.0
 10
93.44490267259411
 20
-85.486551632263
 30
0.0
 10
102.8849887482142
 20
-85.48655162941385
 30
0.0
 10
112.325074823834
 20
-85.48655162941385
 30
0.0
 10
121.7651608994545
 20
-85.48655162656503
 30
0.0
 10
121.7651608994545
 20
-95.18155961470099
 30
0.0
 10
121.7651608994545
 20
-104.8765676028369
 30
0.0
 10
121.7651608994545
 20
-114.571576320311
 30
0.0
 10
112.325074823834
 20
-114.571576320311
 30
0.0
 10
102.8849887482142
 20
-114.571576320311
 30
0.0
 10
93.44490267259411
 20
-114.571576320311
 30
0.0
  0
SPLINE
  5
47
330
42
100
AcDbEntity
  8
Layer 1
370
     0
100
AcDbSpline
210
0.0
220
0.0
230
1.0
 70
    11
 71
     3
 72
   104
 73
   100
 74
     0
 42
0.0000000001
 43
0.0000000001
 12
1.0
 22
0.0
 32
0.0
 13
1.0
 23
0.0
 33
0.0
 40
0.0
 40
0.0
 40
0.0
 40
0.0
 40
1.0
 40
1.0
 40
1.0
 40
2.0
 40
2.0
 40
2.0
 40
3.0
 40
3.0
 40
3.0
 40
4.0
 40
4.0
 40
4.0
 40
5.0
 40
5.0
 40
5.0
 40
6.0
 40
6.0
 40
6.0
 40
7.0
 40
7.0
 40
7.0
 40
8.0
 40
8.0
 40
8.0
 40
9.0
 40
9.0
 40
9.0
 40
10.0
 40
10.0
 40
10.0
 40
11.0
 40
11.0
 40
11.0
 40
12.0
 40
12.0
 40
12.0
 40
13.0
 40
13.0
 40
13.0
 40
14.0
 40
14.0
 40
14.0
 40
15.0
 40
15.0
 40
15.0
 40
16.0
 40
16.0
 40
16.0
 40
17.0
 40
17.0
 40
17.0
 40
18.0
 40
18.0
 40
18.0
 40
19.0
 40
19.0
 40
19.0
 40
20.0
 40
20.0
 40
20.0
 40
21.0
 40
21.0
 40
21.0
 40
22.0
 40
22.0
 40
22.0
 40
23.0
 40
23.0
 40
23.0
 40
24.0
 40
24.0
 40
24.0
 40
25.0
 40
25.0
 40
25.0
 40
26.0
 40
26.0
 40
26.0
 40
27.0
 40
27.0
 40
27.0
 40
28.0
 40
28.0
 40
28.0
 40
29.0
 40
29.0
 40
29.0
 40
30.0
 40
30.0
 40
30.0
 40
31.0
 40
31.0
 40
31.0
 40
32.0
 40
32.0
 40
32.0
 40
33.0
 40
33.0
 40
33.0
 40
33.0
 10
95.65247884566799
 20
-93.2051575573817
 30
0.0
 10
95.54664075950738
 20
-93.41271333389464
 30
0.0
 10
95.44654457016925
 20
-93.60203346895521
 30
0.0
 10
95.35258995495249
 20
-93.7943541011136
 30
0.0
 10
94.53409332981026
 20
-95.46978091856158
 30
0.0
 10
94.07987293367279
 20
-97.24241684033011
 30
0.0
 10
93.98836182913485
 20
-99.10147130867523
 30
0.0
 10
93.95657152956393
 20
-99.74729147738952
 30
0.0
 10
93.98039645383321
 20
-100.3997865487381
 30
0.0
 10
94.03362122634394
 20
-101.0447110902195
 30
0.0
 10
94.08341592159395
 20
-101.6480750272724
 30
0.0
 10
94.170932258818
 20
-102.2531966692369
 30
0.0
 10
94.30233145868398
 20
-102.8440947588436
 30
0.0
 10
94.82338320520965
 20
-105.1872437692753
 30
0.0
 10
95.88962824644865
 20
-107.2577778533131
 30
0.0
 10
97.49646208840454
 20
-109.0426506103531
 30
0.0
 10
99.37503473931685
 20
-111.1293716250151
 30
0.0
 10
101.6788545553522
 20
-112.5241141189154
 30
0.0
 10
104.4007240630999
 20
-113.2122650731313
 30
0.0
 10
104.9835046192361
 20
-113.3596030463199
 30
0.0
 10
105.5838067947879
 20
-113.4418461320591
 30
0.0
 10
106.1792253221709
 20
-113.5333255559716
 30
0.0
 10
106.5082064171847
 20
-113.5838686889017
 30
0.0
 10
106.8443773275579
 20
-113.5859779347953
 30
0.0
 10
107.1760773951481
 20
-113.6214325203361
 30
0.0
 10
107.2786938124208
 20
-113.6323988485719
 30
0.0
 10
107.2989592019101
 20
-113.604873627262
 30
0.0
 10
107.2979789714533
 20
-113.5106343878371
 30
0.0
 10
107.2939676116969
 20
-113.1243214805093
 30
0.0
 10
107.2934497816191
 20
-112.7379035484898
 30
0.0
 10
107.2985303510853
 20
-112.351616897335
 30
0.0
 10
107.2997410523936
 20
-112.2595131599765
 30
0.0
 10
107.2691438588485
 20
-112.2095476628516
 30
0.0
 10
107.1895978655414
 20
-112.163541013137
 30
0.0
 10
106.3180198284164
 20
-111.6594458313052
 30
0.0
 10
105.4487246196619
 20
-111.1514034714731
 30
0.0
 10
104.5789823266289
 20
-110.644134210067
 30
0.0
 10
104.5149289340394
 20
-110.6067775106634
 30
0.0
 10
104.45108704951
 20
-110.5790451573223
 30
0.0
 10
104.4514342144634
 20
-110.4793242124557
 30
0.0
 10
104.4550706944171
 20
-109.4357813705906
 30
0.0
 10
104.4527448350967
 20
-108.3922181072573
 30
0.0
 10
104.4571493081089
 20
-107.3486811000971
 30
0.0
 10
104.4573265372764
 20
-107.3068287604136
 30
0.0
 10
104.498539247413
 20
-107.2436564082945
 30
0.0
 10
104.5367551071428
 20
-107.22665116028
 30
0.0
 10
105.1986783325952
 20
-106.9321137881488
 30
0.0
 10
105.6249713686074
 20
-106.4248124358646
 30
0.0
 10
105.8677833506881
 20
-105.7549430714038
 30
0.0
 10
106.165825921908
 20
-104.9327105939868
 30
0.0
 10
106.1500474206411
 20
-104.0943072313847
 30
0.0
 10
105.9690519510822
 20
-103.2526889462726
 30
0.0
 10
105.729298083812
 20
-102.1378401733785
 30
0.0
 10
105.2269970737989
 20
-101.1488591175807
 30
0.0
 10
104.497716553994
 20
-100.2769980972585
 30
0.0
 10
103.8779315687748
 20
-99.53604014453389
 30
0.0
 10
103.1439446299686
 20
-98.94234723118431
 30
0.0
 10
102.2261622924935
 20
-98.60326334428963
 30
0.0
 10
101.6624247551281
 20
-98.39498479368217
 30
0.0
 10
101.0823493141441
 20
-98.31612000219629
 30
0.0
 10
100.4933577144293
 20
-98.46129913449789
 30
0.0
 10
99.64187950703581
 20
-98.67117785297874
 30
0.0
 10
99.10298140328896
 20
-99.23408977957263
 30
0.0
 10
98.8085494205183
 20
-100.0400653099042
 30
0.0
 10
98.49802459174354
 20
-100.8900943224184
 30
0.0
 10
98.52822830736366
 20
-101.7586135153947
 30
0.0
 10
98.72451580965169
 20
-102.6252656027391
 30
0.0
 10
98.96605546135133
 20
-103.6917154968275
 30
0.0
 10
99.45427732795825
 20
-104.6396494022458
 30
0.0
 10
100.1492377476949
 20
-105.4817636372913
 30
0.0
 10
100.2131824689018
 20
-105.5592485210211
 30
0.0
 10
100.2441800690843
 20
-105.6370149292723
 30
0.0
 10
100.243583470488
 20
-105.7401725154427
 30
0.0
 10
100.239410197665
 20
-106.4610780454144
 30
0.0
 10
100.2413750346073
 20
-107.1820185836167
 30
0.0
 10
100.2413735759311
 20
-107.9029489110849
 30
0.0
 10
100.2413735759311
 20
-107.9491758209169
 30
0.0
 10
100.2413735759311
 20
-107.9954027307493
 30
0.0
 10
100.2413735759311
 20
-108.0661193565629
 30
0.0
 10
100.1665011814098
 20
-108.0295022060306
 30
0.0
 10
100.113174164809
 20
-108.0070196286035
 30
0.0
 10
100.0633012936273
 20
-107.9784995900743
 30
0.0
 10
99.0442084188152
 20
-107.3957307033484
 30
0.0
 10
98.02737466888406
 20
-106.8089592089239
 30
0.0
 10
97.00462890400993
 20
-106.2326814316218
 30
0.0
 10
96.85921018412988
 20
-106.1507417505482
 30
0.0
 10
96.81291034048427
 20
-106.0609252175889
 30
0.0
 10
96.8131141904937
 20
-105.8970589835277
 30
0.0
 10
96.81796939447503
 20
-101.9976715940813
 30
0.0
 10
96.8168888800242
 20
-98.09827691125368
 30
0.0
 10
96.81686080050598
 20
-94.19888295776417
 30
0.0
 10
96.81686043583707
 20
-94.15108870027431
 30
0.0
 10
96.82434198645166
 20
-94.10149808295209
 30
0.0
 10
96.8139729861506
 20
-94.05602020338702
 30
0.0
 10
96.80421845323036
 20
-94.01323941625476
 30
0.0
 10
96.78611664532599
 20
-93.95902260712606
 30
0.0
 10
96.75338869041214
 20
-93.93686531450831
 30
0.0
 10
96.39463218359987
 20
-93.69397602258525
 30
0.0
 10
96.03228842715798
 20
-93.45638464289296
 30
0.0
 10
95.65247884566799
 20
-93.2051575573817
 30
0.0
  0
SPLINE
  5
48
330
42
100
AcDbEntity
  8
Layer 1
370
     0
100
AcDbSpline
210
0.0
220
0.0
230
1.0
 70
    11
 71
     3
 72
    92
 73
    88
 74
     0
 42
0.0000000001
 43
0.0000000001
 12
1.0
 22
0.0
 32
0.0
 13
1.0
 23
0.0
 33
0.0
 40
0.0
 40
0.0
 40
0.0
 40
0.0
 40
1.0
 40
1.0
 40
1.0
 40
2.0
 40
2.0
 40
2.0
 40
3.0
 40
3.0
 40
3.0
 40
4.0
 40
4.0
 40
4.0
 40
5.0
 40
5.0
 40
5.0
 40
6.0
 40
6.0
 40
6.0
 40
7.0
 40
7.0
 40
7.0
 40
8.0
 40
8.0
 40
8.0
 40
9.0
 40
9.0
 40
9.0
 40
10.0
 40
10.0
 40
10.0
 40
11.0
 40
11.0
 40
11.0
 40
12.0
 40
12.0
 40
12.0
 40
13.0
 40
13.0
 40
13.0
 40
14.0
 40
14.0
 40
14.0
 40
15.0
 40
15.0
 40
15.0
 40
16.0
 40
16.0
 40
16.0
 40
17.0
 40
17.0
 40
17.0
 40
18.0
 40
18.0
 40
18.0
 40
19.0
 40
19.0
 40
19.0
 40
20.0
 40
20.0
 40
20.0
 40
21.0
 40
21.0
 40
21.0
 40
22.0
 40
22.0
 40
22.0
 40
23.0
 40
23.0
 40
23.0
 40
24.0
 40
24.0
 40
24.0
 40
25.0
 40
25.0
 40
25.0
 40
26.0
 40
26.0
 40
26.0
 40
27.0
 40
27.0
 40
27.0
 40
28.0
 40
28.0
 40
28.0
 40
29.0
 40
29.0
 40
29.0
 40
29.0
 10
108.1921942056904
 20
-113.6257414500526
 30
0.0
 10
112.1078224967831
 20
-113.5535982388418
 30
0.0
 10
117.1336916024169
 20
-111.5035483457345
 30
0.0
 10
119.8966024258394
 20
-106.4617125695941
 30
0.0
 10
122.4594499634357
 20
-101.7849615849508
 30
0.0
 10
121.8438885753707
 20
-96.64681816642744
 30
0.0
 10
119.9285911965512
 20
-93.27209329429057
 30
0.0
 10
119.9039804104386
 20
-93.2836255889212
 30
0.0
 10
119.8783543856386
 20
-93.29396103966795
 30
0.0
 10
119.8542978965106
 20
-93.30715841326622
 30
0.0
 10
119.5194558402241
 20
-93.49085243393385
 30
0.0
 10
119.1863846169347
 20
-93.67787661253772
 30
0.0
 10
118.8490628109806
 20
-93.85688536500993
 30
0.0
 10
118.7635989680258
 20
-93.90223852775335
 30
0.0
 10
118.7348980536389
 20
-93.9547537910073
 30
0.0
 10
118.7351606153683
 20
-94.05109352426803
 30
0.0
 10
118.7385476616785
 20
-95.30575787680067
 30
0.0
 10
118.735796598224
 20
-96.56043973344859
 30
0.0
 10
118.7401813791065
 20
-97.81509679259968
 30
0.0
 10
118.7405723043483
 20
-97.92659217235823
 30
0.0
 10
118.70525775173
 20
-97.98437909167019
 30
0.0
 10
118.6078269286152
 20
-98.03454588612097
 30
0.0
 10
117.9678210435335
 20
-98.36407690209049
 30
0.0
 10
117.3308200315776
 20
-98.69945137521783
 30
0.0
 10
116.6928577519575
 20
-99.032957284037
 30
0.0
 10
116.4570554387164
 20
-99.15622709868757
 30
0.0
 10
116.4599261136257
 20
-99.15270001945454
 30
0.0
 10
116.252976417105
 20
-98.98777624509384
 30
0.0
 10
116.0606178593636
 20
-98.83448103799796
 30
0.0
 10
115.8777071478553
 20
-98.6578178369758
 30
0.0
 10
115.6619557986914
 20
-98.54756816675602
 30
0.0
 10
115.0335128404418
 20
-98.2264289153968
 30
0.0
 10
114.3735697680326
 20
-98.24424372874374
 30
0.0
 10
113.7121796887588
 20
-98.44227216116647
 30
0.0
 10
112.8281051719854
 20
-98.70697231009203
 30
0.0
 10
112.1103066224794
 20
-99.23197469897369
 30
0.0
 10
111.4977355207784
 20
-99.90433256515988
 30
0.0
 10
110.5410933179986
 20
-100.954340260276
 30
0.0
 10
109.944860849254
 20
-102.1863892958403
 30
0.0
 10
109.7100460598516
 20
-103.5870394286548
 30
0.0
 10
109.5945393203363
 20
-104.2760349564337
 30
0.0
 10
109.5989620268025
 20
-104.966432272113
 30
0.0
 10
109.8000682661654
 20
-105.6432697331397
 30
0.0
 10
110.0452454918255
 20
-106.4684356085458
 30
0.0
 10
110.5348137166341
 20
-107.0746702205081
 30
0.0
 10
111.3781634504849
 20
-107.3428901552851
 30
0.0
 10
111.9877982368442
 20
-107.5367774057629
 30
0.0
 10
112.5994707939601
 20
-107.4949279834322
 30
0.0
 10
113.1937384257617
 20
-107.2840807039045
 30
0.0
 10
114.6486629854179
 20
-106.7678755916373
 30
0.0
 10
115.635415183867
 20
-105.7343494797526
 30
0.0
 10
116.3022475843232
 20
-104.3786659604689
 30
0.0
 10
116.506208453156
 20
-103.9640080557646
 30
0.0
 10
116.626132064432
 20
-103.508228608191
 30
0.0
 10
116.7897313607347
 20
-103.0732323801838
 30
0.0
 10
116.8101542872618
 20
-103.0189302384931
 30
0.0
 10
116.8527695146369
 20
-102.9599880475715
 30
0.0
 10
116.901610372354
 20
-102.9313425628823
 30
0.0
 10
117.4781332072701
 20
-102.5932359890919
 30
0.0
 10
118.0577338491263
 20
-102.2603762738627
 30
0.0
 10
118.6368312476678
 20
-101.9266705263942
 30
0.0
 10
118.6696339597411
 20
-101.9077689992223
 30
0.0
 10
118.7051118841021
 20
-101.8935104386339
 30
0.0
 10
118.7519178884158
 20
-101.8710555760558
 30
0.0
 10
118.7554770585269
 20
-101.9223134603607
 30
0.0
 10
118.7600018723317
 20
-101.9567177989836
 30
0.0
 10
118.7599435252812
 20
-101.9911148442252
 30
0.0
 10
118.7576592382345
 20
-103.317480429057
 30
0.0
 10
118.7540154648992
 20
-104.6438460138891
 30
0.0
 10
118.7543042828017
 20
-105.9702115987209
 30
0.0
 10
118.7543247042692
 20
-106.0638104792611
 30
0.0
 10
118.7182341358724
 20
-106.1126513369782
 30
0.0
 10
118.6412627061915
 20
-106.1574866696439
 30
0.0
 10
116.8740559775185
 20
-107.1868701409074
 30
0.0
 10
115.1080118138363
 20
-108.2182490813151
 30
0.0
 10
113.3418932576649
 20
-109.2494996582109
 30
0.0
 10
111.6547284722317
 20
-110.2346516887865
 30
0.0
 10
109.9679560707165
 20
-111.2204717930962
 30
0.0
 10
108.2798212655608
 20
-112.2039580153655
 30
0.0
 10
108.2123035168181
 20
-112.2432926797983
 30
0.0
 10
108.1856928855326
 20
-112.2875635047454
 30
0.0
 10
108.1872828426726
 20
-112.3648704299697
 30
0.0
 10
108.1923619534619
 20
-112.6117397201093
 30
0.0
 10
108.1913335866883
 20
-112.8587402911136
 30
0.0
 10
108.1920920983512
 20
-113.1056883497721
 30
0.0
 10
108.1926157631339
 20
-113.2760675734013
 30
0.0
 10
108.1921942056904
 20
-113.4464467970303
 30
0.0
 10
108.1921942056904
 20
-113.6257414500526
 30
0.0
  0
SPLINE
  5
49
330
42
100
AcDbEntity
  8
Layer 1
370
     0
100
AcDbSpline
210
0.0
220
0.0
230
1.0
 70
    11
 71
     3
 72
    89
 73
    85
 74
     0
 42
0.0000000001
 43
0.0000000001
 12
1.0
 22
0.0
 32
0.0
 13
1.0
 23
0.0
 33
0.0
 40
0.0
 40
0.0
 40
0.0
 40
0.0
 40
1.0
 40
1.0
 40
1.0
 40
2.0
 40
2.0
 40
2.0
 40
3.0
 40
3.0
 40
3.0
 40
4.0
 40
4.0
 40
4.0
 40
5.0
 40
5.0
 40
5.0
 40
6.0
 40
6.0
 40
6.0
 40
7.0
 40
7.0
 40
7.0
 40
8.0
 40
8.0
 40
8.0
 40
9.0
 40
9.0
 40
9.0
 40
10.0
 40
10.0
 40
10.0
 40
11.0
 40
11.0
 40
11.0
 40
12.0
 40
12.0
 40
12.0
 40
13.0
 40
13.0
 40
13.0
 40
14.0
 40
14.0
 40
14.0
 40
15.0
 40
15.0
 40
15.0
 40
16.0
 40
16.0
 40
16.0
 40
17.0
 40
17.0
 40
17.0
 40
18.0
 40
18.0
 40
18.0
 40
19.0
 40
19.0
 40
19.0
 40
20.0
 40
20.0
 40
20.0
 40
21.0
 40
21.0
 40
21.0
 40
22.0
 40
22.0
 40
22.0
 40
23.0
 40
23.0
 40
23.0
 40
24.0
 40
24.0
 40
24.0
 40
25.0
 40
25.0
 40
25.0
 40
26.0
 40
26.0
 40
26.0
 40
27.0
 40
27.0
 40
27.0
 40
28.0
 40
28.0
 40
28.0
 40
28.0
 10
96.05138888130685
 20
-92.5244239720246
 30
0.0
 10
96.42056598909357
 20
-92.75796169034865
 30
0.0
 10
96.79112537498563
 20
-92.989827765661
 30
0.0
 10
97.15823480915239
 20
-93.22703332547843
 30
0.0
 10
97.2217061899081
 20
-93.26804546762732
 30
0.0
 10
97.26418904241143
 20
-93.26481304100184
 30
0.0
 10
97.32666232392585
 20
-93.22638202652192
 30
0.0
 10
98.36027413304144
 20
-92.59056400102534
 30
0.0
 10
99.39612464557028
 20
-91.9583846434972
 30
0.0
 10
100.4293626688909
 20
-91.32196236135385
 30
0.0
 10
100.5078708140275
 20
-91.27360505482231
 30
0.0
 10
100.5639299312916
 20
-91.27291254826072
 30
0.0
 10
100.6429945614274
 20
-91.32036620483998
 30
0.0
 10
101.2297069794627
 20
-91.67250451505824
 30
0.0
 10
101.8157257969293
 20
-92.0261496378685
 30
0.0
 10
102.410682653271
 20
-92.36396301772757
 30
0.0
 10
102.5702705898176
 20
-92.4545752585946
 30
0.0
 10
102.6104228423026
 20
-92.54966709430217
 30
0.0
 10
102.5940010647982
 20
-92.72854748326245
 30
0.0
 10
102.553236897616
 20
-93.17256343601616
 30
0.0
 10
102.5359092821449
 20
-93.61906934917153
 30
0.0
 10
102.7064555242076
 20
-94.04816012627914
 30
0.0
 10
102.9631030507566
 20
-94.69387599963957
 30
0.0
 10
103.4335261494556
 20
-95.15213227952825
 30
0.0
 10
104.0020248061828
 20
-95.52032842752037
 30
0.0
 10
104.7449840627566
 20
-96.00151582779056
 30
0.0
 10
105.5670101374805
 20
-96.2738003640083
 30
0.0
 10
106.4361580199315
 20
-96.4145874220458
 30
0.0
 10
107.5626951658179
 20
-96.5970678240527
 30
0.0
 10
108.6733225295719
 20
-96.55370794243909
 30
0.0
 10
109.7563692423174
 20
-96.16644397818
 30
0.0
 10
110.5623622767646
 20
-95.87824528380186
 30
0.0
 10
111.2690325849683
 20
-95.44020698642319
 30
0.0
 10
111.7989069526084
 20
-94.75313034728394
 30
0.0
 10
112.2456163511043
 20
-94.17389145714391
 30
0.0
 10
112.4404707039521
 20
-93.52753084886976
 30
0.0
 10
112.3047948475823
 20
-92.79410258307685
 30
0.0
 10
112.1612625607955
 20
-92.01821298025607
 30
0.0
 10
111.7462093548208
 20
-91.41480236556228
 30
0.0
 10
111.1301563928511
 20
-90.94414369064468
 30
0.0
 10
110.2400123240972
 20
-90.26408364905765
 30
0.0
 10
109.2045636768819
 20
-90.00584434202322
 30
0.0
 10
108.1091707281439
 20
-89.93356182722837
 30
0.0
 10
107.3280670869782
 20
-89.88201804237374
 30
0.0
 10
106.5608033663094
 20
-89.99238513603359
 30
0.0
 10
105.7953133959914
 20
-90.12923705015028
 30
0.0
 10
105.7335968027948
 20
-90.14027084216362
 30
0.0
 10
105.6528845978066
 20
-90.12257272291862
 30
0.0
 10
105.5992425071298
 20
-90.08904067270805
 30
0.0
 10
105.150467623029
 20
-89.80851169818413
 30
0.0
 10
104.7058908092476
 20
-89.52126479007536
 30
0.0
 10
104.2604015934559
 20
-89.23549223901132
 30
0.0
 10
104.2382683689968
 20
-89.22129457815737
 30
0.0
 10
104.2194062260841
 20
-89.20199811438412
 30
0.0
 10
104.1941631038066
 20
-89.18104240634793
 30
0.0
 10
104.2249440905626
 20
-89.16135137064202
 30
0.0
 10
104.2475718062791
 20
-89.14543903582677
 30
0.0
 10
104.2714875331461
 20
-89.13178473188518
 30
0.0
 10
105.411467110245
 20
-88.48092118995025
 30
0.0
 10
106.5521738374664
 20
-87.83132523769811
 30
0.0
 10
107.6902870382712
 20
-87.17721650572007
 30
0.0
 10
107.7683787313317
 20
-87.13233486008242
 30
0.0
 10
107.8195884793192
 20
-87.15187291711385
 30
0.0
 10
107.8843070282899
 20
-87.18955563066496
 30
0.0
 10
109.2009724158928
 20
-87.95619904924763
 30
0.0
 10
110.5181556335733
 20
-88.72195176362963
 30
0.0
 10
111.8353811528657
 20
-89.48763354987813
 30
0.0
 10
113.981546143088
 20
-90.73516315208035
 30
0.0
 10
116.1280262073859
 20
-91.98215377339895
 30
0.0
 10
118.2731132358403
 20
-93.2315355298014
 30
0.0
 10
118.3435293743416
 20
-93.27255058930278
 30
0.0
 10
118.3939237222913
 20
-93.27755457826446
 30
0.0
 10
118.4671638580609
 20
-93.23528870385711
 30
0.0
 10
118.722038363598
 20
-93.08821037504518
 30
0.0
 10
118.9822924672371
 20
-92.95045007027858
 30
0.0
 10
119.2404314902778
 20
-92.80902630004671
 30
0.0
 10
119.3510020692779
 20
-92.74844747434466
 30
0.0
 10
119.4614092765351
 20
-92.68757472537285
 30
0.0
 10
119.5720790455219
 20
-92.62673333794132
 30
0.0
 10
117.3391461557556
 20
-88.86242119490855
 30
0.0
 10
112.8767768232542
 20
-85.9188075488549
 30
0.0
 10
107.5963570382163
 20
-85.9968707977277
 30
0.0
 10
102.2747281897327
 20
-86.07554322628015
 30
0.0
 10
98.10357190613196
 20
-89.09081963204636
 30
0.0
 10
96.05138888130685
 20
-92.5244239720246
 30
0.0
  0
SPLINE
  5
4A
330
42
100
AcDbEntity
  8
Layer 1
370
     0
100
AcDbSpline
210
0.0
220
0.0
230
1.0
 70
    11
 71
     3
 72
   104
 73
   100
 74
     0
 42
0.0000000001
 43
0.0000000001
 12
1.0
 22
0.0
 32
0.0
 13
1.0
 23
0.0
 33
0.0
 40
0.0
 40
0.0
 40
0.0
 40
0.0
 40
1.0
 40
1.0
 40
1.0
 40
2.0
 40
2.0
 40
2.0
 40
3.0
 40
3.0
 40
3.0
 40
4.0
 40
4.0
 40
4.0
 40
5.0
 40
5.0
 40
5.0
 40
6.0
 40
6.0
 40
6.0
 40
7.0
 40
7.0
 40
7.0
 40
8.0
 40
8.0
 40
8.0
 40
9.0
 40
9.0
 40
9.0
 40
10.0
 40
10.0
 40
10.0
 40
11.0
 40
11.0
 40
11.0
 40
12.0
 40
12.0
 40
12.0
 40
13.0
 40
13.0
 40
13.0
 40
14.0
 40
14.0
 40
14.0
 40
15.0
 40
15.0
 40
15.0
 40
16.0
 40
16.0
 40
16.0
 40
17.0
 40
17.0
 40
17.0
 40
18.0
 40
18.0
 40
18.0
 40
19.0
 40
19.0
 40
19.0
 40
20.0
 40
20.0
 40
20.0
 40
21.0
 40
21.0
 40
21.0
 40
22.0
 40
22.0
 40
22.0
 40
23.0
 40
23.0
 40
23.0
 40
24.0
 40
24.0
 40
24.0
 40
25.0
 40
25.0
 40
25.0
 40
26.0
 40
26.0
 40
26.0
 40
27.0
 40
27.0
 40
27.0
 40
28.0
 40
28.0
 40
28.0
 40
29.0
 40
29.0
 40
29.0
 40
30.0
 40
30.0
 40
30.0
 40
31.0
 40
31.0
 40
31.0
 40
32.0
 40
32.0
 40
32.0
 40
33.0
 40
33.0
 40
33.0
 40
33.0
 10
95.65247884566799
 20
-93.2051575573817
 30
0.0
 10
96.03228842715798
 20
-93.45638464289296
 30
0.0
 10
96.39463218359987
 20
-93.69397602258525
 30
0.0
 10
96.75338869041214
 20
-93.93686531450831
 30
0.0
 10
96.78611664532599
 20
-93.95902260712606
 30
0.0
 10
96.80421845323036
 20
-94.01323941625476
 30
0.0
 10
96.8139729861506
 20
-94.05602020338702
 30
0.0
 10
96.82434198645166
 20
-94.10149808295209
 30
0.0
 10
96.81686043583707
 20
-94.15108870027431
 30
0.0
 10
96.81686080050598
 20
-94.19888295776417
 30
0.0
 10
96.8168888800242
 20
-98.09827691125368
 30
0.0
 10
96.81796939447503
 20
-101.9976715940813
 30
0.0
 10
96.8131141904937
 20
-105.8970589835277
 30
0.0
 10
96.81291034048427
 20
-106.0609252175889
 30
0.0
 10
96.85921018412988
 20
-106.1507417505482
 30
0.0
 10
97.00462890400993
 20
-106.2326814316218
 30
0.0
 10
98.02737466888406
 20
-106.8089592089239
 30
0.0
 10
99.0442084188152
 20
-107.3957307033484
 30
0.0
 10
100.0633012936273
 20
-107.9784995900743
 30
0.0
 10
100.113174164809
 20
-108.0070196286035
 30
0.0
 10
100.1665011814098
 20
-108.0295022060306
 30
0.0
 10
100.2413735759311
 20
-108.0661193565629
 30
0.0
 10
100.2413735759311
 20
-107.9954027307493
 30
0.0
 10
100.2413735759311
 20
-107.9491758209169
 30
0.0
 10
100.2413735759311
 20
-107.9029489110849
 30
0.0
 10
100.2413750346073
 20
-107.1820185836167
 30
0.0
 10
100.239410197665
 20
-106.4610780454144
 30
0.0
 10
100.243583470488
 20
-105.7401725154427
 30
0.0
 10
100.2441800690843
 20
-105.6370149292723
 30
0.0
 10
100.2131824689018
 20
-105.5592485210211
 30
0.0
 10
100.1492377476949
 20
-105.4817636372913
 30
0.0
 10
99.45427732795825
 20
-104.6396494022458
 30
0.0
 10
98.96605546135133
 20
-103.6917154968275
 30
0.0
 10
98.72451580965169
 20
-102.6252656027391
 30
0.0
 10
98.52822830736366
 20
-101.7586135153947
 30
0.0
 10
98.49802459174354
 20
-100.8900943224184
 30
0.0
 10
98.8085494205183
 20
-100.0400653099042
 30
0.0
 10
99.10298140328896
 20
-99.23408977957263
 30
0.0
 10
99.64187950703581
 20
-98.67117785297874
 30
0.0
 10
100.4933577144293
 20
-98.46129913449789
 30
0.0
 10
101.0823493141441
 20
-98.31612000219629
 30
0.0
 10
101.6624247551281
 20
-98.39498479368217
 30
0.0
 10
102.2261622924935
 20
-98.60326334428963
 30
0.0
 10
103.1439446299686
 20
-98.94234723118431
 30
0.0
 10
103.8779315687748
 20
-99.53604014453389
 30
0.0
 10
104.497716553994
 20
-100.2769980972585
 30
0.0
 10
105.2269970737989
 20
-101.1488591175807
 30
0.0
 10
105.729298083812
 20
-102.1378401733785
 30
0.0
 10
105.9690519510822
 20
-103.2526889462726
 30
0.0
 10
106.1500474206411
 20
-104.0943072313847
 30
0.0
 10
106.165825921908
 20
-104.9327105939868
 30
0.0
 10
105.8677833506881
 20
-105.7549430714038
 30
0.0
 10
105.6249713686074
 20
-106.4248124358646
 30
0.0
 10
105.1986783325952
 20
-106.9321137881488
 30
0.0
 10
104.5367551071428
 20
-107.22665116028
 30
0.0
 10
104.498539247413
 20
-107.2436564082945
 30
0.0
 10
104.4573265372764
 20
-107.3068287604136
 30
0.0
 10
104.4571493081089
 20
-107.3486811000971
 30
0.0
 10
104.4527448350967
 20
-108.3922181072573
 30
0.0
 10
104.4550706944171
 20
-109.4357813705906
 30
0.0
 10
104.4514342144634
 20
-110.4793242124557
 30
0.0
 10
104.45108704951
 20
-110.5790451573223
 30
0.0
 10
104.5149289340394
 20
-110.6067775106634
 30
0.0
 10
104.5789823266289
 20
-110.644134210067
 30
0.0
 10
105.4487246196619
 20
-111.1514034714731
 30
0.0
 10
106.3180198284164
 20
-111.6594458313052
 30
0.0
 10
107.1895978655414
 20
-112.163541013137
 30
0.0
 10
107.2691438588485
 20
-112.2095476628516
 30
0.0
 10
107.2997410523936
 20
-112.2595131599765
 30
0.0
 10
107.2985303510853
 20
-112.351616897335
 30
0.0
 10
107.2934497816191
 20
-112.7379035484898
 30
0.0
 10
107.2939676116969
 20
-113.1243214805093
 30
0.0
 10
107.2979789714533
 20
-113.5106343878371
 30
0.0
 10
107.2989592019101
 20
-113.604873627262
 30
0.0
 10
107.2786938124208
 20
-113.6323988485719
 30
0.0
 10
107.1760773951481
 20
-113.6214325203361
 30
0.0
 10
106.8443773275579
 20
-113.5859779347953
 30
0.0
 10
106.5082064171847
 20
-113.5838686889017
 30
0.0
 10
106.1792253221709
 20
-113.5333255559716
 30
0.0
 10
105.5838067947879
 20
-113.4418461320591
 30
0.0
 10
104.9835046192361
 20
-113.3596030463199
 30
0.0
 10
104.4007240630999
 20
-113.2122650731313
 30
0.0
 10
101.6788545553522
 20
-112.5241141189154
 30
0.0
 10
99.37503473931685
 20
-111.1293716250151
 30
0.0
 10
97.49646208840454
 20
-109.0426506103531
 30
0.0
 10
95.88962824644865
 20
-107.2577778533131
 30
0.0
 10
94.82338320520965
 20
-105.1872437692753
 30
0.0
 10
94.30233145868398
 20
-102.8440947588436
 30
0.0
 10
94.170932258818
 20
-102.2531966692369
 30
0.0
 10
94.08341592159395
 20
-101.6480750272724
 30
0.0
 10
94.03362122634394
 20
-101.0447110902195
 30
0.0
 10
93.98039645383321
 20
-100.3997865487381
 30
0.0
 10
93.95657152956393
 20
-99.74729147738952
 30
0.0
 10
93.98836182913485
 20
-99.10147130867523
 30
0.0
 10
94.07987293367279
 20
-97.24241684033011
 30
0.0
 10
94.53409332981026
 20
-95.46978091856158
 30
0.0
 10
95.35258995495249
 20
-93.7943541011136
 30
0.0
 10
95.44654457016925
 20
-93.60203346895521
 30
0.0
 10
95.54664075950738
 20
-93.41271333389464
 30
0.0
 10
95.65247884566799
 20
-93.2051575573817
 30
0.0
  0
HATCH
  5
4B
330
42
100
AcDbEntity
  8
Layer 1
 62
     7
420
 16777215
100
AcDbHatch
 10
0.0
 20
0.0
 30
0.0
210
0.0
220
0.0
230
1.0
  2
SOLID
 70
     1
 71
     0
 91
        1
 92
        1
 93
        1
 72
     4
 94
        3
 73
     0
 74
     1
 95
      104
 96
      100
 40
0.0
 40
0.0
 40
0.0
 40
0.0
 40
1.0
 40
1.0
 40
1.0
 40
2.0
 40
2.0
 40
2.0
 40
3.0
 40
3.0
 40
3.0
 40
4.0
 40
4.0
 40
4.0
 40
5.0
 40
5.0
 40
5.0
 40
6.0
 40
6.0
 40
6.0
 40
7.0
 40
7.0
 40
7.0
 40
8.0
 40
8.0
 40
8.0
 40
9.0
 40
9.0
 40
9.0
 40
10.0
 40
10.0
 40
10.0
 40
11.0
 40
11.0
 40
11.0
 40
12.0
 40
12.0
 40
12.0
 40
13.0
 40
13.0
 40
13.0
 40
14.0
 40
14.0
 40
14.0
 40
15.0
 40
15.0
 40
15.0
 40
16.0
 40
16.0
 40
16.0
 40
17.0
 40
17.0
 40
17.0
 40
18.0
 40
18.0
 40
18.0
 40
19.0
 40
19.0
 40
19.0
 40
20.0
 40
20.0
 40
20.0
 40
21.0
 40
21.0
 40
21.0
 40
22.0
 40
22.0
 40
22.0
 40
23.0
 40
23.0
 40
23.0
 40
24.0
 40
24.0
 40
24.0
 40
25.0
 40
25.0
 40
25.0
 40
26.0
 40
26.0
 40
26.0
 40
27.0
 40
27.0
 40
27.0
 40
28.0
 40
28.0
 40
28.0
 40
29.0
 40
29.0
 40
29.0
 40
30.0
 40
30.0
 40
30.0
 40
31.0
 40
31.0
 40
31.0
 40
32.0
 40
32.0
 40
32.0
 40
33.0
 40
33.0
 40
33.0
 40
33.0
 10
95.65247884566799
 20
-93.2051575573817
 10
96.03228842715798
 20
-93.45638464289296
 10
96.39463218359987
 20
-93.69397602258525
 10
96.75338869041214
 20
-93.93686531450831
 10
96.78611664532599
 20
-93.95902260712606
 10
96.80421845323036
 20
-94.01323941625476
 10
96.8139729861506
 20
-94.05602020338702
 10
96.82434198645166
 20
-94.10149808295209
 10
96.81686043583707
 20
-94.15108870027431
 10
96.81686080050598
 20
-94.19888295776417
 10
96.8168888800242
 20
-98.09827691125368
 10
96.81796939447503
 20
-101.9976715940813
 10
96.8131141904937
 20
-105.8970589835277
 10
96.81291034048427
 20
-106.0609252175889
 10
96.85921018412988
 20
-106.1507417505482
 10
97.00462890400993
 20
-106.2326814316218
 10
98.02737466888406
 20
-106.8089592089239
 10
99.0442084188152
 20
-107.3957307033484
 10
100.0633012936273
 20
-107.9784995900743
 10
100.113174164809
 20
-108.0070196286035
 10
100.1665011814098
 20
-108.0295022060306
 10
100.2413735759311
 20
-108.0661193565629
 10
100.2413735759311
 20
-107.9954027307493
 10
100.2413735759311
 20
-107.9491758209169
 10
100.2413735759311
 20
-107.9029489110849
 10
100.2413750346073
 20
-107.1820185836167
 10
100.239410197665
 20
-106.4610780454144
 10
100.243583470488
 20
-105.7401725154427
 10
100.2441800690843
 20
-105.6370149292723
 10
100.2131824689018
 20
-105.5592485210211
 10
100.1492377476949
 20
-105.4817636372913
 10
99.45427732795825
 20
-104.6396494022458
 10
98.96605546135133
 20
-103.6917154968275
 10
98.72451580965169
 20
-102.6252656027391
 10
98.52822830736366
 20
-101.7586135153947
 10
98.49802459174354
 20
-100.8900943224184
 10
98.8085494205183
 20
-100.0400653099042
 10
99.10298140328896
 20
-99.23408977957263
 10
99.64187950703581
 20
-98.67117785297874
 10
100.4933577144293
 20
-98.46129913449789
 10
101.0823493141441
 20
-98.31612000219629
 10
101.6624247551281
 20
-98.39498479368217
 10
102.2261622924935
 20
-98.60326334428963
 10
103.1439446299686
 20
-98.94234723118431
 10
103.8779315687748
 20
-99.53604014453389
 10
104.497716553994
 20
-100.2769980972585
 10
105.2269970737989
 20
-101.1488591175807
 10
105.729298083812
 20
-102.1378401733785
 10
105.9690519510822
 20
-103.2526889462726
 10
106.1500474206411
 20
-104.0943072313847
 10
106.165825921908
 20
-104.9327105939868
 10
105.8677833506881
 20
-105.7549430714038
 10
105.6249713686074
 20
-106.4248124358646
 10
105.1986783325952
 20
-106.9321137881488
 10
104.5367551071428
 20
-107.22665116028
 10
104.498539247413
 20
-107.2436564082945
 10
104.4573265372764
 20
-107.3068287604136
 10
104.4571493081089
 20
-107.3486811000971
 10
104.4527448350967
 20
-108.3922181072573
 10
104.4550706944171
 20
-109.4357813705906
 10
104.4514342144634
 20
-110.4793242124557
 10
104.45108704951
 20
-110.5790451573223
 10
104.5149289340394
 20
-110.6067775106634
 10
104.5789823266289
 20
-110.644134210067
 10
105.4487246196619
 20
-111.1514034714731
 10
106.3180198284164
 20
-111.6594458313052
 10
107.1895978655414
 20
-112.163541013137
 10
107.2691438588485
 20
-112.2095476628516
 10
107.2997410523936
 20
-112.2595131599765
 10
107.2985303510853
 20
-112.351616897335
 10
107.2934497816191
 20
-112.7379035484898
 10
107.2939676116969
 20
-113.1243214805093
 10
107.2979789714533
 20
-113.5106343878371
 10
107.2989592019101
 20
-113.604873627262
 10
107.2786938124208
 20
-113.6323988485719
 10
107.1760773951481
 20
-113.6214325203361
 10
106.8443773275579
 20
-113.5859779347953
 10
106.5082064171847
 20
-113.5838686889017
 10
106.1792253221709
 20
-113.5333255559716
 10
105.5838067947879
 20
-113.4418461320591
 10
104.9835046192361
 20
-113.3596030463199
 10
104.4007240630999
 20
-113.2122650731313
 10
101.6788545553522
 20
-112.5241141189154
 10
99.37503473931685
 20
-111.1293716250151
 10
97.49646208840454
 20
-109.0426506103531
 10
95.88962824644865
 20
-107.2577778533131
 10
94.82338320520965
 20
-105.1872437692753
 10
94.30233145868398
 20
-102.8440947588436
 10
94.170932258818
 20
-102.2531966692369
 10
94.08341592159395
 20
-101.6480750272724
 10
94.03362122634394
 20
-101.0447110902195
 10
93.98039645383321
 20
-100.3997865487381
 10
93.95657152956393
 20
-99.74729147738952
 10
93.98836182913485
 20
-99.10147130867523
 10
94.07987293367279
 20
-97.24241684033011
 10
94.53409332981026
 20
-95.46978091856158
 10
95.35258995495249
 20
-93.7943541011136
 10
95.44654457016925
 20
-93.60203346895521
 10
95.54664075950738
 20
-93.41271333389464
 10
95.65247884566799
 20
-93.2051575573817
 97
        0
 97
        0
 75
     2
 76
     1
 98
        0
  0
SPLINE
  5
4C
330
42
100
AcDbEntity
  8
Layer 1
370
     0
100
AcDbSpline
210
0.0
220
0.0
230
1.0
 70
    11
 71
     3
 72
    92
 73
    88
 74
     0
 42
0.0000000001
 43
0.0000000001
 12
1.0
 22
0.0
 32
0.0
 13
1.0
 23
0.0
 33
0.0
 40
0.0
 40
0.0
 40
0.0
 40
0.0
 40
1.0
 40
1.0
 40
1.0
 40
2.0
 40
2.0
 40
2.0
 40
3.0
 40
3.0
 40
3.0
 40
4.0
 40
4.0
 40
4.0
 40
5.0
 40
5.0
 40
5.0
 40
6.0
 40
6.0
 40
6.0
 40
7.0
 40
7.0
 40
7.0
 40
8.0
 40
8.0
 40
8.0
 40
9.0
 40
9.0
 40
9.0
 40
10.0
 40
10.0
 40
10.0
 40
11.0
 40
11.0
 40
11.0
 40
12.0
 40
12.0
 40
12.0
 40
13.0
 40
13.0
 40
13.0
 40
14.0
 40
14.0
 40
14.0
 40
15.0
 40
15.0
 40
15.0
 40
16.0
 40
16.0
 40
16.0
 40
17.0
 40
17.0
 40
17.0
 40
18.0
 40
18.0
 40
18.0
 40
19.0
 40
19.0
 40
19.0
 40
20.0
 40
20.0
 40
20.0
 40
21.0
 40
21.0
 40
21.0
 40
22.0
 40
22.0
 40
22.0
 40
23.0
 40
23.0
 40
23.0
 40
24.0
 40
24.0
 40
24.0
 40
25.0
 40
25.0
 40
25.0
 40
26.0
 40
26.0
 40
26.0
 40
27.0
 40
27.0
 40
27.0
 40
28.0
 40
28.0
 40
28.0
 40
29.0
 40
29.0
 40
29.0
 40
29.0
 10
108.1921942056904
 20
-113.6257414500526
 30
0.0
 10
108.1921942056904
 20
-113.4464467970303
 30
0.0
 10
108.1926157631339
 20
-113.2760675734013
 30
0.0
 10
108.1920920983512
 20
-113.1056883497721
 30
0.0
 10
108.1913335866883
 20
-112.8587402911136
 30
0.0
 10
108.1923619534619
 20
-112.6117397201093
 30
0.0
 10
108.1872828426726
 20
-112.3648704299697
 30
0.0
 10
108.1856928855326
 20
-112.2875635047454
 30
0.0
 10
108.2123035168181
 20
-112.2432926797983
 30
0.0
 10
108.2798212655608
 20
-112.2039580153655
 30
0.0
 10
109.9679560707165
 20
-111.2204717930962
 30
0.0
 10
111.6547284722317
 20
-110.2346516887865
 30
0.0
 10
113.3418932576649
 20
-109.2494996582109
 30
0.0
 10
115.1080118138363
 20
-108.2182490813151
 30
0.0
 10
116.8740559775185
 20
-107.1868701409074
 30
0.0
 10
118.6412627061915
 20
-106.1574866696439
 30
0.0
 10
118.7182341358724
 20
-106.1126513369782
 30
0.0
 10
118.7543247042692
 20
-106.0638104792611
 30
0.0
 10
118.7543042828017
 20
-105.9702115987209
 30
0.0
 10
118.7540154648992
 20
-104.6438460138891
 30
0.0
 10
118.7576592382345
 20
-103.317480429057
 30
0.0
 10
118.7599435252812
 20
-101.9911148442252
 30
0.0
 10
118.7600018723317
 20
-101.9567177989836
 30
0.0
 10
118.7554770585269
 20
-101.9223134603607
 30
0.0
 10
118.7519178884158
 20
-101.8710555760558
 30
0.0
 10
118.7051118841021
 20
-101.8935104386339
 30
0.0
 10
118.6696339597411
 20
-101.9077689992223
 30
0.0
 10
118.6368312476678
 20
-101.9266705263942
 30
0.0
 10
118.0577338491263
 20
-102.2603762738627
 30
0.0
 10
117.4781332072701
 20
-102.5932359890919
 30
0.0
 10
116.901610372354
 20
-102.9313425628823
 30
0.0
 10
116.8527695146369
 20
-102.9599880475715
 30
0.0
 10
116.8101542872618
 20
-103.0189302384931
 30
0.0
 10
116.7897313607347
 20
-103.0732323801838
 30
0.0
 10
116.626132064432
 20
-103.508228608191
 30
0.0
 10
116.506208453156
 20
-103.9640080557646
 30
0.0
 10
116.3022475843232
 20
-104.3786659604689
 30
0.0
 10
115.635415183867
 20
-105.7343494797526
 30
0.0
 10
114.6486629854179
 20
-106.7678755916373
 30
0.0
 10
113.1937384257617
 20
-107.2840807039045
 30
0.0
 10
112.5994707939601
 20
-107.4949279834322
 30
0.0
 10
111.9877982368442
 20
-107.5367774057629
 30
0.0
 10
111.3781634504849
 20
-107.3428901552851
 30
0.0
 10
110.5348137166341
 20
-107.0746702205081
 30
0.0
 10
110.0452454918255
 20
-106.4684356085458
 30
0.0
 10
109.8000682661654
 20
-105.6432697331397
 30
0.0
 10
109.5989620268025
 20
-104.966432272113
 30
0.0
 10
109.5945393203363
 20
-104.2760349564337
 30
0.0
 10
109.7100460598516
 20
-103.5870394286548
 30
0.0
 10
109.944860849254
 20
-102.1863892958403
 30
0.0
 10
110.5410933179986
 20
-100.954340260276
 30
0.0
 10
111.4977355207784
 20
-99.90433256515988
 30
0.0
 10
112.1103066224794
 20
-99.23197469897369
 30
0.0
 10
112.8281051719854
 20
-98.70697231009203
 30
0.0
 10
113.7121796887588
 20
-98.44227216116647
 30
0.0
 10
114.3735697680326
 20
-98.24424372874374
 30
0.0
 10
115.0335128404418
 20
-98.2264289153968
 30
0.0
 10
115.6619557986914
 20
-98.54756816675602
 30
0.0
 10
115.8777071478553
 20
-98.6578178369758
 30
0.0
 10
116.0606178593636
 20
-98.83448103799796
 30
0.0
 10
116.252976417105
 20
-98.98777624509384
 30
0.0
 10
116.4599261136257
 20
-99.15270001945454
 30
0.0
 10
116.4570554387164
 20
-99.15622709868757
 30
0.0
 10
116.6928577519575
 20
-99.032957284037
 30
0.0
 10
117.3308200315776
 20
-98.69945137521783
 30
0.0
 10
117.9678210435335
 20
-98.36407690209049
 30
0.0
 10
118.6078269286152
 20
-98.03454588612097
 30
0.0
 10
118.70525775173
 20
-97.98437909167019
 30
0.0
 10
118.7405723043483
 20
-97.92659217235823
 30
0.0
 10
118.7401813791065
 20
-97.81509679259968
 30
0.0
 10
118.735796598224
 20
-96.56043973344859
 30
0.0
 10
118.7385476616785
 20
-95.30575787680067
 30
0.0
 10
118.7351606153683
 20
-94.05109352426803
 30
0.0
 10
118.7348980536389
 20
-93.9547537910073
 30
0.0
 10
118.7635989680258
 20
-93.90223852775335
 30
0.0
 10
118.8490628109806
 20
-93.85688536500993
 30
0.0
 10
119.1863846169347
 20
-93.67787661253772
 30
0.0
 10
119.5194558402241
 20
-93.49085243393385
 30
0.0
 10
119.8542978965106
 20
-93.30715841326622
 30
0.0
 10
119.8783543856386
 20
-93.29396103966795
 30
0.0
 10
119.9039804104386
 20
-93.2836255889212
 30
0.0
 10
119.9285911965512
 20
-93.27209329429057
 30
0.0
 10
121.8438885753707
 20
-96.64681816642744
 30
0.0
 10
122.4594499634357
 20
-101.7849615849508
 30
0.0
 10
119.8966024258394
 20
-106.4617125695941
 30
0.0
 10
117.1336916024169
 20
-111.5035483457345
 30
0.0
 10
112.1078224967831
 20
-113.5535982388418
 30
0.0
 10
108.1921942056904
 20
-113.6257414500526
 30
0.0
  0
HATCH
  5
4D
330
42
100
AcDbEntity
  8
Layer 1
 62
     7
420
 16777215
100
AcDbHatch
 10
0.0
 20
0.0
 30
0.0
210
0.0
220
0.0
230
1.0
  2
SOLID
 70
     1
 71
     0
 91
        1
 92
        1
 93
        1
 72
     4
 94
        3
 73
     0
 74
     1
 95
       92
 96
       88
 40
0.0
 40
0.0
 40
0.0
 40
0.0
 40
1.0
 40
1.0
 40
1.0
 40
2.0
 40
2.0
 40
2.0
 40
3.0
 40
3.0
 40
3.0
 40
4.0
 40
4.0
 40
4.0
 40
5.0
 40
5.0
 40
5.0
 40
6.0
 40
6.0
 40
6.0
 40
7.0
 40
7.0
 40
7.0
 40
8.0
 40
8.0
 40
8.0
 40
9.0
 40
9.0
 40
9.0
 40
10.0
 40
10.0
 40
10.0
 40
11.0
 40
11.0
 40
11.0
 40
12.0
 40
12.0
 40
12.0
 40
13.0
 40
13.0
 40
13.0
 40
14.0
 40
14.0
 40
14.0
 40
15.0
 40
15.0
 40
15.0
 40
16.0
 40
16.0
 40
16.0
 40
17.0
 40
17.0
 40
17.0
 40
18.0
 40
18.0
 40
18.0
 40
19.0
 40
19.0
 40
19.0
 40
20.0
 40
20.0
 40
20.0
 40
21.0
 40
21.0
 40
21.0
 40
22.0
 40
22.0
 40
22.0
 40
23.0
 40
23.0
 40
23.0
 40
24.0
 40
24.0
 40
24.0
 40
25.0
 40
25.0
 40
25.0
 40
26.0
 40
26.0
 40
26.0
 40
27.0
 40
27.0
 40
27.0
 40
28.0
 40
28.0
 40
28.0
 40
29.0
 40
29.0
 40
29.0
 40
29.0
 10
108.1921942056904
 20
-113.6257414500526
 10
108.1921942056904
 20
-113.4464467970303
 10
108.1926157631339
 20
-113.2760675734013
 10
108.1920920983512
 20
-113.1056883497721
 10
108.1913335866883
 20
-112.8587402911136
 10
108.1923619534619
 20
-112.6117397201093
 10
108.1872828426726
 20
-112.3648704299697
 10
108.1856928855326
 20
-112.2875635047454
 10
108.2123035168181
 20
-112.2432926797983
 10
108.2798212655608
 20
-112.2039580153655
 10
109.9679560707165
 20
-111.2204717930962
 10
111.6547284722317
 20
-110.2346516887865
 10
113.3418932576649
 20
-109.2494996582109
 10
115.1080118138363
 20
-108.2182490813151
 10
116.8740559775185
 20
-107.1868701409074
 10
118.6412627061915
 20
-106.1574866696439
 10
118.7182341358724
 20
-106.1126513369782
 10
118.7543247042692
 20
-106.0638104792611
 10
118.7543042828017
 20
-105.9702115987209
 10
118.7540154648992
 20
-104.6438460138891
 10
118.7576592382345
 20
-103.317480429057
 10
118.7599435252812
 20
-101.9911148442252
 10
118.7600018723317
 20
-101.9567177989836
 10
118.7554770585269
 20
-101.9223134603607
 10
118.7519178884158
 20
-101.8710555760558
 10
118.7051118841021
 20
-101.8935104386339
 10
118.6696339597411
 20
-101.9077689992223
 10
118.6368312476678
 20
-101.9266705263942
 10
118.0577338491263
 20
-102.2603762738627
 10
117.4781332072701
 20
-102.5932359890919
 10
116.901610372354
 20
-102.9313425628823
 10
116.8527695146369
 20
-102.9599880475715
 10
116.8101542872618
 20
-103.0189302384931
 10
116.7897313607347
 20
-103.0732323801838
 10
116.626132064432
 20
-103.508228608191
 10
116.506208453156
 20
-103.9640080557646
 10
116.3022475843232
 20
-104.3786659604689
 10
115.635415183867
 20
-105.7343494797526
 10
114.6486629854179
 20
-106.7678755916373
 10
113.1937384257617
 20
-107.2840807039045
 10
112.5994707939601
 20
-107.4949279834322
 10
111.9877982368442
 20
-107.5367774057629
 10
111.3781634504849
 20
-107.3428901552851
 10
110.5348137166341
 20
-107.0746702205081
 10
110.0452454918255
 20
-106.4684356085458
 10
109.8000682661654
 20
-105.6432697331397
 10
109.5989620268025
 20
-104.966432272113
 10
109.5945393203363
 20
-104.2760349564337
 10
109.7100460598516
 20
-103.5870394286548
 10
109.944860849254
 20
-102.1863892958403
 10
110.5410933179986
 20
-100.954340260276
 10
111.4977355207784
 20
-99.90433256515988
 10
112.1103066224794
 20
-99.23197469897369
 10
112.8281051719854
 20
-98.70697231009203
 10
113.7121796887588
 20
-98.44227216116647
 10
114.3735697680326
 20
-98.24424372874374
 10
115.0335128404418
 20
-98.2264289153968
 10
115.6619557986914
 20
-98.54756816675602
 10
115.8777071478553
 20
-98.6578178369758
 10
116.0606178593636
 20
-98.83448103799796
 10
116.252976417105
 20
-98.98777624509384
 10
116.4599261136257
 20
-99.15270001945454
 10
116.4570554387164
 20
-99.15622709868757
 10
116.6928577519575
 20
-99.032957284037
 10
117.3308200315776
 20
-98.69945137521783
 10
117.9678210435335
 20
-98.36407690209049
 10
118.6078269286152
 20
-98.03454588612097
 10
118.70525775173
 20
-97.98437909167019
 10
118.7405723043483
 20
-97.92659217235823
 10
118.7401813791065
 20
-97.81509679259968
 10
118.735796598224
 20
-96.56043973344859
 10
118.7385476616785
 20
-95.30575787680067
 10
118.7351606153683
 20
-94.05109352426803
 10
118.7348980536389
 20
-93.9547537910073
 10
118.7635989680258
 20
-93.90223852775335
 10
118.8490628109806
 20
-93.85688536500993
 10
119.1863846169347
 20
-93.67787661253772
 10
119.5194558402241
 20
-93.49085243393385
 10
119.8542978965106
 20
-93.30715841326622
 10
119.8783543856386
 20
-93.29396103966795
 10
119.9039804104386
 20
-93.2836255889212
 10
119.9285911965512
 20
-93.27209329429057
 10
121.8438885753707
 20
-96.64681816642744
 10
122.4594499634357
 20
-101.7849615849508
 10
119.8966024258394
 20
-106.4617125695941
 10
117.1336916024169
 20
-111.5035483457345
 10
112.1078224967831
 20
-113.5535982388418
 10
108.1921942056904
 20
-113.6257414500526
 97
        0
 97
        0
 75
     2
 76
     1
 98
        0
  0
SPLINE
  5
4E
330
42
100
AcDbEntity
  8
Layer 1
370
     0
100
AcDbSpline
210
0.0
220
0.0
230
1.0
 70
    11
 71
     3
 72
    89
 73
    85
 74
     0
 42
0.0000000001
 43
0.0000000001
 12
1.0
 22
0.0
 32
0.0
 13
1.0
 23
0.0
 33
0.0
 40
0.0
 40
0.0
 40
0.0
 40
0.0
 40
1.0
 40
1.0
 40
1.0
 40
2.0
 40
2.0
 40
2.0
 40
3.0
 40
3.0
 40
3.0
 40
4.0
 40
4.0
 40
4.0
 40
5.0
 40
5.0
 40
5.0
 40
6.0
 40
6.0
 40
6.0
 40
7.0
 40
7.0
 40
7.0
 40
8.0
 40
8.0
 40
8.0
 40
9.0
 40
9.0
 40
9.0
 40
10.0
 40
10.0
 40
10.0
 40
11.0
 40
11.0
 40
11.0
 40
12.0
 40
12.0
 40
12.0
 40
13.0
 40
13.0
 40
13.0
 40
14.0
 40
14.0
 40
14.0
 40
15.0
 40
15.0
 40
15.0
 40
16.0
 40
16.0
 40
16.0
 40
17.0
 40
17.0
 40
17.0
 40
18.0
 40
18.0
 40
18.0
 40
19.0
 40
19.0
 40
19.0
 40
20.0
 40
20.0
 40
20.0
 40
21.0
 40
21.0
 40
21.0
 40
22.0
 40
22.0
 40
22.0
 40
23.0
 40
23.0
 40
23.0
 40
24.0
 40
24.0
 40
24.0
 40
25.0
 40
25.0
 40
25.0
 40
26.0
 40
26.0
 40
26.0
 40
27.0
 40
27.0
 40
27.0
 40
28.0
 40
28.0
 40
28.0
 40
28.0
 10
96.05138888130685
 20
-92.5244239720246
 30
0.0
 10
98.10357190613196
 20
-89.09081963204636
 30
0.0
 10
102.2747281897327
 20
-86.07554322628015
 30
0.0
 10
107.5963570382163
 20
-85.9968707977277
 30
0.0
 10
112.8767768232542
 20
-85.9188075488549
 30
0.0
 10
117.3391461557556
 20
-88.86242119490855
 30
0.0
 10
119.5720790455219
 20
-92.62673333794132
 30
0.0
 10
119.4614092765351
 20
-92.68757472537285
 30
0.0
 10
119.3510020692779
 20
-92.74844747434466
 30
0.0
 10
119.2404314902778
 20
-92.80902630004671
 30
0.0
 10
118.9822924672371
 20
-92.95045007027858
 30
0.0
 10
118.722038363598
 20
-93.08821037504518
 30
0.0
 10
118.4671638580609
 20
-93.23528870385711
 30
0.0
 10
118.3939237222913
 20
-93.27755457826446
 30
0.0
 10
118.3435293743416
 20
-93.27255058930278
 30
0.0
 10
118.2731132358403
 20
-93.2315355298014
 30
0.0
 10
116.1280262073859
 20
-91.98215377339895
 30
0.0
 10
113.981546143088
 20
-90.73516315208035
 30
0.0
 10
111.8353811528657
 20
-89.48763354987813
 30
0.0
 10
110.5181556335733
 20
-88.72195176362963
 30
0.0
 10
109.2009724158928
 20
-87.95619904924763
 30
0.0
 10
107.8843070282899
 20
-87.18955563066496
 30
0.0
 10
107.8195884793192
 20
-87.15187291711385
 30
0.0
 10
107.7683787313317
 20
-87.13233486008242
 30
0.0
 10
107.6902870382712
 20
-87.17721650572007
 30
0.0
 10
106.5521738374664
 20
-87.83132523769811
 30
0.0
 10
105.411467110245
 20
-88.48092118995025
 30
0.0
 10
104.2714875331461
 20
-89.13178473188518
 30
0.0
 10
104.2475718062791
 20
-89.14543903582677
 30
0.0
 10
104.2249440905626
 20
-89.16135137064202
 30
0.0
 10
104.1941631038066
 20
-89.18104240634793
 30
0.0
 10
104.2194062260841
 20
-89.20199811438412
 30
0.0
 10
104.2382683689968
 20
-89.22129457815737
 30
0.0
 10
104.2604015934559
 20
-89.23549223901132
 30
0.0
 10
104.7058908092476
 20
-89.52126479007536
 30
0.0
 10
105.150467623029
 20
-89.80851169818413
 30
0.0
 10
105.5992425071298
 20
-90.08904067270805
 30
0.0
 10
105.6528845978066
 20
-90.12257272291862
 30
0.0
 10
105.7335968027948
 20
-90.14027084216362
 30
0.0
 10
105.7953133959914
 20
-90.12923705015028
 30
0.0
 10
106.5608033663094
 20
-89.99238513603359
 30
0.0
 10
107.3280670869782
 20
-89.88201804237374
 30
0.0
 10
108.1091707281439
 20
-89.93356182722837
 30
0.0
 10
109.2045636768819
 20
-90.00584434202322
 30
0.0
 10
110.2400123240972
 20
-90.26408364905765
 30
0.0
 10
111.1301563928511
 20
-90.94414369064468
 30
0.0
 10
111.7462093548208
 20
-91.41480236556228
 30
0.0
 10
112.1612625607955
 20
-92.01821298025607
 30
0.0
 10
112.3047948475823
 20
-92.79410258307685
 30
0.0
 10
112.4404707039521
 20
-93.52753084886976
 30
0.0
 10
112.2456163511043
 20
-94.17389145714391
 30
0.0
 10
111.7989069526084
 20
-94.75313034728394
 30
0.0
 10
111.2690325849683
 20
-95.44020698642319
 30
0.0
 10
110.5623622767646
 20
-95.87824528380186
 30
0.0
 10
109.7563692423174
 20
-96.16644397818
 30
0.0
 10
108.6733225295719
 20
-96.55370794243909
 30
0.0
 10
107.5626951658179
 20
-96.5970678240527
 30
0.0
 10
106.4361580199315
 20
-96.4145874220458
 30
0.0
 10
105.5670101374805
 20
-96.2738003640083
 30
0.0
 10
104.7449840627566
 20
-96.00151582779056
 30
0.0
 10
104.0020248061828
 20
-95.52032842752037
 30
0.0
 10
103.4335261494556
 20
-95.15213227952825
 30
0.0
 10
102.9631030507566
 20
-94.69387599963957
 30
0.0
 10
102.7064555242076
 20
-94.04816012627914
 30
0.0
 10
102.5359092821449
 20
-93.61906934917153
 30
0.0
 10
102.553236897616
 20
-93.17256343601616
 30
0.0
 10
102.5940010647982
 20
-92.72854748326245
 30
0.0
 10
102.6104228423026
 20
-92.54966709430217
 30
0.0
 10
102.5702705898176
 20
-92.4545752585946
 30
0.0
 10
102.410682653271
 20
-92.36396301772757
 30
0.0
 10
101.8157257969293
 20
-92.0261496378685
 30
0.0
 10
101.2297069794627
 20
-91.67250451505824
 30
0.0
 10
100.6429945614274
 20
-91.32036620483998
 30
0.0
 10
100.5639299312916
 20
-91.27291254826072
 30
0.0
 10
100.5078708140275
 20
-91.27360505482231
 30
0.0
 10
100.4293626688909
 20
-91.32196236135385
 30
0.0
 10
99.39612464557028
 20
-91.9583846434972
 30
0.0
 10
98.36027413304144
 20
-92.59056400102534
 30
0.0
 10
97.32666232392585
 20
-93.22638202652192
 30
0.0
 10
97.26418904241143
 20
-93.26481304100184
 30
0.0
 10
97.2217061899081
 20
-93.26804546762732
 30
0.0
 10
97.15823480915239
 20
-93.22703332547843
 30
0.0
 10
96.79112537498563
 20
-92.989827765661
 30
0.0
 10
96.42056598909357
 20
-92.75796169034865
 30
0.0
 10
96.05138888130685
 20
-92.5244239720246
 30
0.0
  0
HATCH
  5
4F
330
42
100
AcDbEntity
  8
Layer 1
 62
     7
420
 16777215
100
AcDbHatch
 10
0.0
 20
0.0
 30
0.0
210
0.0
220
0.0
230
1.0
  2
SOLID
 70
     1
 71
     0
 91
        1
 92
        1
 93
        1
 72
     4
 94
        3
 73
     0
 74
     1
 95
       89
 96
       85
 40
0.0
 40
0.0
 40
0.0
 40
0.0
 40
1.0
 40
1.0
 40
1.0
 40
2.0
 40
2.0
 40
2.0
 40
3.0
 40
3.0
 40
3.0
 40
4.0
 40
4.0
 40
4.0
 40
5.0
 40
5.0
 40
5.0
 40
6.0
 40
6.0
 40
6.0
 40
7.0
 40
7.0
 40
7.0
 40
8.0
 40
8.0
 40
8.0
 40
9.0
 40
9.0
 40
9.0
 40
10.0
 40
10.0
 40
10.0
 40
11.0
 40
11.0
 40
11.0
 40
12.0
 40
12.0
 40
12.0
 40
13.0
 40
13.0
 40
13.0
 40
14.0
 40
14.0
 40
14.0
 40
15.0
 40
15.0
 40
15.0
 40
16.0
 40
16.0
 40
16.0
 40
17.0
 40
17.0
 40
17.0
 40
18.0
 40
18.0
 40
18.0
 40
19.0
 40
19.0
 40
19.0
 40
20.0
 40
20.0
 40
20.0
 40
21.0
 40
21.0
 40
21.0
 40
22.0
 40
22.0
 40
22.0
 40
23.0
 40
23.0
 40
23.0
 40
24.0
 40
24.0
 40
24.0
 40
25.0
 40
25.0
 40
25.0
 40
26.0
 40
26.0
 40
26.0
 40
27.0
 40
27.0
 40
27.0
 40
28.0
 40
28.0
 40
28.0
 40
28.0
 10
96.05138888130685
 20
-92.5244239720246
 10
98.10357190613196
 20
-89.09081963204636
 10
102.2747281897327
 20
-86.07554322628015
 10
107.5963570382163
 20
-85.9968707977277
 10
112.8767768232542
 20
-85.9188075488549
 10
117.3391461557556
 20
-88.86242119490855
 10
119.5720790455219
 20
-92.62673333794132
 10
119.4614092765351
 20
-92.68757472537285
 10
119.3510020692779
 20
-92.74844747434466
 10
119.2404314902778
 20
-92.80902630004671
 10
118.9822924672371
 20
-92.95045007027858
 10
118.722038363598
 20
-93.08821037504518
 10
118.4671638580609
 20
-93.23528870385711
 10
118.3939237222913
 20
-93.27755457826446
 10
118.3435293743416
 20
-93.27255058930278
 10
118.2731132358403
 20
-93.2315355298014
 10
116.1280262073859
 20
-91.98215377339895
 10
113.981546143088
 20
-90.73516315208035
 10
111.8353811528657
 20
-89.48763354987813
 10
110.5181556335733
 20
-88.72195176362963
 10
109.2009724158928
 20
-87.95619904924763
 10
107.8843070282899
 20
-87.18955563066496
 10
107.8195884793192
 20
-87.15187291711385
 10
107.7683787313317
 20
-87.13233486008242
 10
107.6902870382712
 20
-87.17721650572007
 10
106.5521738374664
 20
-87.83132523769811
 10
105.411467110245
 20
-88.48092118995025
 10
104.2714875331461
 20
-89.13178473188518
 10
104.2475718062791
 20
-89.14543903582677
 10
104.2249440905626
 20
-89.16135137064202
 10
104.1941631038066
 20
-89.18104240634793
 10
104.2194062260841
 20
-89.20199811438412
 10
104.2382683689968
 20
-89.22129457815737
 10
104.2604015934559
 20
-89.23549223901132
 10
104.7058908092476
 20
-89.52126479007536
 10
105.150467623029
 20
-89.80851169818413
 10
105.5992425071298
 20
-90.08904067270805
 10
105.6528845978066
 20
-90.12257272291862
 10
105.7335968027948
 20
-90.14027084216362
 10
105.7953133959914
 20
-90.12923705015028
 10
106.5608033663094
 20
-89.99238513603359
 10
107.3280670869782
 20
-89.88201804237374
 10
108.1091707281439
 20
-89.93356182722837
 10
109.2045636768819
 20
-90.00584434202322
 10
110.2400123240972
 20
-90.26408364905765
 10
111.1301563928511
 20
-90.94414369064468
 10
111.7462093548208
 20
-91.41480236556228
 10
112.1612625607955
 20
-92.01821298025607
 10
112.3047948475823
 20
-92.79410258307685
 10
112.4404707039521
 20
-93.52753084886976
 10
112.2456163511043
 20
-94.17389145714391
 10
111.7989069526084
 20
-94.75313034728394
 10
111.2690325849683
 20
-95.44020698642319
 10
110.5623622767646
 20
-95.87824528380186
 10
109.7563692423174
 20
-96.16644397818
 10
108.6733225295719
 20
-96.55370794243909
 10
107.5626951658179
 20
-96.5970678240527
 10
106.4361580199315
 20
-96.4145874220458
 10
105.5670101374805
 20
-96.2738003640083
 10
104.7449840627566
 20
-96.00151582779056
 10
104.0020248061828
 20
-95.52032842752037
 10
103.4335261494556
 20
-95.15213227952825
 10
102.9631030507566
 20
-94.69387599963957
 10
102.7064555242076
 20
-94.04816012627914
 10
102.5359092821449
 20
-93.61906934917153
 10
102.553236897616
 20
-93.17256343601616
 10
102.5940010647982
 20
-92.72854748326245
 10
102.6104228423026
 20
-92.54966709430217
 10
102.5702705898176
 20
-92.4545752585946
 10
102.410682653271
 20
-92.36396301772757
 10
101.8157257969293
 20
-92.0261496378685
 10
101.2297069794627
 20
-91.67250451505824
 10
100.6429945614274
 20
-91.32036620483998
 10
100.5639299312916
 20
-91.27291254826072
 10
100.5078708140275
 20
-91.27360505482231
 10
100.4293626688909
 20
-91.32196236135385
 10
99.39612464557028
 20
-91.9583846434972
 10
98.36027413304144
 20
-92.59056400102534
 10
97.32666232392585
 20
-93.22638202652192
 10
97.26418904241143
 20
-93.26481304100184
 10
97.2217061899081
 20
-93.26804546762732
 10
97.15823480915239
 20
-93.22703332547843
 10
96.79112537498563
 20
-92.989827765661
 10
96.42056598909357
 20
-92.75796169034865
 10
96.05138888130685
 20
-92.5244239720246
 97
        0
 97
        0
 75
     2
 76
     1
 98
        0
  0
ENDBLK
  5
45
330
42
100
AcDbEntity
  8
0
100
AcDbBlockEnd
  0
BLOCK
  5
52
330
50
100
AcDbEntity
  8
0
100
AcDbBlockBegin
  2
block 3
 70
     0
 10
0.0
 20
0.0
 30
0.0
  3
block 3
  1

  0
SPLINE
  5
54
330
50
100
AcDbEntity
  8
Layer 1
370
     0
100
AcDbSpline
210
0.0
220
0.0
230
1.0
 70
    11
 71
     3
 72
   104
 73
   100
 74
     0
 42
0.0000000001
 43
0.0000000001
 12
1.0
 22
0.0
 32
0.0
 13
1.0
 23
0.0
 33
0.0
 40
0.0
 40
0.0
 40
0.0
 40
0.0
 40
1.0
 40
1.0
 40
1.0
 40
2.0
 40
2.0
 40
2.0
 40
3.0
 40
3.0
 40
3.0
 40
4.0
 40
4.0
 40
4.0
 40
5.0
 40
5.0
 40
5.0
 40
6.0
 40
6.0
 40
6.0
 40
7.0
 40
7.0
 40
7.0
 40
8.0
 40
8.0
 40
8.0
 40
9.0
 40
9.0
 40
9.0
 40
10.0
 40
10.0
 40
10.0
 40
11.0
 40
11.0
 40
11.0
 40
12.0
 40
12.0
 40
12.0
 40
13.0
 40
13.0
 40
13.0
 40
14.0
 40
14.0
 40
14.0
 40
15.0
 40
15.0
 40
15.0
 40
16.0
 40
16.0
 40
16.0
 40
17.0
 40
17.0
 40
17.0
 40
18.0
 40
18.0
 40
18.0
 40
19.0
 40
19.0
 40
19.0
 40
20.0
 40
20.0
 40
20.0
 40
21.0
 40
21.0
 40
21.0
 40
22.0
 40
22.0
 40
22.0
 40
23.0
 40
23.0
 40
23.0
 40
24.0
 40
24.0
 40
24.0
 40
25.0
 40
25.0
 40
25.0
 40
26.0
 40
26.0
 40
26.0
 40
27.0
 40
27.0
 40
27.0
 40
28.0
 40
28.0
 40
28.0
 40
29.0
 40
29.0
 40
29.0
 40
30.0
 40
30.0
 40
30.0
 40
31.0
 40
31.0
 40
31.0
 40
32.0
 40
32.0
 40
32.0
 40
33.0
 40
33.0
 40
33.0
 40
33.0
 10
88.23806347442722
 20
-34.22900521735357
 30
0.0
 10
88.27366754540746
 20
-34.2986135161298
 30
0.0
 10
88.30159100173962
 20
-34.36130615841204
 30
0.0
 10
88.32057923958713
 20
-34.41641707715576
 30
0.0
 10
88.33959297603965
 20
-34.47201453827149
 30
0.0
 10
88.34821186689312
 20
-34.52010677166307
 30
0.0
 10
88.34592387117182
 20
-34.56023273356546
 30
0.0
 10
88.3436868726602
 20
-34.60133178021056
 30
0.0
 10
88.33448632375536
 20
-34.63523365126913
 30
0.0
 10
88.31809170257314
 20
-34.66219436722675
 30
0.0
 10
88.30169708139124
 20
-34.68915508318567
 30
0.0
 10
88.2807971202776
 20
-34.70927767290178
 30
0.0
 10
88.25513579874402
 20
-34.72233161449321
 30
0.0
 10
88.25513579874402
 20
-34.72233161449321
 30
0.0
 10
85.64267081577053
 20
-36.06991608811367
 30
0.0
 10
85.64267081577053
 20
-36.06991608811367
 30
0.0
 10
85.64267081577053
 20
-36.06991608811367
 30
0.0
 10
86.89334827636651
 20
-38.49499160657887
 30
0.0
 10
86.89334827636651
 20
-38.49499160657887
 30
0.0
 10
86.89334827636651
 20
-38.49499160657887
 30
0.0
 10
89.36260129395819
 20
-37.22150799610652
 30
0.0
 10
89.36260129395819
 20
-37.22150799610652
 30
0.0
 10
89.38800659500326
 20
-37.20822353263192
 30
0.0
 10
89.4162270869825
 20
-37.20210971170268
 30
0.0
 10
89.44672523031421
 20
-37.20221894718173
 30
0.0
 10
89.47724887225094
 20
-37.20281472503214
 30
0.0
 10
89.50925557103344
 20
-37.21309035310102
 30
0.0
 10
89.54274532666138
 20
-37.23304583138709
 30
0.0
 10
89.5764911027775
 20
-37.25323183155698
 30
0.0
 10
89.60967073739614
 20
-37.285888408711
 30
0.0
 10
89.6425657496105
 20
-37.33173262710304
 30
0.0
 10
89.67546076182485
 20
-37.37757684549572
 30
0.0
 10
89.71186046174894
 20
-37.43909344863071
 30
0.0
 10
89.7517648493831
 20
-37.51628243650865
 30
0.0
 10
89.7876249408512
 20
-37.5861212571687
 30
0.0
 10
89.81475483711347
 20
-37.64763579143006
 30
0.0
 10
89.83292401628577
 20
-37.70108205978088
 30
0.0
 10
89.85106769685306
 20
-37.754041785761
 30
0.0
 10
89.85914904812516
 20
-37.80118643301552
 30
0.0
 10
89.85714257149672
 20
-37.84202945917244
 30
0.0
 10
89.85464955249725
 20
-37.88289798393501
 30
0.0
 10
89.8457305226856
 20
-37.91751691924682
 30
0.0
 10
89.83066700115528
 20
-37.94660332936433
 30
0.0
 10
89.81509143864827
 20
-37.97522869571421
 30
0.0
 10
89.79447299662814
 20
-37.99606834968615
 30
0.0
 10
89.76883717369958
 20
-38.00960883364893
 30
0.0
 10
89.76883717369958
 20
-38.00960883364893
 30
0.0
 10
87.2995841561079
 20
-39.28309244412127
 30
0.0
 10
87.2995841561079
 20
-39.28309244412127
 30
0.0
 10
87.2995841561079
 20
-39.28309244412127
 30
0.0
 10
88.8318189842828
 20
-42.25374084939887
 30
0.0
 10
88.8318189842828
 20
-42.25374084939887
 30
0.0
 10
88.84512894636275
 20
-42.27963269281594
 30
0.0
 10
88.85075622491999
 20
-42.30787868339987
 30
0.0
 10
88.84826527479414
 20
-42.33947740450031
 30
0.0
 10
88.84577432466864
 20
-42.37107612560074
 30
0.0
 10
88.82960919093246
 20
-42.40241572290125
 30
0.0
 10
88.79956485030871
 20
-42.43423875926331
 30
0.0
 10
88.7692899878018
 20
-42.46631781611291
 30
0.0
 10
88.72723507952347
 20
-42.50169757183218
 30
0.0
 10
88.67345112268373
 20
-42.54135111116192
 30
0.0
 10
88.61941114535549
 20
-42.58077412860913
 30
0.0
 10
88.54439781440935
 20
-42.62495540316453
 30
0.0
 10
88.44892317082169
 20
-42.67435597859639
 30
0.0
 10
88.36056817256906
 20
-42.71996827835104
 30
0.0
 10
88.28307320142942
 20
-42.7540341575279
 30
0.0
 10
88.21549067126475
 20
-42.777091155709
 30
0.0
 10
88.14865070395994
 20
-42.80035317716762
 30
0.0
 10
88.09331029777019
 20
-42.81496253367225
 30
0.0
 10
88.04995599506651
 20
-42.82089372661723
 30
0.0
 10
88.00637117047967
 20
-42.82708094005104
 30
0.0
 10
87.97121366114902
 20
-42.82184922593274
 30
0.0
 10
87.94425294519043
 20
-42.80545460475116
 30
0.0
 10
87.91706170734898
 20
-42.78931600405713
 30
0.0
 10
87.89716963951572
 20
-42.76816002245498
 30
0.0
 10
87.8841156979243
 20
-42.74249870092172
 30
0.0
 10
87.8841156979243
 20
-42.74249870092172
 30
0.0
 10
84.47860337397455
 20
-36.13994803337697
 30
0.0
 10
84.47860337397455
 20
-36.13994803337697
 30
0.0
 10
84.40473303271058
 20
-35.9964800475073
 30
0.0
 10
84.3906756979044
 20
-35.87719860181998
 30
0.0
 10
84.43663639283419
 20
-35.78136113345676
 30
0.0
 10
84.48259708776398
 20
-35.68552366509355
 30
0.0
 10
84.54798777232386
 20
-35.61598912113991
 30
0.0
 10
84.63229640553713
 20
-35.57229645782888
 30
0.0
 10
84.63229640553713
 20
-35.57229645782888
 30
0.0
 10
87.83999226799727
 20
-33.91786579212151
 30
0.0
 10
87.83999226799727
 20
-33.91786579212151
 30
0.0
 10
87.86565358953021
 20
-33.90481185053073
 30
0.0
 10
87.89415560060297
 20
-33.89941509385602
 30
0.0
 10
87.92598484358626
 20
-33.90165002349367
 30
0.0
 10
87.95707152371001
 20
-33.90367992985315
 30
0.0
 10
87.9904603193541
 20
-33.91705433682336
 30
0.0
 10
88.02584421282064
 20
-33.9405696377771
 30
0.0
 10
88.06171464865855
 20
-33.96405944012647
 30
0.0
 10
88.09681391972049
 20
-34.00076238231952
 30
0.0
 10
88.13134704928527
 20
-34.04993590149606
 30
0.0
 10
88.16639221982672
 20
-34.09957046443959
 30
0.0
 10
88.2017168405871
 20
-34.15919189529916
 30
0.0
 10
88.23806347442722
 20
-34.22900521735357
 30
0.0
  0
HATCH
  5
55
330
50
100
AcDbEntity
  8
Layer 1
 62
   240
420
 15539236
100
AcDbHatch
 10
0.0
 20
0.0
 30
0.0
210
0.0
220
0.0
230
1.0
  2
SOLID
 70
     1
 71
     0
 91
        1
 92
        1
 93
        1
 72
     4
 94
        3
 73
     0
 74
     1
 95
      104
 96
      100
 40
0.0
 40
0.0
 40
0.0
 40
0.0
 40
1.0
 40
1.0
 40
1.0
 40
2.0
 40
2.0
 40
2.0
 40
3.0
 40
3.0
 40
3.0
 40
4.0
 40
4.0
 40
4.0
 40
5.0
 40
5.0
 40
5.0
 40
6.0
 40
6.0
 40
6.0
 40
7.0
 40
7.0
 40
7.0
 40
8.0
 40
8.0
 40
8.0
 40
9.0
 40
9.0
 40
9.0
 40
10.0
 40
10.0
 40
10.0
 40
11.0
 40
11.0
 40
11.0
 40
12.0
 40
12.0
 40
12.0
 40
13.0
 40
13.0
 40
13.0
 40
14.0
 40
14.0
 40
14.0
 40
15.0
 40
15.0
 40
15.0
 40
16.0
 40
16.0
 40
16.0
 40
17.0
 40
17.0
 40
17.0
 40
18.0
 40
18.0
 40
18.0
 40
19.0
 40
19.0
 40
19.0
 40
20.0
 40
20.0
 40
20.0
 40
21.0
 40
21.0
 40
21.0
 40
22.0
 40
22.0
 40
22.0
 40
23.0
 40
23.0
 40
23.0
 40
24.0
 40
24.0
 40
24.0
 40
25.0
 40
25.0
 40
25.0
 40
26.0
 40
26.0
 40
26.0
 40
27.0
 40
27.0
 40
27.0
 40
28.0
 40
28.0
 40
28.0
 40
29.0
 40
29.0
 40
29.0
 40
30.0
 40
30.0
 40
30.0
 40
31.0
 40
31.0
 40
31.0
 40
32.0
 40
32.0
 40
32.0
 40
33.0
 40
33.0
 40
33.0
 40
33.0
 10
88.23806347442722
 20
-34.22900521735357
 10
88.27366754540746
 20
-34.2986135161298
 10
88.30159100173962
 20
-34.36130615841204
 10
88.32057923958713
 20
-34.41641707715576
 10
88.33959297603965
 20
-34.47201453827149
 10
88.34821186689312
 20
-34.52010677166307
 10
88.34592387117182
 20
-34.56023273356546
 10
88.3436868726602
 20
-34.60133178021056
 10
88.33448632375536
 20
-34.63523365126913
 10
88.31809170257314
 20
-34.66219436722675
 10
88.30169708139124
 20
-34.68915508318567
 10
88.2807971202776
 20
-34.70927767290178
 10
88.25513579874402
 20
-34.72233161449321
 10
88.25513579874402
 20
-34.72233161449321
 10
85.64267081577053
 20
-36.06991608811367
 10
85.64267081577053
 20
-36.06991608811367
 10
85.64267081577053
 20
-36.06991608811367
 10
86.89334827636651
 20
-38.49499160657887
 10
86.89334827636651
 20
-38.49499160657887
 10
86.89334827636651
 20
-38.49499160657887
 10
89.36260129395819
 20
-37.22150799610652
 10
89.36260129395819
 20
-37.22150799610652
 10
89.38800659500326
 20
-37.20822353263192
 10
89.4162270869825
 20
-37.20210971170268
 10
89.44672523031421
 20
-37.20221894718173
 10
89.47724887225094
 20
-37.20281472503214
 10
89.50925557103344
 20
-37.21309035310102
 10
89.54274532666138
 20
-37.23304583138709
 10
89.5764911027775
 20
-37.25323183155698
 10
89.60967073739614
 20
-37.285888408711
 10
89.6425657496105
 20
-37.33173262710304
 10
89.67546076182485
 20
-37.37757684549572
 10
89.71186046174894
 20
-37.43909344863071
 10
89.7517648493831
 20
-37.51628243650865
 10
89.7876249408512
 20
-37.5861212571687
 10
89.81475483711347
 20
-37.64763579143006
 10
89.83292401628577
 20
-37.70108205978088
 10
89.85106769685306
 20
-37.754041785761
 10
89.85914904812516
 20
-37.80118643301552
 10
89.85714257149672
 20
-37.84202945917244
 10
89.85464955249725
 20
-37.88289798393501
 10
89.8457305226856
 20
-37.91751691924682
 10
89.83066700115528
 20
-37.94660332936433
 10
89.81509143864827
 20
-37.97522869571421
 10
89.79447299662814
 20
-37.99606834968615
 10
89.76883717369958
 20
-38.00960883364893
 10
89.76883717369958
 20
-38.00960883364893
 10
87.2995841561079
 20
-39.28309244412127
 10
87.2995841561079
 20
-39.28309244412127
 10
87.2995841561079
 20
-39.28309244412127
 10
88.8318189842828
 20
-42.25374084939887
 10
88.8318189842828
 20
-42.25374084939887
 10
88.84512894636275
 20
-42.27963269281594
 10
88.85075622491999
 20
-42.30787868339987
 10
88.84826527479414
 20
-42.33947740450031
 10
88.84577432466864
 20
-42.37107612560074
 10
88.82960919093246
 20
-42.40241572290125
 10
88.79956485030871
 20
-42.43423875926331
 10
88.7692899878018
 20
-42.46631781611291
 10
88.72723507952347
 20
-42.50169757183218
 10
88.67345112268373
 20
-42.54135111116192
 10
88.61941114535549
 20
-42.58077412860913
 10
88.54439781440935
 20
-42.62495540316453
 10
88.44892317082169
 20
-42.67435597859639
 10
88.36056817256906
 20
-42.71996827835104
 10
88.28307320142942
 20
-42.7540341575279
 10
88.21549067126475
 20
-42.777091155709
 10
88.14865070395994
 20
-42.80035317716762
 10
88.09331029777019
 20
-42.81496253367225
 10
88.04995599506651
 20
-42.82089372661723
 10
88.00637117047967
 20
-42.82708094005104
 10
87.97121366114902
 20
-42.82184922593274
 10
87.94425294519043
 20
-42.80545460475116
 10
87.91706170734898
 20
-42.78931600405713
 10
87.89716963951572
 20
-42.76816002245498
 10
87.8841156979243
 20
-42.74249870092172
 10
87.8841156979243
 20
-42.74249870092172
 10
84.47860337397455
 20
-36.13994803337697
 10
84.47860337397455
 20
-36.13994803337697
 10
84.40473303271058
 20
-35.9964800475073
 10
84.3906756979044
 20
-35.87719860181998
 10
84.43663639283419
 20
-35.78136113345676
 10
84.48259708776398
 20
-35.68552366509355
 10
84.54798777232386
 20
-35.61598912113991
 10
84.63229640553713
 20
-35.57229645782888
 10
84.63229640553713
 20
-35.57229645782888
 10
87.83999226799727
 20
-33.91786579212151
 10
87.83999226799727
 20
-33.91786579212151
 10
87.86565358953021
 20
-33.90481185053073
 10
87.89415560060297
 20
-33.89941509385602
 10
87.92598484358626
 20
-33.90165002349367
 10
87.95707152371001
 20
-33.90367992985315
 10
87.9904603193541
 20
-33.91705433682336
 10
88.02584421282064
 20
-33.9405696377771
 10
88.06171464865855
 20
-33.96405944012647
 10
88.09681391972049
 20
-34.00076238231952
 10
88.13134704928527
 20
-34.04993590149606
 10
88.16639221982672
 20
-34.09957046443959
 10
88.2017168405871
 20
-34.15919189529916
 10
88.23806347442722
 20
-34.22900521735357
 97
        0
 97
        0
 75
     2
 76
     1
 98
        0
  0
SPLINE
  5
56
330
50
100
AcDbEntity
  8
Layer 1
370
     0
100
AcDbSpline
210
0.0
220
0.0
230
1.0
 70
    11
 71
     3
 72
   131
 73
   127
 74
     0
 42
0.0000000001
 43
0.0000000001
 12
1.0
 22
0.0
 32
0.0
 13
1.0
 23
0.0
 33
0.0
 40
0.0
 40
0.0
 40
0.0
 40
0.0
 40
1.0
 40
1.0
 40
1.0
 40
2.0
 40
2.0
 40
2.0
 40
3.0
 40
3.0
 40
3.0
 40
4.0
 40
4.0
 40
4.0
 40
5.0
 40
5.0
 40
5.0
 40
6.0
 40
6.0
 40
6.0
 40
7.0
 40
7.0
 40
7.0
 40
8.0
 40
8.0
 40
8.0
 40
9.0
 40
9.0
 40
9.0
 40
10.0
 40
10.0
 40
10.0
 40
11.0
 40
11.0
 40
11.0
 40
12.0
 40
12.0
 40
12.0
 40
13.0
 40
13.0
 40
13.0
 40
14.0
 40
14.0
 40
14.0
 40
15.0
 40
15.0
 40
15.0
 40
16.0
 40
16.0
 40
16.0
 40
17.0
 40
17.0
 40
17.0
 40
18.0
 40
18.0
 40
18.0
 40
19.0
 40
19.0
 40
19.0
 40
20.0
 40
20.0
 40
20.0
 40
21.0
 40
21.0
 40
21.0
 40
22.0
 40
22.0
 40
22.0
 40
23.0
 40
23.0
 40
23.0
 40
24.0
 40
24.0
 40
24.0
 40
25.0
 40
25.0
 40
25.0
 40
26.0
 40
26.0
 40
26.0
 40
27.0
 40
27.0
 40
27.0
 40
28.0
 40
28.0
 40
28.0
 40
29.0
 40
29.0
 40
29.0
 40
30.0
 40
30.0
 40
30.0
 40
31.0
 40
31.0
 40
31.0
 40
32.0
 40
32.0
 40
32.0
 40
33.0
 40
33.0
 40
33.0
 40
34.0
 40
34.0
 40
34.0
 40
35.0
 40
35.0
 40
35.0
 40
36.0
 40
36.0
 40
36.0
 40
37.0
 40
37.0
 40
37.0
 40
38.0
 40
38.0
 40
38.0
 40
39.0
 40
39.0
 40
39.0
 40
40.0
 40
40.0
 40
40.0
 40
41.0
 40
41.0
 40
41.0
 40
42.0
 40
42.0
 40
42.0
 40
42.0
 10
96.73098158941076
 20
-39.11496075934058
 30
0.0
 10
96.74590003248787
 20
-39.16223496849442
 30
0.0
 10
96.74166586728049
 20
-39.20246292481748
 30
0.0
 10
96.71758752813939
 20
-39.23641268977432
 30
0.0
 10
96.69373971088116
 20
-39.27010643424361
 30
0.0
 10
96.65611571559319
 20
-39.30159488542817
 30
0.0
 10
96.6044850203907
 20
-39.33113406381556
 30
0.0
 10
96.55334086755988
 20
-39.36064774359858
 30
0.0
 10
96.47448929816333
 20
-39.39210138624485
 30
0.0
 10
96.36821183129489
 20
-39.42621205601081
 30
0.0
 10
96.26575020758166
 20
-39.45865910982071
 30
0.0
 10
96.18216381080767
 20
-39.47889574488321
 30
0.0
 10
96.11719662048341
 20
-39.48669143931452
 30
0.0
 10
96.05245995204265
 20
-39.49423111325699
 30
0.0
 10
96.00252664689643
 20
-39.4909934625237
 30
0.0
 10
95.96734570783441
 20
-39.47600540237126
 30
0.0
 10
95.93216476877207
 20
-39.46101734222011
 30
0.0
 10
95.90712782700501
 20
-39.43012947875265
 30
0.0
 10
95.89195336343973
 20
-39.38262474771629
 30
0.0
 10
95.89195336343973
 20
-39.38262474771629
 30
0.0
 10
95.72214257747136
 20
-38.85144243664967
 30
0.0
 10
95.72214257747136
 20
-38.85144243664967
 30
0.0
 10
95.568990913437
 20
-39.17341871654809
 30
0.0
 10
95.37195878592325
 20
-39.44939468311139
 30
0.0
 10
95.13050865534873
 20
-39.67842275020379
 30
0.0
 10
94.88905852477454
 20
-39.90745081729619
 30
0.0
 10
94.60890450988131
 20
-40.07288758430502
 30
0.0
 10
94.28979059018151
 20
-40.1745025293471
 30
0.0
 10
94.01029369471819
 20
-40.26403972085093
 30
0.0
 10
93.74550540918742
 20
-40.30840910537671
 30
0.0
 10
93.49568175407707
 20
-40.30784120480698
 30
0.0
 10
93.24588359757173
 20
-40.30775984660796
 30
0.0
 10
93.01965380810508
 20
-40.26399787602362
 30
0.0
 10
92.81604479953938
 20
-40.1770928326347
 30
0.0
 10
92.61243579097305
 20
-40.09018778924705
 30
0.0
 10
92.43439231614119
 20
-39.9604732237955
 30
0.0
 10
92.2814278326724
 20
-39.78797463488503
 30
0.0
 10
92.12869387108681
 20
-39.61522002548702
 30
0.0
 10
92.01135828508451
 20
-39.40109209140844
 30
0.0
 10
91.9293955760605
 20
-39.14510429027794
 30
0.0
 10
91.833947518031
 20
-38.84591414363829
 30
0.0
 10
91.81198768450678
 20
-38.56653475914921
 30
0.0
 10
91.86351607548721
 20
-38.30696613681133
 30
0.0
 10
91.91527498835082
 20
-38.04714149398528
 30
0.0
 10
92.03204588212682
 20
-37.8083036524577
 30
0.0
 10
92.21377775960583
 20
-37.58947952748521
 30
0.0
 10
92.39550963708422
 20
-37.37065540251272
 30
0.0
 10
92.64028182738453
 20
-37.17243353088737
 30
0.0
 10
92.9480433332971
 20
-36.99384082786709
 30
0.0
 10
93.25531829683734
 20
-36.81527362345117
 30
0.0
 10
93.61600472019204
 20
-36.65976481397119
 30
0.0
 10
94.02938553910633
 20
-36.52759591852101
 30
0.0
 10
94.02938553910633
 20
-36.52759591852101
 30
0.0
 10
94.76162425723192
 20
-36.29358155614428
 30
0.0
 10
94.76162425723192
 20
-36.29358155614428
 30
0.0
 10
94.76162425723192
 20
-36.29358155614428
 30
0.0
 10
94.62945536178108
 20
-35.88020073722999
 30
0.0
 10
94.62945536178108
 20
-35.88020073722999
 30
0.0
 10
94.56433073227748
 20
-35.67553351029301
 30
0.0
 10
94.48470561943026
 20
-35.50138682198132
 30
0.0
 10
94.3910665656111
 20
-35.35773517369057
 30
0.0
 10
94.29742751179195
 20
-35.21408352540046
 30
0.0
 10
94.18562512310402
 20
-35.10553528591925
 30
0.0
 10
94.05588992143048
 20
-35.03183443476001
 30
0.0
 10
93.92615471975694
 20
-34.95813358360143
 30
0.0
 10
93.77579797275249
 20
-34.9191770919067
 30
0.0
 10
93.60507570090564
 20
-34.91519548155836
 30
0.0
 10
93.43435342905846
 20
-34.91121387121131
 30
0.0
 10
93.23732409505443
 20
-34.94520185781765
 30
0.0
 10
93.01273309505697
 20
-35.01649337433415
 30
0.0
 10
92.77234118285408
 20
-35.09349176853466
 30
0.0
 10
92.56595106725548
 20
-35.19090668478824
 30
0.0
 10
92.39333222637835
 20
-35.30899414358241
 30
0.0
 10
92.22048286361805
 20
-35.42733762286478
 30
0.0
 10
92.0733947479377
 20
-35.54384313370393
 30
0.0
 10
91.95132531647779
 20
-35.6583056528217
 30
0.0
 10
91.83002394648275
 20
-35.77345973758836
 30
0.0
 10
91.72995401946807
 20
-35.87481628346723
 30
0.0
 10
91.6516020778051
 20
-35.96234979185266
 30
0.0
 10
91.57330113335247
 20
-36.05085638498081
 30
0.0
 10
91.51060331888581
 20
-36.1019543504683
 30
0.0
 10
91.46335460833699
 20
-36.11735933591677
 30
0.0
 10
91.4319068099936
 20
-36.12705744368188
 30
0.0
 10
91.40197170484892
 20
-36.1283823367119
 30
0.0
 10
91.37324227520408
 20
-36.12013040838158
 30
0.0
 10
91.34451284555892
 20
-36.11187848005127
 30
0.0
 10
91.31629752576443
 20
-36.09481779182517
 30
0.0
 10
91.28859631581993
 20
-36.06894834370201
 30
0.0
 10
91.26066458399258
 20
-36.04333491606831
 30
0.0
 10
91.23509113708064
 20
-36.00686456463272
 30
0.0
 10
91.21141493131809
 20
-35.96004933037095
 30
0.0
 10
91.18773872555553
 20
-35.91323409610983
 30
0.0
 10
91.16667579076008
 20
-35.86042736176105
 30
0.0
 10
91.14748356407155
 20
-35.8014241040458
 30
0.0
 10
91.11646960433357
 20
-35.70303434397726
 30
0.0
 10
91.09838312759818
 20
-35.6232382917541
 30
0.0
 10
91.0936851776317
 20
-35.56152390639868
 30
0.0
 10
91.08949926864159
 20
-35.50027056481025
 30
0.0
 10
91.10559514762048
 20
-35.43502702757754
 30
0.0
 10
91.14227983226658
 20
-35.36699690132709
 30
0.0
 10
91.17919503879585
 20
-35.29871075458782
 30
0.0
 10
91.25160647758118
 20
-35.20953705997768
 30
0.0
 10
91.35923262952937
 20
-35.09875875324281
 30
0.0
 10
91.46762684294244
 20
-34.98867201215746
 30
0.0
 10
91.59696787693157
 20
-34.87797537342298
 30
0.0
 10
91.74822881623949
 20
-34.76661783982809
 30
0.0
 10
91.89877269129319
 20
-34.65554182532703
 30
0.0
 10
92.06908424446492
 20
-34.54928437507747
 30
0.0
 10
92.2579088719191
 20
-34.44717942203553
 30
0.0
 10
92.44701501846647
 20
-34.3457915332475
 30
0.0
 10
92.64364568472078
 20
-34.2623047522185
 30
0.0
 10
92.84854343354127
 20
-34.1969241022267
 30
0.0
 10
93.230245932229
 20
-34.07470933502981
 30
0.0
 10
93.56909375594695
 20
-34.01450562651577
 30
0.0
 10
93.86454936511312
 20
-34.01536539054882
 30
0.0
 10
94.16003047288461
 20
-34.01671169695258
 30
0.0
 10
94.41724184474357
 20
-34.07446210990416
 30
0.0
 10
94.63618348069029
 20
-34.18861662940292
 30
0.0
 10
94.85492009335918
 20
-34.30351371176123
 30
0.0
 10
95.04137950464032
 20
-34.47279326980242
 30
0.0
 10
95.19558721313935
 20
-34.69694184589788
 30
0.0
 10
95.34953890114988
 20
-34.92085990011079
 30
0.0
 10
95.47922858759888
 20
-35.19849643183572
 30
0.0
 10
95.58511731625272
 20
-35.52933940009693
 30
0.0
 10
95.58511731625272
 20
-35.52933940009693
 30
0.0
 10
96.73098158941076
 20
-39.11496075934058
 30
0.0
 10
96.73098158941076
 20
-39.11496075934058
 30
0.0
  0
SPLINE
  5
57
330
50
100
AcDbEntity
  8
Layer 1
370
     0
100
AcDbSpline
210
0.0
220
0.0
230
1.0
 70
    11
 71
     3
 72
    35
 73
    31
 74
     0
 42
0.0000000001
 43
0.0000000001
 12
1.0
 22
0.0
 32
0.0
 13
1.0
 23
0.0
 33
0.0
 40
0.0
 40
0.0
 40
0.0
 40
0.0
 40
1.0
 40
1.0
 40
1.0
 40
2.0
 40
2.0
 40
2.0
 40
3.0
 40
3.0
 40
3.0
 40
4.0
 40
4.0
 40
4.0
 40
5.0
 40
5.0
 40
5.0
 40
6.0
 40
6.0
 40
6.0
 40
7.0
 40
7.0
 40
7.0
 40
8.0
 40
8.0
 40
8.0
 40
9.0
 40
9.0
 40
9.0
 40
10.0
 40
10.0
 40
10.0
 40
10.0
 10
94.98629852675208
 20
-36.99654916729607
 30
0.0
 10
94.98629852675208
 20
-36.99654916729607
 30
0.0
 10
94.15354435439902
 20
-37.26290858906137
 30
0.0
 10
94.15354435439902
 20
-37.26290858906137
 30
0.0
 10
93.8857765074971
 20
-37.34817199695473
 30
0.0
 10
93.66059076408605
 20
-37.44535225357721
 30
0.0
 10
93.47816664883936
 20
-37.5532202536979
 30
0.0
 10
93.29576803219737
 20
-37.66157479618995
 30
0.0
 10
93.15369833186196
 20
-37.7807445752059
 30
0.0
 10
93.05195754783348
 20
-37.91072959074639
 30
0.0
 10
92.95047278429317
 20
-38.0409451281694
 30
0.0
 10
92.88885692773025
 20
-38.17785304126227
 30
0.0
 10
92.8675965205164
 20
-38.32142783141995
 30
0.0
 10
92.84608009281403
 20
-38.46477209969382
 30
0.0
 10
92.86115426851457
 20
-38.61741994573068
 30
0.0
 10
92.91279354901364
 20
-38.77888482715915
 30
0.0
 10
93.00092314505088
 20
-39.05479640134916
 30
0.0
 10
93.15854389120813
 20
-39.24632217439144
 30
0.0
 10
93.38591180797359
 20
-39.35369266816916
 30
0.0
 10
93.61353574522724
 20
-39.46129368383006
 30
0.0
 10
93.88471523303316
 20
-39.46440146286265
 30
0.0
 10
94.1997317904836
 20
-39.36373306952146
 30
0.0
 10
94.45597561210228
 20
-39.28200088237967
 30
0.0
 10
94.67228540973422
 20
-39.14113277231349
 30
0.0
 10
94.84940374623925
 20
-38.94133376259982
 30
0.0
 10
95.0265220827443
 20
-38.74153475288615
 30
0.0
 10
95.19228697102463
 20
-38.46939288702469
 30
0.0
 10
95.34692893296314
 20
-38.12465214452727
 30
0.0
 10
95.34692893296314
 20
-38.12465214452727
 30
0.0
 10
94.98629852675208
 20
-36.99654916729607
 30
0.0
 10
94.98629852675208
 20
-36.99654916729607
 30
0.0
  0
HATCH
  5
58
330
50
100
AcDbEntity
  8
Layer 1
 62
   240
420
 15539236
100
AcDbHatch
 10
0.0
 20
0.0
 30
0.0
210
0.0
220
0.0
230
1.0
  2
SOLID
 70
     1
 71
     0
 91
        2
 92
        1
 93
        1
 72
     4
 94
        3
 73
     0
 74
     1
 95
      131
 96
      127
 40
0.0
 40
0.0
 40
0.0
 40
0.0
 40
1.0
 40
1.0
 40
1.0
 40
2.0
 40
2.0
 40
2.0
 40
3.0
 40
3.0
 40
3.0
 40
4.0
 40
4.0
 40
4.0
 40
5.0
 40
5.0
 40
5.0
 40
6.0
 40
6.0
 40
6.0
 40
7.0
 40
7.0
 40
7.0
 40
8.0
 40
8.0
 40
8.0
 40
9.0
 40
9.0
 40
9.0
 40
10.0
 40
10.0
 40
10.0
 40
11.0
 40
11.0
 40
11.0
 40
12.0
 40
12.0
 40
12.0
 40
13.0
 40
13.0
 40
13.0
 40
14.0
 40
14.0
 40
14.0
 40
15.0
 40
15.0
 40
15.0
 40
16.0
 40
16.0
 40
16.0
 40
17.0
 40
17.0
 40
17.0
 40
18.0
 40
18.0
 40
18.0
 40
19.0
 40
19.0
 40
19.0
 40
20.0
 40
20.0
 40
20.0
 40
21.0
 40
21.0
 40
21.0
 40
22.0
 40
22.0
 40
22.0
 40
23.0
 40
23.0
 40
23.0
 40
24.0
 40
24.0
 40
24.0
 40
25.0
 40
25.0
 40
25.0
 40
26.0
 40
26.0
 40
26.0
 40
27.0
 40
27.0
 40
27.0
 40
28.0
 40
28.0
 40
28.0
 40
29.0
 40
29.0
 40
29.0
 40
30.0
 40
30.0
 40
30.0
 40
31.0
 40
31.0
 40
31.0
 40
32.0
 40
32.0
 40
32.0
 40
33.0
 40
33.0
 40
33.0
 40
34.0
 40
34.0
 40
34.0
 40
35.0
 40
35.0
 40
35.0
 40
36.0
 40
36.0
 40
36.0
 40
37.0
 40
37.0
 40
37.0
 40
38.0
 40
38.0
 40
38.0
 40
39.0
 40
39.0
 40
39.0
 40
40.0
 40
40.0
 40
40.0
 40
41.0
 40
41.0
 40
41.0
 40
42.0
 40
42.0
 40
42.0
 40
42.0
 10
96.73098158941076
 20
-39.11496075934058
 10
96.74590003248787
 20
-39.16223496849442
 10
96.74166586728049
 20
-39.20246292481748
 10
96.71758752813939
 20
-39.23641268977432
 10
96.69373971088116
 20
-39.27010643424361
 10
96.65611571559319
 20
-39.30159488542817
 10
96.6044850203907
 20
-39.33113406381556
 10
96.55334086755988
 20
-39.36064774359858
 10
96.47448929816333
 20
-39.39210138624485
 10
96.36821183129489
 20
-39.42621205601081
 10
96.26575020758166
 20
-39.45865910982071
 10
96.18216381080767
 20
-39.47889574488321
 10
96.11719662048341
 20
-39.48669143931452
 10
96.05245995204265
 20
-39.49423111325699
 10
96.00252664689643
 20
-39.4909934625237
 10
95.96734570783441
 20
-39.47600540237126
 10
95.93216476877207
 20
-39.46101734222011
 10
95.90712782700501
 20
-39.43012947875265
 10
95.89195336343973
 20
-39.38262474771629
 10
95.89195336343973
 20
-39.38262474771629
 10
95.72214257747136
 20
-38.85144243664967
 10
95.72214257747136
 20
-38.85144243664967
 10
95.568990913437
 20
-39.17341871654809
 10
95.37195878592325
 20
-39.44939468311139
 10
95.13050865534873
 20
-39.67842275020379
 10
94.88905852477454
 20
-39.90745081729619
 10
94.60890450988131
 20
-40.07288758430502
 10
94.28979059018151
 20
-40.1745025293471
 10
94.01029369471819
 20
-40.26403972085093
 10
93.74550540918742
 20
-40.30840910537671
 10
93.49568175407707
 20
-40.30784120480698
 10
93.24588359757173
 20
-40.30775984660796
 10
93.01965380810508
 20
-40.26399787602362
 10
92.81604479953938
 20
-40.1770928326347
 10
92.61243579097305
 20
-40.09018778924705
 10
92.43439231614119
 20
-39.9604732237955
 10
92.2814278326724
 20
-39.78797463488503
 10
92.12869387108681
 20
-39.61522002548702
 10
92.01135828508451
 20
-39.40109209140844
 10
91.9293955760605
 20
-39.14510429027794
 10
91.833947518031
 20
-38.84591414363829
 10
91.81198768450678
 20
-38.56653475914921
 10
91.86351607548721
 20
-38.30696613681133
 10
91.91527498835082
 20
-38.04714149398528
 10
92.03204588212682
 20
-37.8083036524577
 10
92.21377775960583
 20
-37.58947952748521
 10
92.39550963708422
 20
-37.37065540251272
 10
92.64028182738453
 20
-37.17243353088737
 10
92.9480433332971
 20
-36.99384082786709
 10
93.25531829683734
 20
-36.81527362345117
 10
93.61600472019204
 20
-36.65976481397119
 10
94.02938553910633
 20
-36.52759591852101
 10
94.02938553910633
 20
-36.52759591852101
 10
94.76162425723192
 20
-36.29358155614428
 10
94.76162425723192
 20
-36.29358155614428
 10
94.76162425723192
 20
-36.29358155614428
 10
94.62945536178108
 20
-35.88020073722999
 10
94.62945536178108
 20
-35.88020073722999
 10
94.56433073227748
 20
-35.67553351029301
 10
94.48470561943026
 20
-35.50138682198132
 10
94.3910665656111
 20
-35.35773517369057
 10
94.29742751179195
 20
-35.21408352540046
 10
94.18562512310402
 20
-35.10553528591925
 10
94.05588992143048
 20
-35.03183443476001
 10
93.92615471975694
 20
-34.95813358360143
 10
93.77579797275249
 20
-34.9191770919067
 10
93.60507570090564
 20
-34.91519548155836
 10
93.43435342905846
 20
-34.91121387121131
 10
93.23732409505443
 20
-34.94520185781765
 10
93.01273309505697
 20
-35.01649337433415
 10
92.77234118285408
 20
-35.09349176853466
 10
92.56595106725548
 20
-35.19090668478824
 10
92.39333222637835
 20
-35.30899414358241
 10
92.22048286361805
 20
-35.42733762286478
 10
92.0733947479377
 20
-35.54384313370393
 10
91.95132531647779
 20
-35.6583056528217
 10
91.83002394648275
 20
-35.77345973758836
 10
91.72995401946807
 20
-35.87481628346723
 10
91.6516020778051
 20
-35.96234979185266
 10
91.57330113335247
 20
-36.05085638498081
 10
91.51060331888581
 20
-36.1019543504683
 10
91.46335460833699
 20
-36.11735933591677
 10
91.4319068099936
 20
-36.12705744368188
 10
91.40197170484892
 20
-36.1283823367119
 10
91.37324227520408
 20
-36.12013040838158
 10
91.34451284555892
 20
-36.11187848005127
 10
91.31629752576443
 20
-36.09481779182517
 10
91.28859631581993
 20
-36.06894834370201
 10
91.26066458399258
 20
-36.04333491606831
 10
91.23509113708064
 20
-36.00686456463272
 10
91.21141493131809
 20
-35.96004933037095
 10
91.18773872555553
 20
-35.91323409610983
 10
91.16667579076008
 20
-35.86042736176105
 10
91.14748356407155
 20
-35.8014241040458
 10
91.11646960433357
 20
-35.70303434397726
 10
91.09838312759818
 20
-35.6232382917541
 10
91.0936851776317
 20
-35.56152390639868
 10
91.08949926864159
 20
-35.50027056481025
 10
91.10559514762048
 20
-35.43502702757754
 10
91.14227983226658
 20
-35.36699690132709
 10
91.17919503879585
 20
-35.29871075458782
 10
91.25160647758118
 20
-35.20953705997768
 10
91.35923262952937
 20
-35.09875875324281
 10
91.46762684294244
 20
-34.98867201215746
 10
91.59696787693157
 20
-34.87797537342298
 10
91.74822881623949
 20
-34.76661783982809
 10
91.89877269129319
 20
-34.65554182532703
 10
92.06908424446492
 20
-34.54928437507747
 10
92.2579088719191
 20
-34.44717942203553
 10
92.44701501846647
 20
-34.3457915332475
 10
92.64364568472078
 20
-34.2623047522185
 10
92.84854343354127
 20
-34.1969241022267
 10
93.230245932229
 20
-34.07470933502981
 10
93.56909375594695
 20
-34.01450562651577
 10
93.86454936511312
 20
-34.01536539054882
 10
94.16003047288461
 20
-34.01671169695258
 10
94.41724184474357
 20
-34.07446210990416
 10
94.63618348069029
 20
-34.18861662940292
 10
94.85492009335918
 20
-34.30351371176123
 10
95.04137950464032
 20
-34.47279326980242
 10
95.19558721313935
 20
-34.69694184589788
 10
95.34953890114988
 20
-34.92085990011079
 10
95.47922858759888
 20
-35.19849643183572
 10
95.58511731625272
 20
-35.52933940009693
 10
95.58511731625272
 20
-35.52933940009693
 10
96.73098158941076
 20
-39.11496075934058
 10
96.73098158941076
 20
-39.11496075934058
 97
        0
 97
        0
 92
        1
 93
        1
 72
     4
 94
        3
 73
     0
 74
     1
 95
       35
 96
       31
 40
0.0
 40
0.0
 40
0.0
 40
0.0
 40
1.0
 40
1.0
 40
1.0
 40
2.0
 40
2.0
 40
2.0
 40
3.0
 40
3.0
 40
3.0
 40
4.0
 40
4.0
 40
4.0
 40
5.0
 40
5.0
 40
5.0
 40
6.0
 40
6.0
 40
6.0
 40
7.0
 40
7.0
 40
7.0
 40
8.0
 40
8.0
 40
8.0
 40
9.0
 40
9.0
 40
9.0
 40
10.0
 40
10.0
 40
10.0
 40
10.0
 10
94.98629852675208
 20
-36.99654916729607
 10
94.98629852675208
 20
-36.99654916729607
 10
94.15354435439902
 20
-37.26290858906137
 10
94.15354435439902
 20
-37.26290858906137
 10
93.8857765074971
 20
-37.34817199695473
 10
93.66059076408605
 20
-37.44535225357721
 10
93.47816664883936
 20
-37.5532202536979
 10
93.29576803219737
 20
-37.66157479618995
 10
93.15369833186196
 20
-37.7807445752059
 10
93.05195754783348
 20
-37.91072959074639
 10
92.95047278429317
 20
-38.0409451281694
 10
92.88885692773025
 20
-38.17785304126227
 10
92.8675965205164
 20
-38.32142783141995
 10
92.84608009281403
 20
-38.46477209969382
 10
92.86115426851457
 20
-38.61741994573068
 10
92.91279354901364
 20
-38.77888482715915
 10
93.00092314505088
 20
-39.05479640134916
 10
93.15854389120813
 20
-39.24632217439144
 10
93.38591180797359
 20
-39.35369266816916
 10
93.61353574522724
 20
-39.46129368383006
 10
93.88471523303316
 20
-39.46440146286265
 10
94.1997317904836
 20
-39.36373306952146
 10
94.45597561210228
 20
-39.28200088237967
 10
94.67228540973422
 20
-39.14113277231349
 10
94.84940374623925
 20
-38.94133376259982
 10
95.0265220827443
 20
-38.74153475288615
 10
95.19228697102463
 20
-38.46939288702469
 10
95.34692893296314
 20
-38.12465214452727
 10
95.34692893296314
 20
-38.12465214452727
 10
94.98629852675208
 20
-36.99654916729607
 10
94.98629852675208
 20
-36.99654916729607
 97
        0
 97
        0
 75
     2
 76
     1
 98
        0
  0
SPLINE
  5
59
330
50
100
AcDbEntity
  8
Layer 1
370
     0
100
AcDbSpline
210
0.0
220
0.0
230
1.0
 70
    11
 71
     3
 72
   110
 73
   106
 74
     0
 42
0.0000000001
 43
0.0000000001
 12
1.0
 22
0.0
 32
0.0
 13
1.0
 23
0.0
 33
0.0
 40
0.0
 40
0.0
 40
0.0
 40
0.0
 40
1.0
 40
1.0
 40
1.0
 40
2.0
 40
2.0
 40
2.0
 40
3.0
 40
3.0
 40
3.0
 40
4.0
 40
4.0
 40
4.0
 40
5.0
 40
5.0
 40
5.0
 40
6.0
 40
6.0
 40
6.0
 40
7.0
 40
7.0
 40
7.0
 40
8.0
 40
8.0
 40
8.0
 40
9.0
 40
9.0
 40
9.0
 40
10.0
 40
10.0
 40
10.0
 40
11.0
 40
11.0
 40
11.0
 40
12.0
 40
12.0
 40
12.0
 40
13.0
 40
13.0
 40
13.0
 40
14.0
 40
14.0
 40
14.0
 40
15.0
 40
15.0
 40
15.0
 40
16.0
 40
16.0
 40
16.0
 40
17.0
 40
17.0
 40
17.0
 40
18.0
 40
18.0
 40
18.0
 40
19.0
 40
19.0
 40
19.0
 40
20.0
 40
20.0
 40
20.0
 40
21.0
 40
21.0
 40
21.0
 40
22.0
 40
22.0
 40
22.0
 40
23.0
 40
23.0
 40
23.0
 40
24.0
 40
24.0
 40
24.0
 40
25.0
 40
25.0
 40
25.0
 40
26.0
 40
26.0
 40
26.0
 40
27.0
 40
27.0
 40
27.0
 40
28.0
 40
28.0
 40
28.0
 40
29.0
 40
29.0
 40
29.0
 40
30.0
 40
30.0
 40
30.0
 40
31.0
 40
31.0
 40
31.0
 40
32.0
 40
32.0
 40
32.0
 40
33.0
 40
33.0
 40
33.0
 40
34.0
 40
34.0
 40
34.0
 40
35.0
 40
35.0
 40
35.0
 40
35.0
 10
103.2888524416194
 20
-35.22927797426266
 30
0.0
 10
103.3466943995889
 20
-35.70924651542313
 30
0.0
 10
103.3464941336611
 20
-36.14761601988721
 30
0.0
 10
103.287739602859
 20
-36.54392544388789
 30
0.0
 10
103.2294971130339
 20
-36.94069591165492
 30
0.0
 10
103.1151606376706
 20
-37.28649554464211
 30
0.0
 10
102.9444996548863
 20
-37.58158036333891
 30
0.0
 10
102.7738641707073
 20
-37.87715172440706
 30
0.0
 10
102.549440954259
 20
-38.11455714398118
 30
0.0
 10
102.2714605274236
 20
-38.29354060157436
 30
0.0
 10
101.9932495787057
 20
-38.47278007965571
 30
0.0
 10
101.6632501332879
 20
-38.58545490290422
 30
0.0
 10
101.2814621911702
 20
-38.63156507131988
 30
0.0
 10
101.1049982331023
 20
-38.65301012287434
 30
0.0
 10
100.9397033887192
 20
-38.65484255681542
 30
0.0
 10
100.7858846757202
 20
-38.638265979769
 30
0.0
 10
100.6315539217441
 20
-38.62122835895624
 30
0.0
 10
100.4780473986284
 20
-38.58268087938039
 30
0.0
 10
100.3250835872784
 20
-38.52190647678755
 30
0.0
 10
100.1718892540455
 20
-38.46138809468225
 30
0.0
 10
100.0166253960492
 20
-38.37999938781655
 30
0.0
 10
99.8586004476394
 20
-38.27850841765437
 30
0.0
 10
99.70031947874179
 20
-38.17678692560966
 30
0.0
 10
99.53103273215854
 20
-38.05124828709646
 30
0.0
 10
99.35099622837849
 20
-37.90212302399794
 30
0.0
 10
99.35099622837849
 20
-37.90212302399794
 30
0.0
 10
99.43260878315479
 20
-38.57965636987051
 30
0.0
 10
99.43260878315479
 20
-38.57965636987051
 30
0.0
 10
99.43651937967294
 20
-38.61238323621863
 30
0.0
 10
99.43198026564099
 20
-38.64213778225302
 30
0.0
 10
99.41847940008192
 20
-38.66845896420988
 30
0.0
 10
99.4050040331285
 20
-38.69526668853746
 30
0.0
 10
99.38059524655785
 20
-38.7182565008349
 30
0.0
 10
99.34571408413565
 20
-38.73691636012648
 30
0.0
 10
99.3103463793421
 20
-38.75560171802307
 30
0.0
 10
99.26560687646574
 20
-38.77233883755993
 30
0.0
 10
99.21100903313553
 20
-38.78715321734273
 30
0.0
 10
99.15666721029382
 20
-38.80219811900805
 30
0.0
 10
99.08634701944746
 20
-38.8149091999268
 30
0.0
 10
99.00004846059646
 20
-38.82528646009768
 30
0.0
 10
98.91787276260015
 20
-38.83520371094031
 30
0.0
 10
98.84783615972063
 20
-38.83936205245145
 30
0.0
 10
98.7892215877043
 20
-38.8380430037243
 30
0.0
 10
98.73086303617617
 20
-38.83695447688098
 30
0.0
 10
98.68226186511835
 20
-38.83120761847521
 30
0.0
 10
98.64344357313618
 20
-38.82128897087901
 30
0.0
 10
98.60488130164218
 20
-38.81160084516534
 30
0.0
 10
98.5776645651954
 20
-38.79497570209995
 30
0.0
 10
98.56253592665571
 20
-38.77161856496163
 30
0.0
 10
98.54743278672136
 20
-38.74874797019404
 30
0.0
 10
98.5376826473091
 20
-38.720961988939
 30
0.0
 10
98.53374655218624
 20
-38.68774858021952
 30
0.0
 10
98.53374655218624
 20
-38.68774858021952
 30
0.0
 10
97.54284259555189
 20
-30.46257362730577
 30
0.0
 10
97.54284259555189
 20
-30.46257362730577
 30
0.0
 10
97.53867597854554
 20
-30.42961623907511
 30
0.0
 10
97.54249802832328
 20
-30.40014321213391
 30
0.0
 10
97.55379670390776
 20
-30.37369350271455
 30
0.0
 10
97.56509537949256
 20
-30.34724379329647
 30
0.0
 10
97.58947866745821
 20
-30.32376743862703
 30
0.0
 10
97.62643452682899
 20
-30.30280339494115
 30
0.0
 10
97.66336488759411
 20
-30.28135280888391
 30
0.0
 10
97.71435294548314
 20
-30.26282458036529
 30
0.0
 10
97.77888665951969
 20
-30.24675766562087
 30
0.0
 10
97.84365089543974
 20
-30.23043473038697
 30
0.0
 10
97.9253665841065
 20
-30.21639461869093
 30
0.0
 10
98.0235471831496
 20
-30.2046628291371
 30
0.0
 10
98.12633718541844
 20
-30.19244553164809
 30
0.0
 10
98.21089356362504
 20
-30.18606260486877
 30
0.0
 10
98.27800987783861
 20
-30.18669215681938
 30
0.0
 10
98.34438362919265
 20
-30.18711668549247
 30
0.0
 10
98.39715865831519
 20
-30.19337661931142
 30
0.0
 10
98.43605344611271
 20
-30.20475489402299
 30
0.0
 10
98.47499923112089
 20
-30.21710625347599
 30
0.0
 10
98.50418763565811
 20
-30.23411594449207
 30
0.0
 10
98.52343913505219
 20
-30.25701307230213
 30
0.0
 10
98.54292115632943
 20
-30.27965417962273
 30
0.0
 10
98.55461746522712
 20
-30.30733816645773
 30
0.0
 10
98.55852806174529
 20
-30.34006503280522
 30
0.0
 10
98.55852806174529
 20
-30.34006503280522
 30
0.0
 10
98.95833513186692
 20
-33.65864171098975
 30
0.0
 10
98.95833513186692
 20
-33.65864171098975
 30
0.0
 10
99.10216149496348
 20
-33.47058897294665
 30
0.0
 10
99.24424050523089
 20
-33.30970507745109
 30
0.0
 10
99.38434164078599
 20
-33.17624604499125
 30
0.0
 10
99.5244427763414
 20
-33.04278701253077
 30
0.0
 10
99.66397570152505
 20
-32.93106836071657
 30
0.0
 10
99.80296591494259
 20
-32.84157663191998
 30
0.0
 10
99.9422121488483
 20
-32.75231542500656
 30
0.0
 10
100.0834259130969
 20
-32.68197837336811
 30
0.0
 10
100.2273752691541
 20
-32.63125704265415
 30
0.0
 10
100.3713246252111
 20
-32.58053571194082
 30
0.0
 10
100.5251292184111
 20
-32.54564182647412
 30
0.0
 10
100.6892245939158
 20
-32.52557680290762
 30
0.0
 10
101.0916268403057
 20
-32.47716658784558
 30
0.0
 10
101.4449206845281
 20
-32.5157330496035
 30
0.0
 10
101.7495926689544
 20
-32.64125068957701
 30
0.0
 10
102.0540341314976
 20
-32.7670243500387
 30
0.0
 10
102.3119081047722
 20
-32.95378395279499
 30
0.0
 10
102.5229330696855
 20
-33.20081243359005
 30
0.0
 10
102.733727512715
 20
-33.44809693487393
 30
0.0
 10
102.9018998715316
 20
-33.74786667069165
 30
0.0
 10
103.0276296708084
 20
-34.09889253581164
 30
0.0
 10
103.1531289482023
 20
-34.45017442141982
 30
0.0
 10
103.2402117046742
 20
-34.82713174836062
 30
0.0
 10
103.2888524416194
 20
-35.22927797426266
 30
0.0
  0
SPLINE
  5
5A
330
50
100
AcDbEntity
  8
Layer 1
370
     0
100
AcDbSpline
210
0.0
220
0.0
230
1.0
 70
    11
 71
     3
 72
    50
 73
    46
 74
     0
 42
0.0000000001
 43
0.0000000001
 12
1.0
 22
0.0
 32
0.0
 13
1.0
 23
0.0
 33
0.0
 40
0.0
 40
0.0
 40
0.0
 40
0.0
 40
1.0
 40
1.0
 40
1.0
 40
2.0
 40
2.0
 40
2.0
 40
3.0
 40
3.0
 40
3.0
 40
4.0
 40
4.0
 40
4.0
 40
5.0
 40
5.0
 40
5.0
 40
6.0
 40
6.0
 40
6.0
 40
7.0
 40
7.0
 40
7.0
 40
8.0
 40
8.0
 40
8.0
 40
9.0
 40
9.0
 40
9.0
 40
10.0
 40
10.0
 40
10.0
 40
11.0
 40
11.0
 40
11.0
 40
12.0
 40
12.0
 40
12.0
 40
13.0
 40
13.0
 40
13.0
 40
14.0
 40
14.0
 40
14.0
 40
15.0
 40
15.0
 40
15.0
 40
15.0
 10
102.2500165681211
 20
-35.47326192892896
 30
0.0
 10
102.2158942097484
 20
-35.18988510773786
 30
0.0
 10
102.1608739591357
 20
-34.91736107260074
 30
0.0
 10
102.0856983791429
 20
-34.65589484679577
 30
0.0
 10
102.0102667786619
 20
-34.39419809910763
 30
0.0
 10
101.906172934419
 20
-34.16742316668287
 30
0.0
 10
101.7741339106689
 20
-33.97528853042764
 30
0.0
 10
101.6420693883138
 20
-33.7826673518017
 30
0.0
 10
101.4796759029306
 20
-33.63505685077584
 30
0.0
 10
101.2868769587041
 20
-33.53099740023598
 30
0.0
 10
101.0945900554539
 20
-33.42739899346183
 30
0.0
 10
100.8660795113237
 20
-33.39131867196304
 30
0.0
 10
100.6016013468026
 20
-33.42298695762152
 30
0.0
 10
100.4694902747858
 20
-33.43893636139234
 30
0.0
 10
100.3414979258761
 20
-33.4729653631579
 30
0.0
 10
100.2181363410495
 20
-33.52553500668456
 30
0.0
 10
100.0945187357348
 20
-33.57787412832803
 30
0.0
 10
99.97171501691051
 20
-33.65505240951909
 30
0.0
 10
99.84998120506523
 20
-33.75730037214093
 30
0.0
 10
99.7284779151028
 20
-33.85929231427392
 30
0.0
 10
99.60440821363633
 20
-33.98678844856222
 30
0.0
 10
99.47823314443153
 20
-34.13927673402878
 30
0.0
 10
99.35182755334388
 20
-34.29202103998354
 30
0.0
 10
99.22095830960248
 20
-34.48061442091911
 30
0.0
 10
99.08442180658209
 20
-34.70536389453306
 30
0.0
 10
99.08442180658209
 20
-34.70536389453306
 30
0.0
 10
99.35075551967579
 20
-36.915400974962
 30
0.0
 10
99.35075551967579
 20
-36.915400974962
 30
0.0
 10
99.67274866036566
 20
-37.22247748416335
 30
0.0
 10
99.97225094437225
 20
-37.44950088621718
 30
0.0
 10
100.2500304331604
 20
-37.59716274677109
 30
0.0
 10
100.5273233795769
 20
-37.74485010593066
 30
0.0
 10
100.8045084872692
 20
-37.80204161844249
 30
0.0
 10
101.0813552343541
 20
-37.76899330479606
 30
0.0
 10
101.3373316566783
 20
-37.73801451591348
 30
0.0
 10
101.5486106257225
 20
-37.65010095964204
 30
0.0
 10
101.7156531852524
 20
-37.50474059500665
 30
0.0
 10
101.8827212433877
 20
-37.35986677274198
 30
0.0
 10
102.0105671696057
 20
-37.17875001761444
 30
0.0
 10
102.0994724830011
 20
-36.96210739387727
 30
0.0
 10
102.1886083182795
 20
-36.74520874965192
 30
0.0
 10
102.2437168583478
 20
-36.50740704100279
 30
0.0
 10
102.2647981032069
 20
-36.24870226792859
 30
0.0
 10
102.2861353685541
 20
-35.99022801673821
 30
0.0
 10
102.2811228500297
 20
-35.73167106310996
 30
0.0
 10
102.2500165681211
 20
-35.47326192892896
 30
0.0
  0
HATCH
  5
5B
330
50
100
AcDbEntity
  8
Layer 1
 62
   240
420
 15539236
100
AcDbHatch
 10
0.0
 20
0.0
 30
0.0
210
0.0
220
0.0
230
1.0
  2
SOLID
 70
     1
 71
     0
 91
        2
 92
        1
 93
        1
 72
     4
 94
        3
 73
     0
 74
     1
 95
      110
 96
      106
 40
0.0
 40
0.0
 40
0.0
 40
0.0
 40
1.0
 40
1.0
 40
1.0
 40
2.0
 40
2.0
 40
2.0
 40
3.0
 40
3.0
 40
3.0
 40
4.0
 40
4.0
 40
4.0
 40
5.0
 40
5.0
 40
5.0
 40
6.0
 40
6.0
 40
6.0
 40
7.0
 40
7.0
 40
7.0
 40
8.0
 40
8.0
 40
8.0
 40
9.0
 40
9.0
 40
9.0
 40
10.0
 40
10.0
 40
10.0
 40
11.0
 40
11.0
 40
11.0
 40
12.0
 40
12.0
 40
12.0
 40
13.0
 40
13.0
 40
13.0
 40
14.0
 40
14.0
 40
14.0
 40
15.0
 40
15.0
 40
15.0
 40
16.0
 40
16.0
 40
16.0
 40
17.0
 40
17.0
 40
17.0
 40
18.0
 40
18.0
 40
18.0
 40
19.0
 40
19.0
 40
19.0
 40
20.0
 40
20.0
 40
20.0
 40
21.0
 40
21.0
 40
21.0
 40
22.0
 40
22.0
 40
22.0
 40
23.0
 40
23.0
 40
23.0
 40
24.0
 40
24.0
 40
24.0
 40
25.0
 40
25.0
 40
25.0
 40
26.0
 40
26.0
 40
26.0
 40
27.0
 40
27.0
 40
27.0
 40
28.0
 40
28.0
 40
28.0
 40
29.0
 40
29.0
 40
29.0
 40
30.0
 40
30.0
 40
30.0
 40
31.0
 40
31.0
 40
31.0
 40
32.0
 40
32.0
 40
32.0
 40
33.0
 40
33.0
 40
33.0
 40
34.0
 40
34.0
 40
34.0
 40
35.0
 40
35.0
 40
35.0
 40
35.0
 10
103.2888524416194
 20
-35.22927797426266
 10
103.3466943995889
 20
-35.70924651542313
 10
103.3464941336611
 20
-36.14761601988721
 10
103.287739602859
 20
-36.54392544388789
 10
103.2294971130339
 20
-36.94069591165492
 10
103.1151606376706
 20
-37.28649554464211
 10
102.9444996548863
 20
-37.58158036333891
 10
102.7738641707073
 20
-37.87715172440706
 10
102.549440954259
 20
-38.11455714398118
 10
102.2714605274236
 20
-38.29354060157436
 10
101.9932495787057
 20
-38.47278007965571
 10
101.6632501332879
 20
-38.58545490290422
 10
101.2814621911702
 20
-38.63156507131988
 10
101.1049982331023
 20
-38.65301012287434
 10
100.9397033887192
 20
-38.65484255681542
 10
100.7858846757202
 20
-38.638265979769
 10
100.6315539217441
 20
-38.62122835895624
 10
100.4780473986284
 20
-38.58268087938039
 10
100.3250835872784
 20
-38.52190647678755
 10
100.1718892540455
 20
-38.46138809468225
 10
100.0166253960492
 20
-38.37999938781655
 10
99.8586004476394
 20
-38.27850841765437
 10
99.70031947874179
 20
-38.17678692560966
 10
99.53103273215854
 20
-38.05124828709646
 10
99.35099622837849
 20
-37.90212302399794
 10
99.35099622837849
 20
-37.90212302399794
 10
99.43260878315479
 20
-38.57965636987051
 10
99.43260878315479
 20
-38.57965636987051
 10
99.43651937967294
 20
-38.61238323621863
 10
99.43198026564099
 20
-38.64213778225302
 10
99.41847940008192
 20
-38.66845896420988
 10
99.4050040331285
 20
-38.69526668853746
 10
99.38059524655785
 20
-38.7182565008349
 10
99.34571408413565
 20
-38.73691636012648
 10
99.3103463793421
 20
-38.75560171802307
 10
99.26560687646574
 20
-38.77233883755993
 10
99.21100903313553
 20
-38.78715321734273
 10
99.15666721029382
 20
-38.80219811900805
 10
99.08634701944746
 20
-38.8149091999268
 10
99.00004846059646
 20
-38.82528646009768
 10
98.91787276260015
 20
-38.83520371094031
 10
98.84783615972063
 20
-38.83936205245145
 10
98.7892215877043
 20
-38.8380430037243
 10
98.73086303617617
 20
-38.83695447688098
 10
98.68226186511835
 20
-38.83120761847521
 10
98.64344357313618
 20
-38.82128897087901
 10
98.60488130164218
 20
-38.81160084516534
 10
98.5776645651954
 20
-38.79497570209995
 10
98.56253592665571
 20
-38.77161856496163
 10
98.54743278672136
 20
-38.74874797019404
 10
98.5376826473091
 20
-38.720961988939
 10
98.53374655218624
 20
-38.68774858021952
 10
98.53374655218624
 20
-38.68774858021952
 10
97.54284259555189
 20
-30.46257362730577
 10
97.54284259555189
 20
-30.46257362730577
 10
97.53867597854554
 20
-30.42961623907511
 10
97.54249802832328
 20
-30.40014321213391
 10
97.55379670390776
 20
-30.37369350271455
 10
97.56509537949256
 20
-30.34724379329647
 10
97.58947866745821
 20
-30.32376743862703
 10
97.62643452682899
 20
-30.30280339494115
 10
97.66336488759411
 20
-30.28135280888391
 10
97.71435294548314
 20
-30.26282458036529
 10
97.77888665951969
 20
-30.24675766562087
 10
97.84365089543974
 20
-30.23043473038697
 10
97.9253665841065
 20
-30.21639461869093
 10
98.0235471831496
 20
-30.2046628291371
 10
98.12633718541844
 20
-30.19244553164809
 10
98.21089356362504
 20
-30.18606260486877
 10
98.27800987783861
 20
-30.18669215681938
 10
98.34438362919265
 20
-30.18711668549247
 10
98.39715865831519
 20
-30.19337661931142
 10
98.43605344611271
 20
-30.20475489402299
 10
98.47499923112089
 20
-30.21710625347599
 10
98.50418763565811
 20
-30.23411594449207
 10
98.52343913505219
 20
-30.25701307230213
 10
98.54292115632943
 20
-30.27965417962273
 10
98.55461746522712
 20
-30.30733816645773
 10
98.55852806174529
 20
-30.34006503280522
 10
98.55852806174529
 20
-30.34006503280522
 10
98.95833513186692
 20
-33.65864171098975
 10
98.95833513186692
 20
-33.65864171098975
 10
99.10216149496348
 20
-33.47058897294665
 10
99.24424050523089
 20
-33.30970507745109
 10
99.38434164078599
 20
-33.17624604499125
 10
99.5244427763414
 20
-33.04278701253077
 10
99.66397570152505
 20
-32.93106836071657
 10
99.80296591494259
 20
-32.84157663191998
 10
99.9422121488483
 20
-32.75231542500656
 10
100.0834259130969
 20
-32.68197837336811
 10
100.2273752691541
 20
-32.63125704265415
 10
100.3713246252111
 20
-32.58053571194082
 10
100.5251292184111
 20
-32.54564182647412
 10
100.6892245939158
 20
-32.52557680290762
 10
101.0916268403057
 20
-32.47716658784558
 10
101.4449206845281
 20
-32.5157330496035
 10
101.7495926689544
 20
-32.64125068957701
 10
102.0540341314976
 20
-32.7670243500387
 10
102.3119081047722
 20
-32.95378395279499
 10
102.5229330696855
 20
-33.20081243359005
 10
102.733727512715
 20
-33.44809693487393
 10
102.9018998715316
 20
-33.74786667069165
 10
103.0276296708084
 20
-34.09889253581164
 10
103.1531289482023
 20
-34.45017442141982
 10
103.2402117046742
 20
-34.82713174836062
 10
103.2888524416194
 20
-35.22927797426266
 97
        0
 97
        0
 92
        1
 93
        1
 72
     4
 94
        3
 73
     0
 74
     1
 95
       50
 96
       46
 40
0.0
 40
0.0
 40
0.0
 40
0.0
 40
1.0
 40
1.0
 40
1.0
 40
2.0
 40
2.0
 40
2.0
 40
3.0
 40
3.0
 40
3.0
 40
4.0
 40
4.0
 40
4.0
 40
5.0
 40
5.0
 40
5.0
 40
6.0
 40
6.0
 40
6.0
 40
7.0
 40
7.0
 40
7.0
 40
8.0
 40
8.0
 40
8.0
 40
9.0
 40
9.0
 40
9.0
 40
10.0
 40
10.0
 40
10.0
 40
11.0
 40
11.0
 40
11.0
 40
12.0
 40
12.0
 40
12.0
 40
13.0
 40
13.0
 40
13.0
 40
14.0
 40
14.0
 40
14.0
 40
15.0
 40
15.0
 40
15.0
 40
15.0
 10
102.2500165681211
 20
-35.47326192892896
 10
102.2158942097484
 20
-35.18988510773786
 10
102.1608739591357
 20
-34.91736107260074
 10
102.0856983791429
 20
-34.65589484679577
 10
102.0102667786619
 20
-34.39419809910763
 10
101.906172934419
 20
-34.16742316668287
 10
101.7741339106689
 20
-33.97528853042764
 10
101.6420693883138
 20
-33.7826673518017
 10
101.4796759029306
 20
-33.63505685077584
 10
101.2868769587041
 20
-33.53099740023598
 10
101.0945900554539
 20
-33.42739899346183
 10
100.8660795113237
 20
-33.39131867196304
 10
100.6016013468026
 20
-33.42298695762152
 10
100.4694902747858
 20
-33.43893636139234
 10
100.3414979258761
 20
-33.4729653631579
 10
100.2181363410495
 20
-33.52553500668456
 10
100.0945187357348
 20
-33.57787412832803
 10
99.97171501691051
 20
-33.65505240951909
 10
99.84998120506523
 20
-33.75730037214093
 10
99.7284779151028
 20
-33.85929231427392
 10
99.60440821363633
 20
-33.98678844856222
 10
99.47823314443153
 20
-34.13927673402878
 10
99.35182755334388
 20
-34.29202103998354
 10
99.22095830960248
 20
-34.48061442091911
 10
99.08442180658209
 20
-34.70536389453306
 10
99.08442180658209
 20
-34.70536389453306
 10
99.35075551967579
 20
-36.915400974962
 10
99.35075551967579
 20
-36.915400974962
 10
99.67274866036566
 20
-37.22247748416335
 10
99.97225094437225
 20
-37.44950088621718
 10
100.2500304331604
 20
-37.59716274677109
 10
100.5273233795769
 20
-37.74485010593066
 10
100.8045084872692
 20
-37.80204161844249
 10
101.0813552343541
 20
-37.76899330479606
 10
101.3373316566783
 20
-37.73801451591348
 10
101.5486106257225
 20
-37.65010095964204
 10
101.7156531852524
 20
-37.50474059500665
 10
101.8827212433877
 20
-37.35986677274198
 10
102.0105671696057
 20
-37.17875001761444
 10
102.0994724830011
 20
-36.96210739387727
 10
102.1886083182795
 20
-36.74520874965192
 10
102.2437168583478
 20
-36.50740704100279
 10
102.2647981032069
 20
-36.24870226792859
 10
102.2861353685541
 20
-35.99022801673821
 10
102.2811228500297
 20
-35.73167106310996
 10
102.2500165681211
 20
-35.47326192892896
 97
        0
 97
        0
 75
     2
 76
     1
 98
        0
  0
SPLINE
  5
5C
330
50
100
AcDbEntity
  8
Layer 1
370
     0
100
AcDbSpline
210
0.0
220
0.0
230
1.0
 70
    11
 71
     3
 72
    71
 73
    67
 74
     0
 42
0.0000000001
 43
0.0000000001
 12
1.0
 22
0.0
 32
0.0
 13
1.0
 23
0.0
 33
0.0
 40
0.0
 40
0.0
 40
0.0
 40
0.0
 40
1.0
 40
1.0
 40
1.0
 40
2.0
 40
2.0
 40
2.0
 40
3.0
 40
3.0
 40
3.0
 40
4.0
 40
4.0
 40
4.0
 40
5.0
 40
5.0
 40
5.0
 40
6.0
 40
6.0
 40
6.0
 40
7.0
 40
7.0
 40
7.0
 40
8.0
 40
8.0
 40
8.0
 40
9.0
 40
9.0
 40
9.0
 40
10.0
 40
10.0
 40
10.0
 40
11.0
 40
11.0
 40
11.0
 40
12.0
 40
12.0
 40
12.0
 40
13.0
 40
13.0
 40
13.0
 40
14.0
 40
14.0
 40
14.0
 40
15.0
 40
15.0
 40
15.0
 40
16.0
 40
16.0
 40
16.0
 40
17.0
 40
17.0
 40
17.0
 40
18.0
 40
18.0
 40
18.0
 40
19.0
 40
19.0
 40
19.0
 40
20.0
 40
20.0
 40
20.0
 40
21.0
 40
21.0
 40
21.0
 40
22.0
 40
22.0
 40
22.0
 40
22.0
 10
112.4427964804512
 20
-38.61549088949297
 30
0.0
 10
112.4304868082756
 20
-38.69712387572316
 30
0.0
 10
112.415747527553
 20
-38.76497964948583
 30
0.0
 10
112.3992957025392
 20
-38.81877669168714
 30
0.0
 10
112.3828438775254
 20
-38.8725737338891
 30
0.0
 10
112.3625272810194
 20
-38.91779150364098
 30
0.0
 10
112.3383204144161
 20
-38.95394345857273
 30
0.0
 10
112.313857527324
 20
-38.98986489162066
 30
0.0
 10
112.2871180233163
 20
-39.0149283664305
 30
0.0
 10
112.2576153600221
 20
-39.02915938160536
 30
0.0
 10
112.2281381953324
 20
-39.04387693915221
 30
0.0
 10
112.1951808071017
 20
-39.04804355615791
 30
0.0
 10
112.1583076501682
 20
-39.04265781597211
 30
0.0
 10
112.1583076501682
 20
-39.04265781597211
 30
0.0
 10
108.6513930444514
 20
-38.51121725269522
 30
0.0
 10
108.6513930444514
 20
-38.51121725269522
 30
0.0
 10
108.5574435073052
 20
-38.49662579141918
 30
0.0
 10
108.4731290297878
 20
-38.45176877756922
 30
0.0
 10
108.3993716994324
 20
-38.37562212919065
 30
0.0
 10
108.3251278267057
 20
-38.29950097941774
 30
0.0
 10
108.2999310145673
 20
-38.18177908639154
 30
0.0
 10
108.3240117849004
 20
-38.02220042962452
 30
0.0
 10
108.3240117849004
 20
-38.02220042962452
 30
0.0
 10
109.4373617398245
 20
-30.67738389611169
 30
0.0
 10
109.4373617398245
 20
-30.67738389611169
 30
0.0
 10
109.4424649264809
 20
-30.64442857675467
 30
0.0
 10
109.4547111882034
 20
-30.61744132775393
 30
0.0
 10
109.4747665920365
 20
-30.5951675452742
 30
0.0
 10
109.4950780163578
 20
-30.57312428467701
 30
0.0
 10
109.5267318724162
 20
-30.55804871222194
 30
0.0
 10
109.569728160211
 20
-30.5499408279077
 30
0.0
 10
109.6127244480052
 20
-30.54183294359346
 30
0.0
 10
109.6698549287395
 20
-30.53810704393256
 30
0.0
 10
109.7406075614364
 20
-30.53830208515929
 30
0.0
 10
109.8116162146215
 20
-30.53872764826983
 30
0.0
 10
109.8964000114005
 20
-30.54599340649489
 30
0.0
 10
109.9945234066114
 20
-30.56109794318475
 30
0.0
 10
110.096820659887
 20
-30.57671555528716
 30
0.0
 10
110.1809363207478
 20
-30.5945057210109
 30
0.0
 10
110.2468958877983
 20
-30.61495498272735
 30
0.0
 10
110.3123689124773
 20
-30.6354297430488
 30
0.0
 10
110.3649103164059
 20
-30.65585040284914
 30
0.0
 10
110.4032909943525
 20
-30.67603743745649
 30
0.0
 10
110.4419531913935
 20
-30.69694153631709
 30
0.0
 10
110.4678367593147
 20
-30.72071078888666
 30
0.0
 10
110.4804806543498
 20
-30.74785723613901
 30
0.0
 10
110.4930990507799
 20
-30.77451714102063
 30
0.0
 10
110.4971126761556
 20
-30.80455527502313
 30
0.0
 10
110.4919839908948
 20
-30.83702405200816
 30
0.0
 10
110.4919839908948
 20
-30.83702405200816
 30
0.0
 10
109.4518249675432
 20
-37.69793217380746
 30
0.0
 10
109.4518249675432
 20
-37.69793217380746
 30
0.0
 10
109.4518249675432
 20
-37.69793217380746
 30
0.0
 10
112.2967904277083
 20
-38.12892162271386
 30
0.0
 10
112.2967904277083
 20
-38.12892162271386
 30
0.0
 10
112.3336890832468
 20
-38.13479390527166
 30
0.0
 10
112.3641841232678
 20
-38.14880784624392
 30
0.0
 10
112.3877890053997
 20
-38.17098894423498
 30
0.0
 10
112.411419386136
 20
-38.19365658459869
 30
0.0
 10
112.4300547812594
 20
-38.22341630281846
 30
0.0
 10
112.4430036251197
 20
-38.26103616035947
 30
0.0
 10
112.4564390113507
 20
-38.29863051929485
 30
0.0
 10
112.4623691698595
 20
-38.34661972382958
 30
0.0
 10
112.4622537277589
 20
-38.40492727814738
 30
0.0
 10
112.461677241892
 20
-38.46374687344154
 30
0.0
 10
112.4551061526269
 20
-38.53385790326278
 30
0.0
 10
112.4427964804512
 20
-38.61549088949297
 30
0.0
  0
HATCH
  5
5D
330
50
100
AcDbEntity
  8
Layer 1
 62
   114
420
    42320
100
AcDbHatch
 10
0.0
 20
0.0
 30
0.0
210
0.0
220
0.0
230
1.0
  2
SOLID
 70
     1
 71
     0
 91
        1
 92
        1
 93
        1
 72
     4
 94
        3
 73
     0
 74
     1
 95
       71
 96
       67
 40
0.0
 40
0.0
 40
0.0
 40
0.0
 40
1.0
 40
1.0
 40
1.0
 40
2.0
 40
2.0
 40
2.0
 40
3.0
 40
3.0
 40
3.0
 40
4.0
 40
4.0
 40
4.0
 40
5.0
 40
5.0
 40
5.0
 40
6.0
 40
6.0
 40
6.0
 40
7.0
 40
7.0
 40
7.0
 40
8.0
 40
8.0
 40
8.0
 40
9.0
 40
9.0
 40
9.0
 40
10.0
 40
10.0
 40
10.0
 40
11.0
 40
11.0
 40
11.0
 40
12.0
 40
12.0
 40
12.0
 40
13.0
 40
13.0
 40
13.0
 40
14.0
 40
14.0
 40
14.0
 40
15.0
 40
15.0
 40
15.0
 40
16.0
 40
16.0
 40
16.0
 40
17.0
 40
17.0
 40
17.0
 40
18.0
 40
18.0
 40
18.0
 40
19.0
 40
19.0
 40
19.0
 40
20.0
 40
20.0
 40
20.0
 40
21.0
 40
21.0
 40
21.0
 40
22.0
 40
22.0
 40
22.0
 40
22.0
 10
112.4427964804512
 20
-38.61549088949297
 10
112.4304868082756
 20
-38.69712387572316
 10
112.415747527553
 20
-38.76497964948583
 10
112.3992957025392
 20
-38.81877669168714
 10
112.3828438775254
 20
-38.8725737338891
 10
112.3625272810194
 20
-38.91779150364098
 10
112.3383204144161
 20
-38.95394345857273
 10
112.313857527324
 20
-38.98986489162066
 10
112.2871180233163
 20
-39.0149283664305
 10
112.2576153600221
 20
-39.02915938160536
 10
112.2281381953324
 20
-39.04387693915221
 10
112.1951808071017
 20
-39.04804355615791
 10
112.1583076501682
 20
-39.04265781597211
 10
112.1583076501682
 20
-39.04265781597211
 10
108.6513930444514
 20
-38.51121725269522
 10
108.6513930444514
 20
-38.51121725269522
 10
108.5574435073052
 20
-38.49662579141918
 10
108.4731290297878
 20
-38.45176877756922
 10
108.3993716994324
 20
-38.37562212919065
 10
108.3251278267057
 20
-38.29950097941774
 10
108.2999310145673
 20
-38.18177908639154
 10
108.3240117849004
 20
-38.02220042962452
 10
108.3240117849004
 20
-38.02220042962452
 10
109.4373617398245
 20
-30.67738389611169
 10
109.4373617398245
 20
-30.67738389611169
 10
109.4424649264809
 20
-30.64442857675467
 10
109.4547111882034
 20
-30.61744132775393
 10
109.4747665920365
 20
-30.5951675452742
 10
109.4950780163578
 20
-30.57312428467701
 10
109.5267318724162
 20
-30.55804871222194
 10
109.569728160211
 20
-30.5499408279077
 10
109.6127244480052
 20
-30.54183294359346
 10
109.6698549287395
 20
-30.53810704393256
 10
109.7406075614364
 20
-30.53830208515929
 10
109.8116162146215
 20
-30.53872764826983
 10
109.8964000114005
 20
-30.54599340649489
 10
109.9945234066114
 20
-30.56109794318475
 10
110.096820659887
 20
-30.57671555528716
 10
110.1809363207478
 20
-30.5945057210109
 10
110.2468958877983
 20
-30.61495498272735
 10
110.3123689124773
 20
-30.6354297430488
 10
110.3649103164059
 20
-30.65585040284914
 10
110.4032909943525
 20
-30.67603743745649
 10
110.4419531913935
 20
-30.69694153631709
 10
110.4678367593147
 20
-30.72071078888666
 10
110.4804806543498
 20
-30.74785723613901
 10
110.4930990507799
 20
-30.77451714102063
 10
110.4971126761556
 20
-30.80455527502313
 10
110.4919839908948
 20
-30.83702405200816
 10
110.4919839908948
 20
-30.83702405200816
 10
109.4518249675432
 20
-37.69793217380746
 10
109.4518249675432
 20
-37.69793217380746
 10
109.4518249675432
 20
-37.69793217380746
 10
112.2967904277083
 20
-38.12892162271386
 10
112.2967904277083
 20
-38.12892162271386
 10
112.3336890832468
 20
-38.13479390527166
 10
112.3641841232678
 20
-38.14880784624392
 10
112.3877890053997
 20
-38.17098894423498
 10
112.411419386136
 20
-38.19365658459869
 10
112.4300547812594
 20
-38.22341630281846
 10
112.4430036251197
 20
-38.26103616035947
 10
112.4564390113507
 20
-38.29863051929485
 10
112.4623691698595
 20
-38.34661972382958
 10
112.4622537277589
 20
-38.40492727814738
 10
112.461677241892
 20
-38.46374687344154
 10
112.4551061526269
 20
-38.53385790326278
 10
112.4427964804512
 20
-38.61549088949297
 97
        0
 97
        0
 75
     2
 76
     1
 98
        0
  0
SPLINE
  5
5E
330
50
100
AcDbEntity
  8
Layer 1
370
     0
100
AcDbSpline
210
0.0
220
0.0
230
1.0
 70
    11
 71
     3
 72
   131
 73
   127
 74
     0
 42
0.0000000001
 43
0.0000000001
 12
1.0
 22
0.0
 32
0.0
 13
1.0
 23
0.0
 33
0.0
 40
0.0
 40
0.0
 40
0.0
 40
0.0
 40
1.0
 40
1.0
 40
1.0
 40
2.0
 40
2.0
 40
2.0
 40
3.0
 40
3.0
 40
3.0
 40
4.0
 40
4.0
 40
4.0
 40
5.0
 40
5.0
 40
5.0
 40
6.0
 40
6.0
 40
6.0
 40
7.0
 40
7.0
 40
7.0
 40
8.0
 40
8.0
 40
8.0
 40
9.0
 40
9.0
 40
9.0
 40
10.0
 40
10.0
 40
10.0
 40
11.0
 40
11.0
 40
11.0
 40
12.0
 40
12.0
 40
12.0
 40
13.0
 40
13.0
 40
13.0
 40
14.0
 40
14.0
 40
14.0
 40
15.0
 40
15.0
 40
15.0
 40
16.0
 40
16.0
 40
16.0
 40
17.0
 40
17.0
 40
17.0
 40
18.0
 40
18.0
 40
18.0
 40
19.0
 40
19.0
 40
19.0
 40
20.0
 40
20.0
 40
20.0
 40
21.0
 40
21.0
 40
21.0
 40
22.0
 40
22.0
 40
22.0
 40
23.0
 40
23.0
 40
23.0
 40
24.0
 40
24.0
 40
24.0
 40
25.0
 40
25.0
 40
25.0
 40
26.0
 40
26.0
 40
26.0
 40
27.0
 40
27.0
 40
27.0
 40
28.0
 40
28.0
 40
28.0
 40
29.0
 40
29.0
 40
29.0
 40
30.0
 40
30.0
 40
30.0
 40
31.0
 40
31.0
 40
31.0
 40
32.0
 40
32.0
 40
32.0
 40
33.0
 40
33.0
 40
33.0
 40
34.0
 40
34.0
 40
34.0
 40
35.0
 40
35.0
 40
35.0
 40
36.0
 40
36.0
 40
36.0
 40
37.0
 40
37.0
 40
37.0
 40
38.0
 40
38.0
 40
38.0
 40
39.0
 40
39.0
 40
39.0
 40
40.0
 40
40.0
 40
40.0
 40
41.0
 40
41.0
 40
41.0
 40
42.0
 40
42.0
 40
42.0
 40
42.0
 10
117.4049394547141
 20
-40.53649771004552
 30
0.0
 10
117.3893597544592
 20
-40.58366268372031
 30
0.0
 10
117.3619021517607
 20
-40.61364257945378
 30
0.0
 10
117.3225921452225
 20
-40.62692393961792
 30
0.0
 10
117.2832821386842
 20
-40.64020529978143
 30
0.0
 10
117.2344228782642
 20
-40.64349772315462
 30
0.0
 10
117.1757838420794
 20
-40.63705723022569
 30
0.0
 10
117.1166582635232
 20
-40.63064223590177
 30
0.0
 10
117.0343357805178
 20
-40.60983082152919
 30
0.0
 10
116.9285858711793
 20
-40.57487900759485
 30
0.0
 10
116.826318254256
 20
-40.54120833053953
 30
0.0
 10
116.7467641027216
 20
-40.50805486664532
 30
0.0
 10
116.6899744137869
 20
-40.4763917006543
 30
0.0
 10
116.6329287043634
 20
-40.44449801278137
 30
0.0
 10
116.5946276255424
 20
-40.41186589979554
 30
0.0
 10
116.5748661540456
 20
-40.37923792455764
 30
0.0
 10
116.555360703037
 20
-40.3468404712029
 30
0.0
 10
116.553269817416
 20
-40.30694399674687
 30
0.0
 10
116.5688495176703
 20
-40.25977902307208
 30
0.0
 10
116.5688495176703
 20
-40.25977902307208
 30
0.0
 10
116.7445306748721
 20
-39.73000539442619
 30
0.0
 10
116.7445306748721
 20
-39.73000539442619
 30
0.0
 10
116.4307277060987
 20
-39.90037683990655
 30
0.0
 10
116.1092055387103
 20
-40.00724072217674
 30
0.0
 10
115.7792216098461
 20
-40.05039201795923
 30
0.0
 10
115.4492376809818
 20
-40.09354331374172
 30
0.0
 10
115.1255953539369
 20
-40.06220469836138
 30
0.0
 10
114.8073470425737
 20
-39.95691371139829
 30
0.0
 10
114.5288125776829
 20
-39.86466564953903
 30
0.0
 10
114.288592639293
 20
-39.74479597686106
 30
0.0
 10
114.0869432478924
 20
-39.59753521524887
 30
0.0
 10
113.8855498769806
 20
-39.4505049755192
 30
0.0
 10
113.7278984600336
 20
-39.28166716926091
 30
0.0
 10
113.6145010380278
 20
-39.09148284023904
 30
0.0
 10
113.5011036160232
 20
-38.90129851121718
 30
0.0
 10
113.4332912886108
 20
-38.69189335359098
 30
0.0
 10
113.4114996009532
 20
-38.46226878401274
 30
0.0
 10
113.3897334119005
 20
-38.23313075680586
 30
0.0
 10
113.420695392508
 20
-37.99073997135094
 30
0.0
 10
113.5051536042401
 20
-37.73578799329751
 30
0.0
 10
113.6039358779544
 20
-37.43763987635647
 30
0.0
 10
113.7506928740854
 20
-37.19845022654094
 30
0.0
 10
113.9449890474737
 20
-37.01921762720057
 30
0.0
 10
114.1395157427446
 20
-36.83972900737136
 30
0.0
 10
114.3747200592985
 20
-36.71494643191429
 30
0.0
 10
114.6506274957413
 20
-36.64535644320133
 30
0.0
 10
114.9260228912076
 20
-36.57530541072202
 30
0.0
 10
115.2408158055149
 20
-36.55880781319896
 30
0.0
 10
115.5944941976886
 20
-36.59540260686708
 30
0.0
 10
115.9484286103506
 20
-36.63222792241708
 30
0.0
 10
116.3313136646079
 20
-36.71876326228946
 30
0.0
 10
116.7431493604611
 20
-36.85500862648359
 30
0.0
 10
116.7431493604611
 20
-36.85500862648359
 30
0.0
 10
117.4732588662833
 20
-37.09703152001151
 30
0.0
 10
117.4732588662833
 20
-37.09703152001151
 30
0.0
 10
117.4732588662833
 20
-37.09703152001151
 30
0.0
 10
117.60973475236
 20
-36.68493980367005
 30
0.0
 10
117.60973475236
 20
-36.68493980367005
 30
0.0
 10
117.6771016050762
 20
-36.48089111219478
 30
0.0
 10
117.7153238094066
 20
-36.29325012726427
 30
0.0
 10
117.7244013653524
 20
-36.12201684887722
 30
0.0
 10
117.7329923789255
 20
-35.95080906909583
 30
0.0
 10
117.7063952123782
 20
-35.79705754198012
 30
0.0
 10
117.6451219066875
 20
-35.66122331129579
 30
0.0
 10
117.5831315367417
 20
-35.52567059970467
 30
0.0
 10
117.4848779075114
 20
-35.40567896850379
 30
0.0
 10
117.3491829109771
 20
-35.30204197776274
 30
0.0
 10
117.2137184363254
 20
-35.1981489665335
 30
0.0
 10
117.0341550272367
 20
-35.10925192863386
 30
0.0
 10
116.8104926837113
 20
-35.03535086406381
 30
0.0
 10
116.5709295024339
 20
-34.95594070402954
 30
0.0
 10
116.3466968796631
 20
-34.91304982376725
 30
0.0
 10
116.1378203140043
 20
-34.90716476564894
 30
0.0
 10
115.9284317073685
 20
-34.90081866376426
 30
0.0
 10
115.7407548794641
 20
-34.90845893537256
 30
0.0
 10
115.5747643316843
 20
-34.92959903810311
 30
0.0
 10
115.4087737839038
 20
-34.95073914083301
 30
0.0
 10
115.2682619296736
 20
-34.97395911269623
 30
0.0
 10
115.1534592908762
 20
-34.99900293320395
 30
0.0
 10
115.0381701097074
 20
-35.02407225231603
 30
0.0
 10
114.957429574657
 20
-35.02879156313993
 30
0.0
 10
114.9102646009822
 20
-35.01321186288564
 30
0.0
 10
114.8789749664543
 20
-35.00265471572357
 30
0.0
 10
114.8539604199814
 20
-34.98615810012132
 30
0.0
 10
114.8356310081201
 20
-34.96223689035916
 30
0.0
 10
114.8173270948637
 20
-34.93880222296772
 30
0.0
 10
114.8042741877097
 20
-34.90850599960275
 30
0.0
 10
114.7971893509114
 20
-34.87106670117235
 30
0.0
 10
114.7901300127187
 20
-34.83411394511267
 30
0.0
 10
114.7904728733914
 20
-34.78945507579925
 30
0.0
 10
114.7987554725115
 20
-34.73803767937044
 30
0.0
 10
114.8072685935147
 20
-34.68636426245344
 30
0.0
 10
114.8214417327392
 20
-34.63097906567491
 30
0.0
 10
114.8407883478136
 20
-34.57190758763983
 30
0.0
 10
114.8732288852012
 20
-34.47409534787507
 30
0.0
 10
114.9056387517991
 20
-34.39897107489364
 30
0.0
 10
114.9385044899779
 20
-34.34650927009118
 30
0.0
 10
114.970883685786
 20
-34.29407296389373
 30
0.0
 10
115.0225429829049
 20
-34.25111562238386
 30
0.0
 10
115.0920227542186
 20
-34.21771374137788
 30
0.0
 10
115.1619890679031
 20
-34.18428636176624
 30
0.0
 10
115.2731309240496
 20
-34.15455560778062
 30
0.0
 10
115.4252178007731
 20
-34.12877749990855
 30
0.0
 10
115.577560697986
 20
-34.10322991391966
 30
0.0
 10
115.7473650200474
 20
-34.08969599889583
 30
0.0
 10
115.9351428079363
 20
-34.08863679860404
 30
0.0
 10
116.1226900739413
 20
-34.08783361880108
 30
0.0
 10
116.3227048136207
 20
-34.10150128598816
 30
0.0
 10
116.5352380241831
 20
-34.13061288490865
 30
0.0
 10
116.7477712347455
 20
-34.15972448382978
 30
0.0
 10
116.9561774467052
 20
-34.20783569940472
 30
0.0
 10
117.1602516367855
 20
-34.27568909449172
 30
0.0
 10
117.5408231967158
 20
-34.40186385389578
 30
0.0
 10
117.8502014066045
 20
-34.55201666457488
 30
0.0
 10
118.0886677855439
 20
-34.72686459078614
 30
0.0
 10
118.3266476221113
 20
-34.90173801560242
 30
0.0
 10
118.5007067456024
 20
-35.09972047024726
 30
0.0
 10
118.6103841122509
 20
-35.32132399569576
 30
0.0
 10
118.7198054584111
 20
-35.54269699926108
 30
0.0
 10
118.7707855506063
 20
-35.78933125985605
 30
0.0
 10
118.7633243888365
 20
-36.06122677747937
 30
0.0
 10
118.7561192475536
 20
-36.33335281698523
 30
0.0
 10
118.6979494781143
 20
-36.6337634310432
 30
0.0
 10
118.5888660777267
 20
-36.96343170439537
 30
0.0
 10
118.5888660777267
 20
-36.96343170439537
 30
0.0
 10
117.4049394547141
 20
-40.53649771004552
 30
0.0
 10
117.4049394547141
 20
-40.53649771004552
 30
0.0
  0
SPLINE
  5
5F
330
50
100
AcDbEntity
  8
Layer 1
370
     0
100
AcDbSpline
210
0.0
220
0.0
230
1.0
 70
    11
 71
     3
 72
    35
 73
    31
 74
     0
 42
0.0000000001
 43
0.0000000001
 12
1.0
 22
0.0
 32
0.0
 13
1.0
 23
0.0
 33
0.0
 40
0.0
 40
0.0
 40
0.0
 40
0.0
 40
1.0
 40
1.0
 40
1.0
 40
2.0
 40
2.0
 40
2.0
 40
3.0
 40
3.0
 40
3.0
 40
4.0
 40
4.0
 40
4.0
 40
5.0
 40
5.0
 40
5.0
 40
6.0
 40
6.0
 40
6.0
 40
7.0
 40
7.0
 40
7.0
 40
8.0
 40
8.0
 40
8.0
 40
9.0
 40
9.0
 40
9.0
 40
10.0
 40
10.0
 40
10.0
 40
10.0
 10
117.2411525514779
 20
-37.79759253751299
 30
0.0
 10
117.2411525514779
 20
-37.79759253751299
 30
0.0
 10
116.4112591377999
 20
-37.52274455864679
 30
0.0
 10
116.4112591377999
 20
-37.52274455864679
 30
0.0
 10
116.1443751567812
 20
-37.43403288972382
 30
0.0
 10
115.905164818228
 20
-37.37997393021352
 30
0.0
 10
115.694089165906
 20
-37.36005563913885
 30
0.0
 10
115.4827829917009
 20
-37.34039336855302
 30
0.0
 10
115.2980498821922
 20
-37.35300209273369
 30
0.0
 10
115.1391727731268
 20
-37.39816333077279
 30
0.0
 10
114.9803211626658
 20
-37.44381111118388
 30
0.0
 10
114.8500408180335
 20
-37.51796607485183
 30
0.0
 10
114.7483827364426
 20
-37.62160130651999
 30
0.0
 10
114.6464686343621
 20
-37.72500601630562
 30
0.0
 10
114.5690029372577
 20
-37.85737791867699
 30
0.0
 10
114.5157296246398
 20
-38.01848649175156
 30
0.0
 10
114.4247117024482
 20
-38.29256557948448
 30
0.0
 10
114.4396621605533
 20
-38.54060019448767
 30
0.0
 10
114.560017960768
 20
-38.76115620825207
 30
0.0
 10
114.680885801959
 20
-38.98217326578281
 30
0.0
 10
114.8979474198658
 20
-39.14423842512637
 30
0.0
 10
115.2119963745593
 20
-39.2485297943049
 30
0.0
 10
115.4674348949847
 20
-39.33296250743138
 30
0.0
 10
115.7250146261217
 20
-39.34654059344154
 30
0.0
 10
115.9857086527136
 20
-39.28921305512345
 30
0.0
 10
116.2464026793061
 20
-39.231885516806
 30
0.0
 10
116.5407591074587
 20
-39.10936957621314
 30
0.0
 10
116.8685474152876
 20
-38.92192125383368
 30
0.0
 10
116.8685474152876
 20
-38.92192125383368
 30
0.0
 10
117.2411525514779
 20
-37.79759253751299
 30
0.0
 10
117.2411525514779
 20
-37.79759253751299
 30
0.0
  0
HATCH
  5
60
330
50
100
AcDbEntity
  8
Layer 1
 62
   114
420
    42320
100
AcDbHatch
 10
0.0
 20
0.0
 30
0.0
210
0.0
220
0.0
230
1.0
  2
SOLID
 70
     1
 71
     0
 91
        2
 92
        1
 93
        1
 72
     4
 94
        3
 73
     0
 74
     1
 95
      131
 96
      127
 40
0.0
 40
0.0
 40
0.0
 40
0.0
 40
1.0
 40
1.0
 40
1.0
 40
2.0
 40
2.0
 40
2.0
 40
3.0
 40
3.0
 40
3.0
 40
4.0
 40
4.0
 40
4.0
 40
5.0
 40
5.0
 40
5.0
 40
6.0
 40
6.0
 40
6.0
 40
7.0
 40
7.0
 40
7.0
 40
8.0
 40
8.0
 40
8.0
 40
9.0
 40
9.0
 40
9.0
 40
10.0
 40
10.0
 40
10.0
 40
11.0
 40
11.0
 40
11.0
 40
12.0
 40
12.0
 40
12.0
 40
13.0
 40
13.0
 40
13.0
 40
14.0
 40
14.0
 40
14.0
 40
15.0
 40
15.0
 40
15.0
 40
16.0
 40
16.0
 40
16.0
 40
17.0
 40
17.0
 40
17.0
 40
18.0
 40
18.0
 40
18.0
 40
19.0
 40
19.0
 40
19.0
 40
20.0
 40
20.0
 40
20.0
 40
21.0
 40
21.0
 40
21.0
 40
22.0
 40
22.0
 40
22.0
 40
23.0
 40
23.0
 40
23.0
 40
24.0
 40
24.0
 40
24.0
 40
25.0
 40
25.0
 40
25.0
 40
26.0
 40
26.0
 40
26.0
 40
27.0
 40
27.0
 40
27.0
 40
28.0
 40
28.0
 40
28.0
 40
29.0
 40
29.0
 40
29.0
 40
30.0
 40
30.0
 40
30.0
 40
31.0
 40
31.0
 40
31.0
 40
32.0
 40
32.0
 40
32.0
 40
33.0
 40
33.0
 40
33.0
 40
34.0
 40
34.0
 40
34.0
 40
35.0
 40
35.0
 40
35.0
 40
36.0
 40
36.0
 40
36.0
 40
37.0
 40
37.0
 40
37.0
 40
38.0
 40
38.0
 40
38.0
 40
39.0
 40
39.0
 40
39.0
 40
40.0
 40
40.0
 40
40.0
 40
41.0
 40
41.0
 40
41.0
 40
42.0
 40
42.0
 40
42.0
 40
42.0
 10
117.4049394547141
 20
-40.53649771004552
 10
117.3893597544592
 20
-40.58366268372031
 10
117.3619021517607
 20
-40.61364257945378
 10
117.3225921452225
 20
-40.62692393961792
 10
117.2832821386842
 20
-40.64020529978143
 10
117.2344228782642
 20
-40.64349772315462
 10
117.1757838420794
 20
-40.63705723022569
 10
117.1166582635232
 20
-40.63064223590177
 10
117.0343357805178
 20
-40.60983082152919
 10
116.9285858711793
 20
-40.57487900759485
 10
116.826318254256
 20
-40.54120833053953
 10
116.7467641027216
 20
-40.50805486664532
 10
116.6899744137869
 20
-40.4763917006543
 10
116.6329287043634
 20
-40.44449801278137
 10
116.5946276255424
 20
-40.41186589979554
 10
116.5748661540456
 20
-40.37923792455764
 10
116.555360703037
 20
-40.3468404712029
 10
116.553269817416
 20
-40.30694399674687
 10
116.5688495176703
 20
-40.25977902307208
 10
116.5688495176703
 20
-40.25977902307208
 10
116.7445306748721
 20
-39.73000539442619
 10
116.7445306748721
 20
-39.73000539442619
 10
116.4307277060987
 20
-39.90037683990655
 10
116.1092055387103
 20
-40.00724072217674
 10
115.7792216098461
 20
-40.05039201795923
 10
115.4492376809818
 20
-40.09354331374172
 10
115.1255953539369
 20
-40.06220469836138
 10
114.8073470425737
 20
-39.95691371139829
 10
114.5288125776829
 20
-39.86466564953903
 10
114.288592639293
 20
-39.74479597686106
 10
114.0869432478924
 20
-39.59753521524887
 10
113.8855498769806
 20
-39.4505049755192
 10
113.7278984600336
 20
-39.28166716926091
 10
113.6145010380278
 20
-39.09148284023904
 10
113.5011036160232
 20
-38.90129851121718
 10
113.4332912886108
 20
-38.69189335359098
 10
113.4114996009532
 20
-38.46226878401274
 10
113.3897334119005
 20
-38.23313075680586
 10
113.420695392508
 20
-37.99073997135094
 10
113.5051536042401
 20
-37.73578799329751
 10
113.6039358779544
 20
-37.43763987635647
 10
113.7506928740854
 20
-37.19845022654094
 10
113.9449890474737
 20
-37.01921762720057
 10
114.1395157427446
 20
-36.83972900737136
 10
114.3747200592985
 20
-36.71494643191429
 10
114.6506274957413
 20
-36.64535644320133
 10
114.9260228912076
 20
-36.57530541072202
 10
115.2408158055149
 20
-36.55880781319896
 10
115.5944941976886
 20
-36.59540260686708
 10
115.9484286103506
 20
-36.63222792241708
 10
116.3313136646079
 20
-36.71876326228946
 10
116.7431493604611
 20
-36.85500862648359
 10
116.7431493604611
 20
-36.85500862648359
 10
117.4732588662833
 20
-37.09703152001151
 10
117.4732588662833
 20
-37.09703152001151
 10
117.4732588662833
 20
-37.09703152001151
 10
117.60973475236
 20
-36.68493980367005
 10
117.60973475236
 20
-36.68493980367005
 10
117.6771016050762
 20
-36.48089111219478
 10
117.7153238094066
 20
-36.29325012726427
 10
117.7244013653524
 20
-36.12201684887722
 10
117.7329923789255
 20
-35.95080906909583
 10
117.7063952123782
 20
-35.79705754198012
 10
117.6451219066875
 20
-35.66122331129579
 10
117.5831315367417
 20
-35.52567059970467
 10
117.4848779075114
 20
-35.40567896850379
 10
117.3491829109771
 20
-35.30204197776274
 10
117.2137184363254
 20
-35.1981489665335
 10
117.0341550272367
 20
-35.10925192863386
 10
116.8104926837113
 20
-35.03535086406381
 10
116.5709295024339
 20
-34.95594070402954
 10
116.3466968796631
 20
-34.91304982376725
 10
116.1378203140043
 20
-34.90716476564894
 10
115.9284317073685
 20
-34.90081866376426
 10
115.7407548794641
 20
-34.90845893537256
 10
115.5747643316843
 20
-34.92959903810311
 10
115.4087737839038
 20
-34.95073914083301
 10
115.2682619296736
 20
-34.97395911269623
 10
115.1534592908762
 20
-34.99900293320395
 10
115.0381701097074
 20
-35.02407225231603
 10
114.957429574657
 20
-35.02879156313993
 10
114.9102646009822
 20
-35.01321186288564
 10
114.8789749664543
 20
-35.00265471572357
 10
114.8539604199814
 20
-34.98615810012132
 10
114.8356310081201
 20
-34.96223689035916
 10
114.8173270948637
 20
-34.93880222296772
 10
114.8042741877097
 20
-34.90850599960275
 10
114.7971893509114
 20
-34.87106670117235
 10
114.7901300127187
 20
-34.83411394511267
 10
114.7904728733914
 20
-34.78945507579925
 10
114.7987554725115
 20
-34.73803767937044
 10
114.8072685935147
 20
-34.68636426245344
 10
114.8214417327392
 20
-34.63097906567491
 10
114.8407883478136
 20
-34.57190758763983
 10
114.8732288852012
 20
-34.47409534787507
 10
114.9056387517991
 20
-34.39897107489364
 10
114.9385044899779
 20
-34.34650927009118
 10
114.970883685786
 20
-34.29407296389373
 10
115.0225429829049
 20
-34.25111562238386
 10
115.0920227542186
 20
-34.21771374137788
 10
115.1619890679031
 20
-34.18428636176624
 10
115.2731309240496
 20
-34.15455560778062
 10
115.4252178007731
 20
-34.12877749990855
 10
115.577560697986
 20
-34.10322991391966
 10
115.7473650200474
 20
-34.08969599889583
 10
115.9351428079363
 20
-34.08863679860404
 10
116.1226900739413
 20
-34.08783361880108
 10
116.3227048136207
 20
-34.10150128598816
 10
116.5352380241831
 20
-34.13061288490865
 10
116.7477712347455
 20
-34.15972448382978
 10
116.9561774467052
 20
-34.20783569940472
 10
117.1602516367855
 20
-34.27568909449172
 10
117.5408231967158
 20
-34.40186385389578
 10
117.8502014066045
 20
-34.55201666457488
 10
118.0886677855439
 20
-34.72686459078614
 10
118.3266476221113
 20
-34.90173801560242
 10
118.5007067456024
 20
-35.09972047024726
 10
118.6103841122509
 20
-35.32132399569576
 10
118.7198054584111
 20
-35.54269699926108
 10
118.7707855506063
 20
-35.78933125985605
 10
118.7633243888365
 20
-36.06122677747937
 10
118.7561192475536
 20
-36.33335281698523
 10
118.6979494781143
 20
-36.6337634310432
 10
118.5888660777267
 20
-36.96343170439537
 10
118.5888660777267
 20
-36.96343170439537
 10
117.4049394547141
 20
-40.53649771004552
 10
117.4049394547141
 20
-40.53649771004552
 97
        0
 97
        0
 92
        1
 93
        1
 72
     4
 94
        3
 73
     0
 74
     1
 95
       35
 96
       31
 40
0.0
 40
0.0
 40
0.0
 40
0.0
 40
1.0
 40
1.0
 40
1.0
 40
2.0
 40
2.0
 40
2.0
 40
3.0
 40
3.0
 40
3.0
 40
4.0
 40
4.0
 40
4.0
 40
5.0
 40
5.0
 40
5.0
 40
6.0
 40
6.0
 40
6.0
 40
7.0
 40
7.0
 40
7.0
 40
8.0
 40
8.0
 40
8.0
 40
9.0
 40
9.0
 40
9.0
 40
10.0
 40
10.0
 40
10.0
 40
10.0
 10
117.2411525514779
 20
-37.79759253751299
 10
117.2411525514779
 20
-37.79759253751299
 10
116.4112591377999
 20
-37.52274455864679
 10
116.4112591377999
 20
-37.52274455864679
 10
116.1443751567812
 20
-37.43403288972382
 10
115.905164818228
 20
-37.37997393021352
 10
115.694089165906
 20
-37.36005563913885
 10
115.4827829917009
 20
-37.34039336855302
 10
115.2980498821922
 20
-37.35300209273369
 10
115.1391727731268
 20
-37.39816333077279
 10
114.9803211626658
 20
-37.44381111118388
 10
114.8500408180335
 20
-37.51796607485183
 10
114.7483827364426
 20
-37.62160130651999
 10
114.6464686343621
 20
-37.72500601630562
 10
114.5690029372577
 20
-37.85737791867699
 10
114.5157296246398
 20
-38.01848649175156
 10
114.4247117024482
 20
-38.29256557948448
 10
114.4396621605533
 20
-38.54060019448767
 10
114.560017960768
 20
-38.76115620825207
 10
114.680885801959
 20
-38.98217326578281
 10
114.8979474198658
 20
-39.14423842512637
 10
115.2119963745593
 20
-39.2485297943049
 10
115.4674348949847
 20
-39.33296250743138
 10
115.7250146261217
 20
-39.34654059344154
 10
115.9857086527136
 20
-39.28921305512345
 10
116.2464026793061
 20
-39.231885516806
 10
116.5407591074587
 20
-39.10936957621314
 10
116.8685474152876
 20
-38.92192125383368
 10
116.8685474152876
 20
-38.92192125383368
 10
117.2411525514779
 20
-37.79759253751299
 10
117.2411525514779
 20
-37.79759253751299
 97
        0
 97
        0
 75
     2
 76
     1
 98
        0
  0
SPLINE
  5
61
330
50
100
AcDbEntity
  8
Layer 1
370
     0
100
AcDbSpline
210
0.0
220
0.0
230
1.0
 70
    11
 71
     3
 72
   110
 73
   106
 74
     0
 42
0.0000000001
 43
0.0000000001
 12
1.0
 22
0.0
 32
0.0
 13
1.0
 23
0.0
 33
0.0
 40
0.0
 40
0.0
 40
0.0
 40
0.0
 40
1.0
 40
1.0
 40
1.0
 40
2.0
 40
2.0
 40
2.0
 40
3.0
 40
3.0
 40
3.0
 40
4.0
 40
4.0
 40
4.0
 40
5.0
 40
5.0
 40
5.0
 40
6.0
 40
6.0
 40
6.0
 40
7.0
 40
7.0
 40
7.0
 40
8.0
 40
8.0
 40
8.0
 40
9.0
 40
9.0
 40
9.0
 40
10.0
 40
10.0
 40
10.0
 40
11.0
 40
11.0
 40
11.0
 40
12.0
 40
12.0
 40
12.0
 40
13.0
 40
13.0
 40
13.0
 40
14.0
 40
14.0
 40
14.0
 40
15.0
 40
15.0
 40
15.0
 40
16.0
 40
16.0
 40
16.0
 40
17.0
 40
17.0
 40
17.0
 40
18.0
 40
18.0
 40
18.0
 40
19.0
 40
19.0
 40
19.0
 40
20.0
 40
20.0
 40
20.0
 40
21.0
 40
21.0
 40
21.0
 40
22.0
 40
22.0
 40
22.0
 40
23.0
 40
23.0
 40
23.0
 40
24.0
 40
24.0
 40
24.0
 40
25.0
 40
25.0
 40
25.0
 40
26.0
 40
26.0
 40
26.0
 40
27.0
 40
27.0
 40
27.0
 40
28.0
 40
28.0
 40
28.0
 40
29.0
 40
29.0
 40
29.0
 40
30.0
 40
30.0
 40
30.0
 40
31.0
 40
31.0
 40
31.0
 40
32.0
 40
32.0
 40
32.0
 40
33.0
 40
33.0
 40
33.0
 40
34.0
 40
34.0
 40
34.0
 40
35.0
 40
35.0
 40
35.0
 40
35.0
 10
125.0099879891329
 20
-41.25322470684841
 30
0.0
 10
124.7750244863137
 20
-41.67584460611779
 30
0.0
 10
124.5169784867096
 20
-42.03039543285179
 30
0.0
 10
124.2368230750616
 20
-42.3168261898391
 30
0.0
 10
123.9566676634135
 20
-42.60325694682641
 30
0.0
 10
123.6606779277778
 20
-42.81562816562685
 30
0.0
 10
123.3493659091302
 20
-42.95440089000677
 30
0.0
 10
123.0378233686001
 20
-43.09342963487489
 30
0.0
 10
122.7167725893468
 20
-43.15343245785803
 30
0.0
 10
122.3864950904643
 20
-43.13512642321138
 30
0.0
 10
122.0557055506048
 20
-43.11635934479839
 30
0.0
 10
121.7224764201475
 20
-43.01380498408049
 30
0.0
 10
121.3867567018831
 20
-42.82649025631498
 30
0.0
 10
121.2314683797182
 20
-42.73998010524686
 30
0.0
 10
121.0962068594709
 20
-42.64461433482021
 30
0.0
 10
120.9817147040009
 20
-42.54059796831321
 30
0.0
 10
120.866966528042
 20
-42.43635107992303
 30
0.0
 10
120.7654611282803
 20
-42.3148222913556
 30
0.0
 10
120.6774290265978
 20
-42.17575558212271
 30
0.0
 10
120.5891664030328
 20
-42.03694489337802
 30
0.0
 10
120.5109202837367
 20
-41.87980168946086
 30
0.0
 10
120.4429466891984
 20
-41.7045564922544
 30
0.0
 10
120.3749730946601
 20
-41.5293112950486
 30
0.0
 10
120.3117681015995
 20
-41.32869043315
 30
0.0
 10
120.2533062114134
 20
-41.1022073641879
 30
0.0
 10
120.2533062114134
 20
-41.1022073641879
 30
0.0
 10
119.9213040122801
 20
-41.69798705702893
 30
0.0
 10
119.9213040122801
 20
-41.69798705702893
 30
0.0
 10
119.9054979278899
 20
-41.72686844386763
 30
0.0
 10
119.8841624216159
 20
-41.74798961693212
 30
0.0
 10
119.8575535139443
 20
-41.76158109810492
 30
0.0
 10
119.8309446062733
 20
-41.77517257927773
 30
0.0
 10
119.7982432385308
 20
-41.77956971816725
 30
0.0
 10
119.7586813492523
 20
-41.77408094912394
 30
0.0
 10
119.7188634394849
 20
-41.76836165819747
 30
0.0
 10
119.6728245421842
 20
-41.75565021496069
 30
0.0
 10
119.6198220944886
 20
-41.73574159613671
 30
0.0
 10
119.5670756672825
 20
-41.71606349919592
 30
0.0
 10
119.5027318222873
 20
-41.6845522903994
 30
0.0
 10
119.4268670553206
 20
-41.64266759686125
 30
0.0
 10
119.3547406012566
 20
-41.60229456208531
 30
0.0
 10
119.295442739087
 20
-41.56466436017545
 30
0.0
 10
119.2486919497158
 20
-41.52905992687717
 30
0.0
 10
119.2021971808328
 20
-41.49368601546205
 30
0.0
 10
119.1665593357517
 20
-41.46067038896236
 30
0.0
 10
119.1410358516129
 20
-41.42980802410055
 30
0.0
 10
119.1152818455917
 20
-41.39920167972693
 30
0.0
 10
119.1032530203898
 20
-41.36982754389467
 30
0.0
 10
119.1044883322429
 20
-41.34219765758142
 30
0.0
 10
119.105723644096
 20
-41.31456777126817
 30
0.0
 10
119.1144876134027
 20
-41.28629938538906
 30
0.0
 10
119.130524219676
 20
-41.25716197806217
 30
0.0
 10
119.130524219676
 20
-41.25716197806217
 30
0.0
 10
123.1621483871133
 20
-34.01993239822669
 30
0.0
 10
123.1621483871133
 20
-34.01993239822669
 30
0.0
 10
123.1781849933867
 20
-33.99079499089916
 30
0.0
 10
123.1987524381962
 20
-33.96898225218515
 30
0.0
 10
123.2233641791723
 20
-33.95451968068966
 30
0.0
 10
123.2482064420297
 20
-33.93980108870598
 30
0.0
 10
123.2818553959105
 20
-33.93486641023573
 30
0.0
 10
123.3240550203241
 20
-33.9394851233938
 30
0.0
 10
123.3665106652264
 20
-33.94433435843441
 30
0.0
 10
123.4182595435216
 20
-33.95894200838343
 30
0.0
 10
123.4803257371643
 20
-33.98423016077165
 30
0.0
 10
123.5421104117132
 20
-34.00880124890598
 30
0.0
 10
123.6162350669088
 20
-34.04541047217355
 30
0.0
 10
123.7031862451244
 20
-34.09403233197001
 30
0.0
 10
123.793389193872
 20
-34.14419134913238
 30
0.0
 10
123.8652585930103
 20
-34.18896876385686
 30
0.0
 10
123.9187944425387
 20
-34.22836457614282
 30
0.0
 10
123.9730728549273
 20
-34.26796541170694
 30
0.0
 10
124.0120389663554
 20
-34.30397782268728
 30
0.0
 10
124.0364353396839
 20
-34.33660683236201
 30
0.0
 10
124.061062234895
 20
-34.36897982154856
 30
0.0
 10
124.0743966611428
 20
-34.39999310916742
 30
0.0
 10
124.0766946389155
 20
-34.42987721710176
 30
0.0
 10
124.0787365962001
 20
-34.45953080315358
 30
0.0
 10
124.0722258140777
 20
-34.48890080123793
 30
0.0
 10
124.0561637091993
 20
-34.51755166619345
 30
0.0
 10
124.0561637091993
 20
-34.51755166619345
 30
0.0
 10
122.4296600545904
 20
-37.43761227755521
 30
0.0
 10
122.4296600545904
 20
-37.43761227755521
 30
0.0
 10
122.6564012129143
 20
-37.37011110558956
 30
0.0
 10
122.8656992039351
 20
-37.32352711784704
 30
0.0
 10
123.0577845495365
 20
-37.29760429383948
 30
0.0
 10
123.2494088513703
 20
-37.27219351080893
 30
0.0
 10
123.4277903770082
 20
-37.26406462795499
 30
0.0
 10
123.5931596483326
 20
-37.27296162479013
 30
0.0
 10
123.7585544182627
 20
-37.28234516399662
 30
0.0
 10
123.9138561881075
 20
-37.30860159126151
 30
0.0
 10
124.0600635412154
 20
-37.35216645174548
 30
0.0
 10
124.2062708943227
 20
-37.39573131222944
 30
0.0
 10
124.35150102494
 20
-37.45788677724835
 30
0.0
 10
124.496214976833
 20
-37.53812080582388
 30
0.0
 10
124.8500111897824
 20
-37.73522151597518
 30
0.0
 10
125.1130717242688
 20
-37.97440020181909
 30
0.0
 10
125.2858576240594
 20
-38.255144822378
 30
0.0
 10
125.4583875033611
 20
-38.53565892105308
 30
0.0
 10
125.5571893263429
 20
-38.83833239454603
 30
0.0
 10
125.5824426176775
 20
-39.16193613762337
 30
0.0
 10
125.6079774281052
 20
-39.48625694495524
 30
0.0
 10
125.5680309383593
 20
-39.82718220661485
 30
0.0
 10
125.4633712099031
 20
-40.18540348824978
 30
0.0
 10
125.3584554609593
 20
-40.54339424800219
 30
0.0
 10
125.2073192211668
 20
-40.89917247341084
 30
0.0
 10
125.0099879891329
 20
-41.25322470684841
 30
0.0
  0
SPLINE
  5
62
330
50
100
AcDbEntity
  8
Layer 1
370
     0
100
AcDbSpline
210
0.0
220
0.0
230
1.0
 70
    11
 71
     3
 72
    50
 73
    46
 74
     0
 42
0.0000000001
 43
0.0000000001
 12
1.0
 22
0.0
 32
0.0
 13
1.0
 23
0.0
 33
0.0
 40
0.0
 40
0.0
 40
0.0
 40
0.0
 40
1.0
 40
1.0
 40
1.0
 40
2.0
 40
2.0
 40
2.0
 40
3.0
 40
3.0
 40
3.0
 40
4.0
 40
4.0
 40
4.0
 40
5.0
 40
5.0
 40
5.0
 40
6.0
 40
6.0
 40
6.0
 40
7.0
 40
7.0
 40
7.0
 40
8.0
 40
8.0
 40
8.0
 40
9.0
 40
9.0
 40
9.0
 40
10.0
 40
10.0
 40
10.0
 40
11.0
 40
11.0
 40
11.0
 40
12.0
 40
12.0
 40
12.0
 40
13.0
 40
13.0
 40
13.0
 40
14.0
 40
14.0
 40
14.0
 40
15.0
 40
15.0
 40
15.0
 40
15.0
 10
124.0264822824886
 20
-40.84006359809649
 30
0.0
 10
124.1654056723408
 20
-40.59103903755879
 30
0.0
 10
124.2812065846852
 20
-40.33834748774866
 30
0.0
 10
124.3739105181261
 20
-40.08247549103616
 30
0.0
 10
124.4663584310788
 20
-39.82637297244113
 30
0.0
 10
124.5155020041016
 20
-39.58180963336486
 30
0.0
 10
124.5215717590779
 20
-39.34852945331983
 30
0.0
 10
124.5276415140541
 20
-39.1152492732748
 30
0.0
 10
124.4834402753945
 20
-38.90021580265455
 30
0.0
 10
124.3886865240079
 20
-38.7027119772039
 30
0.0
 10
124.2937277493432
 20
-38.50595071461345
 30
0.0
 10
124.1300062676192
 20
-38.34230981393578
 30
0.0
 10
123.8975730760461
 20
-38.21276235991363
 30
0.0
 10
123.7812284700154
 20
-38.14787337196129
 30
0.0
 10
123.6577611153383
 20
-38.10067736517872
 30
0.0
 10
123.5271200148054
 20
-38.07020125482384
 30
0.0
 10
123.3962483923893
 20
-38.03998116495715
 30
0.0
 10
123.2515699211527
 20
-38.03024374858906
 30
0.0
 10
123.0931100997001
 20
-38.0414755480916
 30
0.0
 10
122.9343942577606
 20
-38.0524768257116
 30
0.0
 10
122.7591318374443
 20
-38.08288466323
 30
0.0
 10
122.5675278620307
 20
-38.13195649778725
 30
0.0
 10
122.3759493852222
 20
-38.18151487471651
 30
0.0
 10
122.1589115068475
 20
-38.2572893358702
 30
0.0
 10
121.9163887283009
 20
-38.35879333887763
 30
0.0
 10
121.9163887283009
 20
-38.35879333887763
 30
0.0
 10
120.8332569100002
 20
-40.30364842814295
 30
0.0
 10
120.8332569100002
 20
-40.30364842814295
 30
0.0
 10
120.9132586051037
 20
-40.74098593747648
 30
0.0
 10
121.0221368771798
 20
-41.10094495220749
 30
0.0
 10
121.1601222481117
 20
-41.38326945184778
 30
0.0
 10
121.2976465752766
 20
-41.66610599246444
 30
0.0
 10
121.4883735635473
 20
-41.87492401005345
 30
0.0
 10
121.7318676677644
 20
-42.01072208796254
 30
0.0
 10
121.9572597786915
 20
-42.13624764111321
 30
0.0
 10
122.1798256821958
 20
-42.18922738371285
 30
0.0
 10
122.4000774192544
 20
-42.17012235952652
 30
0.0
 10
122.6205596781962
 20
-42.15076131485201
 30
0.0
 10
122.8302983865631
 20
-42.08000423460643
 30
0.0
 10
123.0297035909107
 20
-41.95636599307004
 30
0.0
 10
123.2293903143515
 20
-41.83344481578818
 30
0.0
 10
123.4137209806796
 20
-41.67351781636235
 30
0.0
 10
123.5826955898962
 20
-41.47658499479254
 30
0.0
 10
123.751926219601
 20
-41.27988269510719
 30
0.0
 10
123.899855117132
 20
-41.06770889620851
 30
0.0
 10
124.0264822824886
 20
-40.84006359809649
 30
0.0
  0
HATCH
  5
63
330
50
100
AcDbEntity
  8
Layer 1
 62
   114
420
    42320
100
AcDbHatch
 10
0.0
 20
0.0
 30
0.0
210
0.0
220
0.0
230
1.0
  2
SOLID
 70
     1
 71
     0
 91
        2
 92
        1
 93
        1
 72
     4
 94
        3
 73
     0
 74
     1
 95
      110
 96
      106
 40
0.0
 40
0.0
 40
0.0
 40
0.0
 40
1.0
 40
1.0
 40
1.0
 40
2.0
 40
2.0
 40
2.0
 40
3.0
 40
3.0
 40
3.0
 40
4.0
 40
4.0
 40
4.0
 40
5.0
 40
5.0
 40
5.0
 40
6.0
 40
6.0
 40
6.0
 40
7.0
 40
7.0
 40
7.0
 40
8.0
 40
8.0
 40
8.0
 40
9.0
 40
9.0
 40
9.0
 40
10.0
 40
10.0
 40
10.0
 40
11.0
 40
11.0
 40
11.0
 40
12.0
 40
12.0
 40
12.0
 40
13.0
 40
13.0
 40
13.0
 40
14.0
 40
14.0
 40
14.0
 40
15.0
 40
15.0
 40
15.0
 40
16.0
 40
16.0
 40
16.0
 40
17.0
 40
17.0
 40
17.0
 40
18.0
 40
18.0
 40
18.0
 40
19.0
 40
19.0
 40
19.0
 40
20.0
 40
20.0
 40
20.0
 40
21.0
 40
21.0
 40
21.0
 40
22.0
 40
22.0
 40
22.0
 40
23.0
 40
23.0
 40
23.0
 40
24.0
 40
24.0
 40
24.0
 40
25.0
 40
25.0
 40
25.0
 40
26.0
 40
26.0
 40
26.0
 40
27.0
 40
27.0
 40
27.0
 40
28.0
 40
28.0
 40
28.0
 40
29.0
 40
29.0
 40
29.0
 40
30.0
 40
30.0
 40
30.0
 40
31.0
 40
31.0
 40
31.0
 40
32.0
 40
32.0
 40
32.0
 40
33.0
 40
33.0
 40
33.0
 40
34.0
 40
34.0
 40
34.0
 40
35.0
 40
35.0
 40
35.0
 40
35.0
 10
125.0099879891329
 20
-41.25322470684841
 10
124.7750244863137
 20
-41.67584460611779
 10
124.5169784867096
 20
-42.03039543285179
 10
124.2368230750616
 20
-42.3168261898391
 10
123.9566676634135
 20
-42.60325694682641
 10
123.6606779277778
 20
-42.81562816562685
 10
123.3493659091302
 20
-42.95440089000677
 10
123.0378233686001
 20
-43.09342963487489
 10
122.7167725893468
 20
-43.15343245785803
 10
122.3864950904643
 20
-43.13512642321138
 10
122.0557055506048
 20
-43.11635934479839
 10
121.7224764201475
 20
-43.01380498408049
 10
121.3867567018831
 20
-42.82649025631498
 10
121.2314683797182
 20
-42.73998010524686
 10
121.0962068594709
 20
-42.64461433482021
 10
120.9817147040009
 20
-42.54059796831321
 10
120.866966528042
 20
-42.43635107992303
 10
120.7654611282803
 20
-42.3148222913556
 10
120.6774290265978
 20
-42.17575558212271
 10
120.5891664030328
 20
-42.03694489337802
 10
120.5109202837367
 20
-41.87980168946086
 10
120.4429466891984
 20
-41.7045564922544
 10
120.3749730946601
 20
-41.5293112950486
 10
120.3117681015995
 20
-41.32869043315
 10
120.2533062114134
 20
-41.1022073641879
 10
120.2533062114134
 20
-41.1022073641879
 10
119.9213040122801
 20
-41.69798705702893
 10
119.9213040122801
 20
-41.69798705702893
 10
119.9054979278899
 20
-41.72686844386763
 10
119.8841624216159
 20
-41.74798961693212
 10
119.8575535139443
 20
-41.76158109810492
 10
119.8309446062733
 20
-41.77517257927773
 10
119.7982432385308
 20
-41.77956971816725
 10
119.7586813492523
 20
-41.77408094912394
 10
119.7188634394849
 20
-41.76836165819747
 10
119.6728245421842
 20
-41.75565021496069
 10
119.6198220944886
 20
-41.73574159613671
 10
119.5670756672825
 20
-41.71606349919592
 10
119.5027318222873
 20
-41.6845522903994
 10
119.4268670553206
 20
-41.64266759686125
 10
119.3547406012566
 20
-41.60229456208531
 10
119.295442739087
 20
-41.56466436017545
 10
119.2486919497158
 20
-41.52905992687717
 10
119.2021971808328
 20
-41.49368601546205
 10
119.1665593357517
 20
-41.46067038896236
 10
119.1410358516129
 20
-41.42980802410055
 10
119.1152818455917
 20
-41.39920167972693
 10
119.1032530203898
 20
-41.36982754389467
 10
119.1044883322429
 20
-41.34219765758142
 10
119.105723644096
 20
-41.31456777126817
 10
119.1144876134027
 20
-41.28629938538906
 10
119.130524219676
 20
-41.25716197806217
 10
119.130524219676
 20
-41.25716197806217
 10
123.1621483871133
 20
-34.01993239822669
 10
123.1621483871133
 20
-34.01993239822669
 10
123.1781849933867
 20
-33.99079499089916
 10
123.1987524381962
 20
-33.96898225218515
 10
123.2233641791723
 20
-33.95451968068966
 10
123.2482064420297
 20
-33.93980108870598
 10
123.2818553959105
 20
-33.93486641023573
 10
123.3240550203241
 20
-33.9394851233938
 10
123.3665106652264
 20
-33.94433435843441
 10
123.4182595435216
 20
-33.95894200838343
 10
123.4803257371643
 20
-33.98423016077165
 10
123.5421104117132
 20
-34.00880124890598
 10
123.6162350669088
 20
-34.04541047217355
 10
123.7031862451244
 20
-34.09403233197001
 10
123.793389193872
 20
-34.14419134913238
 10
123.8652585930103
 20
-34.18896876385686
 10
123.9187944425387
 20
-34.22836457614282
 10
123.9730728549273
 20
-34.26796541170694
 10
124.0120389663554
 20
-34.30397782268728
 10
124.0364353396839
 20
-34.33660683236201
 10
124.061062234895
 20
-34.36897982154856
 10
124.0743966611428
 20
-34.39999310916742
 10
124.0766946389155
 20
-34.42987721710176
 10
124.0787365962001
 20
-34.45953080315358
 10
124.0722258140777
 20
-34.48890080123793
 10
124.0561637091993
 20
-34.51755166619345
 10
124.0561637091993
 20
-34.51755166619345
 10
122.4296600545904
 20
-37.43761227755521
 10
122.4296600545904
 20
-37.43761227755521
 10
122.6564012129143
 20
-37.37011110558956
 10
122.8656992039351
 20
-37.32352711784704
 10
123.0577845495365
 20
-37.29760429383948
 10
123.2494088513703
 20
-37.27219351080893
 10
123.4277903770082
 20
-37.26406462795499
 10
123.5931596483326
 20
-37.27296162479013
 10
123.7585544182627
 20
-37.28234516399662
 10
123.9138561881075
 20
-37.30860159126151
 10
124.0600635412154
 20
-37.35216645174548
 10
124.2062708943227
 20
-37.39573131222944
 10
124.35150102494
 20
-37.45788677724835
 10
124.496214976833
 20
-37.53812080582388
 10
124.8500111897824
 20
-37.73522151597518
 10
125.1130717242688
 20
-37.97440020181909
 10
125.2858576240594
 20
-38.255144822378
 10
125.4583875033611
 20
-38.53565892105308
 10
125.5571893263429
 20
-38.83833239454603
 10
125.5824426176775
 20
-39.16193613762337
 10
125.6079774281052
 20
-39.48625694495524
 10
125.5680309383593
 20
-39.82718220661485
 10
125.4633712099031
 20
-40.18540348824978
 10
125.3584554609593
 20
-40.54339424800219
 10
125.2073192211668
 20
-40.89917247341084
 10
125.0099879891329
 20
-41.25322470684841
 97
        0
 97
        0
 92
        1
 93
        1
 72
     4
 94
        3
 73
     0
 74
     1
 95
       50
 96
       46
 40
0.0
 40
0.0
 40
0.0
 40
0.0
 40
1.0
 40
1.0
 40
1.0
 40
2.0
 40
2.0
 40
2.0
 40
3.0
 40
3.0
 40
3.0
 40
4.0
 40
4.0
 40
4.0
 40
5.0
 40
5.0
 40
5.0
 40
6.0
 40
6.0
 40
6.0
 40
7.0
 40
7.0
 40
7.0
 40
8.0
 40
8.0
 40
8.0
 40
9.0
 40
9.0
 40
9.0
 40
10.0
 40
10.0
 40
10.0
 40
11.0
 40
11.0
 40
11.0
 40
12.0
 40
12.0
 40
12.0
 40
13.0
 40
13.0
 40
13.0
 40
14.0
 40
14.0
 40
14.0
 40
15.0
 40
15.0
 40
15.0
 40
15.0
 10
124.0264822824886
 20
-40.84006359809649
 10
124.1654056723408
 20
-40.59103903755879
 10
124.2812065846852
 20
-40.33834748774866
 10
124.3739105181261
 20
-40.08247549103616
 10
124.4663584310788
 20
-39.82637297244113
 10
124.5155020041016
 20
-39.58180963336486
 10
124.5215717590779
 20
-39.34852945331983
 10
124.5276415140541
 20
-39.1152492732748
 10
124.4834402753945
 20
-38.90021580265455
 10
124.3886865240079
 20
-38.7027119772039
 10
124.2937277493432
 20
-38.50595071461345
 10
124.1300062676192
 20
-38.34230981393578
 10
123.8975730760461
 20
-38.21276235991363
 10
123.7812284700154
 20
-38.14787337196129
 10
123.6577611153383
 20
-38.10067736517872
 10
123.5271200148054
 20
-38.07020125482384
 10
123.3962483923893
 20
-38.03998116495715
 10
123.2515699211527
 20
-38.03024374858906
 10
123.0931100997001
 20
-38.0414755480916
 10
122.9343942577606
 20
-38.0524768257116
 10
122.7591318374443
 20
-38.08288466323
 10
122.5675278620307
 20
-38.13195649778725
 10
122.3759493852222
 20
-38.18151487471651
 10
122.1589115068475
 20
-38.2572893358702
 10
121.9163887283009
 20
-38.35879333887763
 10
121.9163887283009
 20
-38.35879333887763
 10
120.8332569100002
 20
-40.30364842814295
 10
120.8332569100002
 20
-40.30364842814295
 10
120.9132586051037
 20
-40.74098593747648
 10
121.0221368771798
 20
-41.10094495220749
 10
121.1601222481117
 20
-41.38326945184778
 10
121.2976465752766
 20
-41.66610599246444
 10
121.4883735635473
 20
-41.87492401005345
 10
121.7318676677644
 20
-42.01072208796254
 10
121.9572597786915
 20
-42.13624764111321
 10
122.1798256821958
 20
-42.18922738371285
 10
122.4000774192544
 20
-42.17012235952652
 10
122.6205596781962
 20
-42.15076131485201
 10
122.8302983865631
 20
-42.08000423460643
 10
123.0297035909107
 20
-41.95636599307004
 10
123.2293903143515
 20
-41.83344481578818
 10
123.4137209806796
 20
-41.67351781636235
 10
123.5826955898962
 20
-41.47658499479254
 10
123.751926219601
 20
-41.27988269510719
 10
123.899855117132
 20
-41.06770889620851
 10
124.0264822824886
 20
-40.84006359809649
 97
        0
 97
        0
 75
     2
 76
     1
 98
        0
  0
ENDBLK
  5
53
330
50
100
AcDbEntity
  8
0
100
AcDbBlockEnd
  0
BLOCK
  5
66
330
64
100
AcDbEntity
  8
0
100
AcDbBlockBegin
  2
block 4
 70
     0
 10
0.0
 20
0.0
 30
0.0
  3
block 4
  1

  0
SPLINE
  5
68
330
64
100
AcDbEntity
  8
Layer 1
 62
   250
420
  2301728
370
    35
100
AcDbSpline
210
0.0
220
0.0
230
1.0
 70
    11
 71
     3
 72
    17
 73
    13
 74
     0
 42
0.0000000001
 43
0.0000000001
 12
1.0
 22
0.0
 32
0.0
 13
1.0
 23
0.0
 33
0.0
 40
0.0
 40
0.0
 40
0.0
 40
0.0
 40
1.0
 40
1.0
 40
1.0
 40
2.0
 40
2.0
 40
2.0
 40
3.0
 40
3.0
 40
3.0
 40
4.0
 40
4.0
 40
4.0
 40
4.0
 10
155.7207446419209
 20
-178.471158347818
 30
0.0
 10
155.7207446419209
 20
-206.0853958309146
 30
0.0
 10
133.3349821375173
 20
-228.4711583353182
 30
0.0
 10
105.7207446544207
 20
-228.4711583353182
 30
0.0
 10
78.10650717132476
 20
-228.4711583353182
 30
0.0
 10
55.72074466692118
 20
-206.0853958309146
 30
0.0
 10
55.72074466692118
 20
-178.471158347818
 30
0.0
 10
55.72074466692118
 20
-150.856920864722
 30
0.0
 10
78.10650717132476
 20
-128.4711583603188
 30
0.0
 10
105.7207446544207
 20
-128.4711583603188
 30
0.0
 10
133.3349821375173
 20
-128.4711583603188
 30
0.0
 10
155.7207446419209
 20
-150.856920864722
 30
0.0
 10
155.7207446419209
 20
-178.471158347818
 30
0.0
  0
IMAGE
  5
6C
330
64
100
AcDbEntity
  8
Layer 1
160
                 8
310
0800000000000000
100
AcDbRasterImage
 90
        0
 10
92.2161754560935
 20
-221.0129074504506
 30
0.0
 11
0.02262071892516958
 21
0.0
 31
0.0
 12
0.0
 22
0.02262071892516958
 32
0.0
 13
1194.0
 23
1205.0
340
6A
 70
     3
280
     0
281
    50
282
    50
283
     0
360
6D
 71
     1
 91
        2
 14
-0.5
 24
-0.5
 14
1193.5
 24
1204.5
290
     0
  0
INSERT
  5
6F
330
64
100
AcDbEntity
  8
Layer 1
100
AcDbBlockReference
  2
block 5
 10
0.0
 20
0.0
 30
0.0
  0
ENDBLK
  5
67
330
64
100
AcDbEntity
  8
0
100
AcDbBlockEnd
  0
BLOCK
  5
70
330
6E
100
AcDbEntity
  8
0
100
AcDbBlockBegin
  2
block 5
 70
     0
 10
0.0
 20
0.0
 30
0.0
  3
block 5
  1

  0
POLYLINE
  5
72
330
6E
100
AcDbEntity
  8
Layer 1
370
     0
100
AcDb2dPolyline
 66
     1
 10
0.0
 20
0.0
 30
0.0
  0
VERTEX
  5
73
330
72
100
AcDbEntity
  8
Layer 1
370
     0
100
AcDbVertex
100
AcDb2dVertex
 10
65.8504163789367
 20
-165.4803385002966
 30
0.0
  0
VERTEX
  5
74
330
72
100
AcDbEntity
  8
Layer 1
370
     0
100
AcDbVertex
100
AcDb2dVertex
 10
67.50268417366253
 20
-161.1756916914769
 30
0.0
  0
VERTEX
  5
75
330
72
100
AcDbEntity
  8
Layer 1
370
     0
100
AcDbVertex
100
AcDb2dVertex
 10
68.3684366691058
 20
-161.507798896255
 30
0.0
  0
VERTEX
  5
76
330
72
100
AcDbEntity
  8
Layer 1
370
     0
100
AcDbVertex
100
AcDb2dVertex
 10
67.1120103456352
 20
-164.7809841167909
 30
0.0
  0
VERTEX
  5
77
330
72
100
AcDbEntity
  8
Layer 1
370
     0
100
AcDbVertex
100
AcDb2dVertex
 10
69.76817896476282
 20
-165.8007323804248
 30
0.0
  0
VERTEX
  5
78
330
72
100
AcDbEntity
  8
Layer 1
370
     0
100
AcDbVertex
100
AcDb2dVertex
 10
70.92917614329201
 20
-162.7766275634725
 30
0.0
  0
VERTEX
  5
79
330
72
100
AcDbEntity
  8
Layer 1
370
     0
100
AcDbVertex
100
AcDb2dVertex
 10
71.78287080453693
 20
-163.1042561441198
 30
0.0
  0
VERTEX
  5
7A
330
72
100
AcDbEntity
  8
Layer 1
370
     0
100
AcDbVertex
100
AcDb2dVertex
 10
70.62221813555625
 20
-166.1283609610721
 30
0.0
  0
VERTEX
  5
7B
330
72
100
AcDbEntity
  8
Layer 1
370
     0
100
AcDbVertex
100
AcDb2dVertex
 10
74.23887937597154
 20
-167.5167344416278
 30
0.0
  0
VERTEX
  5
7C
330
72
100
AcDbEntity
  8
Layer 1
370
     0
100
AcDbVertex
100
AcDb2dVertex
 10
73.84303790471633
 20
-168.5485405394601
 30
0.0
  0
VERTEX
  5
7D
330
72
100
AcDbEntity
  8
Layer 1
370
     0
100
AcDbVertex
100
AcDb2dVertex
 10
65.8504163789367
 20
-165.4803385002966
 30
0.0
  0
SEQEND
  5
7E
330
72
100
AcDbEntity
  8
Layer 1
370
     0
  0
HATCH
  5
7F
330
6E
100
AcDbEntity
  8
Layer 1
 62
   240
420
 15539236
100
AcDbHatch
 10
0.0
 20
0.0
 30
0.0
210
0.0
220
0.0
230
1.0
  2
SOLID
 70
     1
 71
     0
 91
        1
 92
        1
 93
       10
 72
     1
 10
65.8504163789367
 20
-165.4803385002966
 11
67.50268417366253
 21
-161.1756916914769
 72
     1
 10
67.50268417366253
 20
-161.1756916914769
 11
68.3684366691058
 21
-161.507798896255
 72
     1
 10
68.3684366691058
 20
-161.507798896255
 11
67.1120103456352
 21
-164.7809841167909
 72
     1
 10
67.1120103456352
 20
-164.7809841167909
 11
69.76817896476282
 21
-165.8007323804248
 72
     1
 10
69.76817896476282
 20
-165.8007323804248
 11
70.92917614329201
 21
-162.7766275634725
 72
     1
 10
70.92917614329201
 20
-162.7766275634725
 11
71.78287080453693
 21
-163.1042561441198
 72
     1
 10
71.78287080453693
 20
-163.1042561441198
 11
70.62221813555625
 21
-166.1283609610721
 72
     1
 10
70.62221813555625
 20
-166.1283609610721
 11
74.23887937597154
 21
-167.5167344416278
 72
     1
 10
74.23887937597154
 20
-167.5167344416278
 11
73.84303790471633
 21
-168.5485405394601
 72
     1
 10
73.84303790471633
 20
-168.5485405394601
 11
65.8504163789367
 21
-165.4803385002966
 97
        0
 75
     2
 76
     1
 98
        0
  0
SPLINE
  5
80
330
6E
100
AcDbEntity
  8
Layer 1
370
     0
100
AcDbSpline
210
0.0
220
0.0
230
1.0
 70
    11
 71
     3
 72
    47
 73
    43
 74
     0
 42
0.0000000001
 43
0.0000000001
 12
1.0
 22
0.0
 32
0.0
 13
1.0
 23
0.0
 33
0.0
 40
0.0
 40
0.0
 40
0.0
 40
0.0
 40
1.0
 40
1.0
 40
1.0
 40
2.0
 40
2.0
 40
2.0
 40
3.0
 40
3.0
 40
3.0
 40
4.0
 40
4.0
 40
4.0
 40
5.0
 40
5.0
 40
5.0
 40
6.0
 40
6.0
 40
6.0
 40
7.0
 40
7.0
 40
7.0
 40
8.0
 40
8.0
 40
8.0
 40
9.0
 40
9.0
 40
9.0
 40
10.0
 40
10.0
 40
10.0
 40
11.0
 40
11.0
 40
11.0
 40
12.0
 40
12.0
 40
12.0
 40
13.0
 40
13.0
 40
13.0
 40
14.0
 40
14.0
 40
14.0
 40
14.0
 10
77.65744762598494
 20
-160.473581231583
 30
0.0
 10
77.65744762598494
 20
-160.473581231583
 30
0.0
 10
76.94431286053823
 20
-160.1569769564885
 30
0.0
 10
76.94431286053823
 20
-160.1569769564885
 30
0.0
 10
76.94431286053823
 20
-160.1569769564885
 30
0.0
 10
76.92502032582084
 20
-160.1897053635984
 30
0.0
 10
76.92502032582084
 20
-160.1897053635984
 30
0.0
 10
77.16721053843389
 20
-160.7302408452341
 30
0.0
 10
77.20407306012606
 20
-161.5184786922593
 30
0.0
 10
76.75965574252884
 20
-162.2739881321746
 30
0.0
 10
76.12816974008254
 20
-163.3467908662814
 30
0.0
 10
75.0505438722964
 20
-163.4494547117418
 30
0.0
 10
74.28435463637683
 20
-162.9981472031741
 30
0.0
 10
73.00312362541241
 20
-162.2443603110014
 30
0.0
 10
72.97315129469074
 20
-160.6933783235419
 30
0.0
 10
74.18892549143541
 20
-158.6528482676285
 30
0.0
 10
74.18892549143541
 20
-158.6528482676285
 30
0.0
 10
74.07937145500446
 20
-158.5884249820543
 30
0.0
 10
74.07937145500446
 20
-158.5884249820543
 30
0.0
 10
73.64184432837774
 20
-158.3307318397576
 30
0.0
 10
72.78263751435642
 20
-157.9869113103297
 30
0.0
 10
72.14460583048816
 20
-159.0707383499893
 30
0.0
 10
71.85452879063013
 20
-159.56338700438
 30
0.0
 10
71.70501164657028
 20
-160.1680012620413
 30
0.0
 10
71.72671574812735
 20
-160.6820095084406
 30
0.0
 10
71.72671574812735
 20
-160.6820095084406
 30
0.0
 10
70.96293807904746
 20
-160.5273247211529
 30
0.0
 10
70.96293807904746
 20
-160.5273247211529
 30
0.0
 10
70.93606633426252
 20
-159.9220214443945
 30
0.0
 10
71.12382403820862
 20
-159.177536310032
 30
0.0
 10
71.51690943307564
 20
-158.5095322954421
 30
0.0
 10
72.47051186339279
 20
-156.8893038887291
 30
0.0
 10
73.8082424403153
 20
-157.1463080119287
 30
0.0
 10
74.8700208688693
 20
-157.771248332953
 30
0.0
 10
74.8700208688693
 20
-157.771248332953
 30
0.0
 10
76.85129528243648
 20
-158.9377576642586
 30
0.0
 10
76.85129528243648
 20
-158.9377576642586
 30
0.0
 10
77.31121552971734
 20
-159.2081976598507
 30
0.0
 10
77.77320283428934
 20
-159.4507323820123
 30
0.0
 10
78.17283391057832
 20
-159.5978379592325
 30
0.0
 10
78.17283391057832
 20
-159.5978379592325
 30
0.0
 10
77.65744762598494
 20
-160.473581231583
 30
0.0
 10
77.65744762598494
 20
-160.473581231583
 30
0.0
  0
SPLINE
  5
81
330
6E
100
AcDbEntity
  8
Layer 1
370
     0
100
AcDbSpline
210
0.0
220
0.0
230
1.0
 70
    11
 71
     3
 72
    20
 73
    16
 74
     0
 42
0.0000000001
 43
0.0000000001
 12
1.0
 22
0.0
 32
0.0
 13
1.0
 23
0.0
 33
0.0
 40
0.0
 40
0.0
 40
0.0
 40
0.0
 40
1.0
 40
1.0
 40
1.0
 40
2.0
 40
2.0
 40
2.0
 40
3.0
 40
3.0
 40
3.0
 40
4.0
 40
4.0
 40
4.0
 40
5.0
 40
5.0
 40
5.0
 40
5.0
 10
74.86967635932078
 20
-159.0242295609384
 30
0.0
 10
74.22923310861283
 20
-160.0618923210957
 30
0.0
 10
73.71281329537388
 20
-161.3648274336171
 30
0.0
 10
74.74186331681801
 20
-161.9704752199241
 30
0.0
 10
75.36577010919676
 20
-162.3377223986517
 30
0.0
 10
75.90630559083246
 20
-162.0958766955872
 30
0.0
 10
76.19603812114197
 20
-161.6032280411964
 30
0.0
 10
76.6018703693044
 20
-160.9135199250494
 30
0.0
 10
76.42203638497436
 20
-160.2179551465775
 30
0.0
 10
76.06340194495985
 20
-159.8004095737652
 30
0.0
 10
75.98450925834763
 20
-159.7098035625031
 30
0.0
 10
75.8877020752121
 20
-159.6233316658233
 30
0.0
 10
75.78917234433396
 20
-159.5651095521226
 30
0.0
 10
75.78917234433396
 20
-159.5651095521226
 30
0.0
 10
74.86967635932078
 20
-159.0242295609384
 30
0.0
 10
74.86967635932078
 20
-159.0242295609384
 30
0.0
  0
HATCH
  5
82
330
6E
100
AcDbEntity
  8
Layer 1
 62
   240
420
 15539236
100
AcDbHatch
 10
0.0
 20
0.0
 30
0.0
210
0.0
220
0.0
230
1.0
  2
SOLID
 70
     1
 71
     0
 91
        2
 92
        1
 93
        1
 72
     4
 94
        3
 73
     0
 74
     1
 95
       47
 96
       43
 40
0.0
 40
0.0
 40
0.0
 40
0.0
 40
1.0
 40
1.0
 40
1.0
 40
2.0
 40
2.0
 40
2.0
 40
3.0
 40
3.0
 40
3.0
 40
4.0
 40
4.0
 40
4.0
 40
5.0
 40
5.0
 40
5.0
 40
6.0
 40
6.0
 40
6.0
 40
7.0
 40
7.0
 40
7.0
 40
8.0
 40
8.0
 40
8.0
 40
9.0
 40
9.0
 40
9.0
 40
10.0
 40
10.0
 40
10.0
 40
11.0
 40
11.0
 40
11.0
 40
12.0
 40
12.0
 40
12.0
 40
13.0
 40
13.0
 40
13.0
 40
14.0
 40
14.0
 40
14.0
 40
14.0
 10
77.65744762598494
 20
-160.473581231583
 10
77.65744762598494
 20
-160.473581231583
 10
76.94431286053823
 20
-160.1569769564885
 10
76.94431286053823
 20
-160.1569769564885
 10
76.94431286053823
 20
-160.1569769564885
 10
76.92502032582084
 20
-160.1897053635984
 10
76.92502032582084
 20
-160.1897053635984
 10
77.16721053843389
 20
-160.7302408452341
 10
77.20407306012606
 20
-161.5184786922593
 10
76.75965574252884
 20
-162.2739881321746
 10
76.12816974008254
 20
-163.3467908662814
 10
75.0505438722964
 20
-163.4494547117418
 10
74.28435463637683
 20
-162.9981472031741
 10
73.00312362541241
 20
-162.2443603110014
 10
72.97315129469074
 20
-160.6933783235419
 10
74.18892549143541
 20
-158.6528482676285
 10
74.18892549143541
 20
-158.6528482676285
 10
74.07937145500446
 20
-158.5884249820543
 10
74.07937145500446
 20
-158.5884249820543
 10
73.64184432837774
 20
-158.3307318397576
 10
72.78263751435642
 20
-157.9869113103297
 10
72.14460583048816
 20
-159.0707383499893
 10
71.85452879063013
 20
-159.56338700438
 10
71.70501164657028
 20
-160.1680012620413
 10
71.72671574812735
 20
-160.6820095084406
 10
71.72671574812735
 20
-160.6820095084406
 10
70.96293807904746
 20
-160.5273247211529
 10
70.96293807904746
 20
-160.5273247211529
 10
70.93606633426252
 20
-159.9220214443945
 10
71.12382403820862
 20
-159.177536310032
 10
71.51690943307564
 20
-158.5095322954421
 10
72.47051186339279
 20
-156.8893038887291
 10
73.8082424403153
 20
-157.1463080119287
 10
74.8700208688693
 20
-157.771248332953
 10
74.8700208688693
 20
-157.771248332953
 10
76.85129528243648
 20
-158.9377576642586
 10
76.85129528243648
 20
-158.9377576642586
 10
77.31121552971734
 20
-159.2081976598507
 10
77.77320283428934
 20
-159.4507323820123
 10
78.17283391057832
 20
-159.5978379592325
 10
78.17283391057832
 20
-159.5978379592325
 10
77.65744762598494
 20
-160.473581231583
 10
77.65744762598494
 20
-160.473581231583
 97
        0
 97
        0
 92
        1
 93
        1
 72
     4
 94
        3
 73
     0
 74
     1
 95
       20
 96
       16
 40
0.0
 40
0.0
 40
0.0
 40
0.0
 40
1.0
 40
1.0
 40
1.0
 40
2.0
 40
2.0
 40
2.0
 40
3.0
 40
3.0
 40
3.0
 40
4.0
 40
4.0
 40
4.0
 40
5.0
 40
5.0
 40
5.0
 40
5.0
 10
74.86967635932078
 20
-159.0242295609384
 10
74.22923310861283
 20
-160.0618923210957
 10
73.71281329537388
 20
-161.3648274336171
 10
74.74186331681801
 20
-161.9704752199241
 10
75.36577010919676
 20
-162.3377223986517
 10
75.90630559083246
 20
-162.0958766955872
 10
76.19603812114197
 20
-161.6032280411964
 10
76.6018703693044
 20
-160.9135199250494
 10
76.42203638497436
 20
-160.2179551465775
 10
76.06340194495985
 20
-159.8004095737652
 10
75.98450925834763
 20
-159.7098035625031
 10
75.8877020752121
 20
-159.6233316658233
 10
75.78917234433396
 20
-159.5651095521226
 10
75.78917234433396
 20
-159.5651095521226
 10
74.86967635932078
 20
-159.0242295609384
 10
74.86967635932078
 20
-159.0242295609384
 97
        0
 97
        0
 75
     2
 76
     1
 98
        0
  0
SPLINE
  5
83
330
6E
100
AcDbEntity
  8
Layer 1
370
     0
100
AcDbSpline
210
0.0
220
0.0
230
1.0
 70
    11
 71
     3
 72
    41
 73
    37
 74
     0
 42
0.0000000001
 43
0.0000000001
 12
1.0
 22
0.0
 32
0.0
 13
1.0
 23
0.0
 33
0.0
 40
0.0
 40
0.0
 40
0.0
 40
0.0
 40
1.0
 40
1.0
 40
1.0
 40
2.0
 40
2.0
 40
2.0
 40
3.0
 40
3.0
 40
3.0
 40
4.0
 40
4.0
 40
4.0
 40
5.0
 40
5.0
 40
5.0
 40
6.0
 40
6.0
 40
6.0
 40
7.0
 40
7.0
 40
7.0
 40
8.0
 40
8.0
 40
8.0
 40
9.0
 40
9.0
 40
9.0
 40
10.0
 40
10.0
 40
10.0
 40
11.0
 40
11.0
 40
11.0
 40
12.0
 40
12.0
 40
12.0
 40
12.0
 10
79.05718992164195
 20
-158.3097167572976
 30
0.0
 10
78.76160072900753
 20
-158.0113714882749
 30
0.0
 10
78.31477184457061
 20
-157.5779784762305
 30
0.0
 10
77.90756155821408
 20
-157.2141763929881
 30
0.0
 10
77.90756155821408
 20
-157.2141763929881
 30
0.0
 10
72.3685370370294
 20
-152.2649522188782
 30
0.0
 10
72.3685370370294
 20
-152.2649522188782
 30
0.0
 10
72.3685370370294
 20
-152.2649522188782
 30
0.0
 10
73.10440943267876
 20
-151.441229888355
 30
0.0
 10
73.10440943267876
 20
-151.441229888355
 30
0.0
 10
73.10440943267876
 20
-151.441229888355
 30
0.0
 10
75.982786710605
 20
-154.012993668094
 30
0.0
 10
75.982786710605
 20
-154.012993668094
 30
0.0
 10
75.982786710605
 20
-154.012993668094
 30
0.0
 10
75.99966767848272
 20
-153.9940456429251
 30
0.0
 10
75.99966767848272
 20
-153.9940456429251
 30
0.0
 10
75.75058727489916
 20
-153.2437038462377
 30
0.0
 10
75.89286971843998
 20
-152.4172254393262
 30
0.0
 10
76.55295001341385
 20
-151.6789414768372
 30
0.0
 10
77.56821965291698
 20
-150.5427489858018
 30
0.0
 10
79.2342678295838
 20
-150.5837456220763
 30
0.0
 10
80.61781817646013
 20
-151.8370713596102
 30
0.0
 10
82.25561657014791
 20
-153.3005479217443
 30
0.0
 10
82.14778508145959
 20
-155.0599581860614
 30
0.0
 10
81.23414575877133
 20
-156.0828070356321
 30
0.0
 10
80.64193384485688
 20
-156.7456434069942
 30
0.0
 10
79.91226262108097
 20
-157.047433771502
 30
0.0
 10
79.00206839387796
 20
-156.8469292142605
 30
0.0
 10
79.00206839387796
 20
-156.8469292142605
 30
0.0
 10
78.97657468728711
 20
-156.8755235067881
 30
0.0
 10
78.97657468728711
 20
-156.8755235067881
 30
0.0
 10
78.97657468728711
 20
-156.8755235067881
 30
0.0
 10
79.70004473918958
 20
-157.5900363104289
 30
0.0
 10
79.70004473918958
 20
-157.5900363104289
 30
0.0
 10
79.70004473918958
 20
-157.5900363104289
 30
0.0
 10
79.05718992164195
 20
-158.3097167572976
 30
0.0
 10
79.05718992164195
 20
-158.3097167572976
 30
0.0
  0
SPLINE
  5
84
330
6E
100
AcDbEntity
  8
Layer 1
370
     0
100
AcDbSpline
210
0.0
220
0.0
230
1.0
 70
    11
 71
     3
 72
    26
 73
    22
 74
     0
 42
0.0000000001
 43
0.0000000001
 12
1.0
 22
0.0
 32
0.0
 13
1.0
 23
0.0
 33
0.0
 40
0.0
 40
0.0
 40
0.0
 40
0.0
 40
1.0
 40
1.0
 40
1.0
 40
2.0
 40
2.0
 40
2.0
 40
3.0
 40
3.0
 40
3.0
 40
4.0
 40
4.0
 40
4.0
 40
5.0
 40
5.0
 40
5.0
 40
6.0
 40
6.0
 40
6.0
 40
7.0
 40
7.0
 40
7.0
 40
7.0
 10
77.99024384986008
 20
-155.8065103777151
 30
0.0
 10
78.09428573351462
 20
-155.8995279558168
 30
0.0
 10
78.21555309459542
 20
-155.9739420182982
 30
0.0
 10
78.32717418831751
 20
-156.0393988325179
 30
0.0
 10
79.04857718292884
 20
-156.3945881770472
 30
0.0
 10
79.87746715667994
 20
-156.2667751345444
 30
0.0
 10
80.41903616696122
 20
-155.6611273482375
 30
0.0
 10
81.19762774662767
 20
-154.7898627000178
 30
0.0
 10
80.95268145762641
 20
-153.6347221838136
 30
0.0
 10
79.90158282507669
 20
-152.6952446449859
 30
0.0
 10
78.98312036870908
 20
-151.8749674099479
 30
0.0
 10
77.77423636293491
 20
-151.6462130697273
 30
0.0
 10
76.97876381539074
 20
-152.5360812335674
 30
0.0
 10
76.47130125041343
 20
-153.1041774790851
 30
0.0
 10
76.3855183728307
 20
-153.9812987896297
 30
0.0
 10
76.86783174076568
 20
-154.7185492234732
 30
0.0
 10
76.94569089873234
 20
-154.8222465975792
 30
0.0
 10
77.03388534315472
 20
-154.9521266973731
 30
0.0
 10
77.16617700978831
 20
-155.0706379820657
 30
0.0
 10
77.16617700978831
 20
-155.0706379820657
 30
0.0
 10
77.99024384986008
 20
-155.8065103777151
 30
0.0
 10
77.99024384986008
 20
-155.8065103777151
 30
0.0
  0
HATCH
  5
85
330
6E
100
AcDbEntity
  8
Layer 1
 62
   240
420
 15539236
100
AcDbHatch
 10
0.0
 20
0.0
 30
0.0
210
0.0
220
0.0
230
1.0
  2
SOLID
 70
     1
 71
     0
 91
        2
 92
        1
 93
        1
 72
     4
 94
        3
 73
     0
 74
     1
 95
       41
 96
       37
 40
0.0
 40
0.0
 40
0.0
 40
0.0
 40
1.0
 40
1.0
 40
1.0
 40
2.0
 40
2.0
 40
2.0
 40
3.0
 40
3.0
 40
3.0
 40
4.0
 40
4.0
 40
4.0
 40
5.0
 40
5.0
 40
5.0
 40
6.0
 40
6.0
 40
6.0
 40
7.0
 40
7.0
 40
7.0
 40
8.0
 40
8.0
 40
8.0
 40
9.0
 40
9.0
 40
9.0
 40
10.0
 40
10.0
 40
10.0
 40
11.0
 40
11.0
 40
11.0
 40
12.0
 40
12.0
 40
12.0
 40
12.0
 10
79.05718992164195
 20
-158.3097167572976
 10
78.76160072900753
 20
-158.0113714882749
 10
78.31477184457061
 20
-157.5779784762305
 10
77.90756155821408
 20
-157.2141763929881
 10
77.90756155821408
 20
-157.2141763929881
 10
72.3685370370294
 20
-152.2649522188782
 10
72.3685370370294
 20
-152.2649522188782
 10
72.3685370370294
 20
-152.2649522188782
 10
73.10440943267876
 20
-151.441229888355
 10
73.10440943267876
 20
-151.441229888355
 10
73.10440943267876
 20
-151.441229888355
 10
75.982786710605
 20
-154.012993668094
 10
75.982786710605
 20
-154.012993668094
 10
75.982786710605
 20
-154.012993668094
 10
75.99966767848272
 20
-153.9940456429251
 10
75.99966767848272
 20
-153.9940456429251
 10
75.75058727489916
 20
-153.2437038462377
 10
75.89286971843998
 20
-152.4172254393262
 10
76.55295001341385
 20
-151.6789414768372
 10
77.56821965291698
 20
-150.5427489858018
 10
79.2342678295838
 20
-150.5837456220763
 10
80.61781817646013
 20
-151.8370713596102
 10
82.25561657014791
 20
-153.3005479217443
 10
82.14778508145959
 20
-155.0599581860614
 10
81.23414575877133
 20
-156.0828070356321
 10
80.64193384485688
 20
-156.7456434069942
 10
79.91226262108097
 20
-157.047433771502
 10
79.00206839387796
 20
-156.8469292142605
 10
79.00206839387796
 20
-156.8469292142605
 10
78.97657468728711
 20
-156.8755235067881
 10
78.97657468728711
 20
-156.8755235067881
 10
78.97657468728711
 20
-156.8755235067881
 10
79.70004473918958
 20
-157.5900363104289
 10
79.70004473918958
 20
-157.5900363104289
 10
79.70004473918958
 20
-157.5900363104289
 10
79.05718992164195
 20
-158.3097167572976
 10
79.05718992164195
 20
-158.3097167572976
 97
        0
 97
        0
 92
        1
 93
        1
 72
     4
 94
        3
 73
     0
 74
     1
 95
       26
 96
       22
 40
0.0
 40
0.0
 40
0.0
 40
0.0
 40
1.0
 40
1.0
 40
1.0
 40
2.0
 40
2.0
 40
2.0
 40
3.0
 40
3.0
 40
3.0
 40
4.0
 40
4.0
 40
4.0
 40
5.0
 40
5.0
 40
5.0
 40
6.0
 40
6.0
 40
6.0
 40
7.0
 40
7.0
 40
7.0
 40
7.0
 10
77.99024384986008
 20
-155.8065103777151
 10
78.09428573351462
 20
-155.8995279558168
 10
78.21555309459542
 20
-155.9739420182982
 10
78.32717418831751
 20
-156.0393988325179
 10
79.04857718292884
 20
-156.3945881770472
 10
79.87746715667994
 20
-156.2667751345444
 10
80.41903616696122
 20
-155.6611273482375
 10
81.19762774662767
 20
-154.7898627000178
 10
80.95268145762641
 20
-153.6347221838136
 10
79.90158282507669
 20
-152.6952446449859
 10
78.98312036870908
 20
-151.8749674099479
 10
77.77423636293491
 20
-151.6462130697273
 10
76.97876381539074
 20
-152.5360812335674
 10
76.47130125041343
 20
-153.1041774790851
 10
76.3855183728307
 20
-153.9812987896297
 10
76.86783174076568
 20
-154.7185492234732
 10
76.94569089873234
 20
-154.8222465975792
 10
77.03388534315472
 20
-154.9521266973731
 10
77.16617700978831
 20
-155.0706379820657
 10
77.16617700978831
 20
-155.0706379820657
 10
77.99024384986008
 20
-155.8065103777151
 10
77.99024384986008
 20
-155.8065103777151
 97
        0
 97
        0
 75
     2
 76
     1
 98
        0
  0
POLYLINE
  5
86
330
6E
100
AcDbEntity
  8
Layer 1
370
     0
100
AcDb2dPolyline
 66
     1
 10
0.0
 20
0.0
 30
0.0
  0
VERTEX
  5
87
330
86
100
AcDbEntity
  8
Layer 1
370
     0
100
AcDbVertex
100
AcDb2dVertex
 10
81.73299558503551
 20
-144.0945637660597
 30
0.0
  0
VERTEX
  5
88
330
86
100
AcDbEntity
  8
Layer 1
370
     0
100
AcDbVertex
100
AcDb2dVertex
 10
82.66902802837788
 20
-143.5082085144702
 30
0.0
  0
VERTEX
  5
89
330
86
100
AcDbEntity
  8
Layer 1
370
     0
100
AcDbVertex
100
AcDb2dVertex
 10
86.7190822808376
 20
-149.9753417593812
 30
0.0
  0
VERTEX
  5
8A
330
86
100
AcDbEntity
  8
Layer 1
370
     0
100
AcDbVertex
100
AcDb2dVertex
 10
89.81863468891687
 20
-148.0347194725399
 30
0.0
  0
VERTEX
  5
8B
330
86
100
AcDbEntity
  8
Layer 1
370
     0
100
AcDbVertex
100
AcDb2dVertex
 10
90.31024981466203
 20
-148.8202012431769
 30
0.0
  0
VERTEX
  5
8C
330
86
100
AcDbEntity
  8
Layer 1
370
     0
100
AcDbVertex
100
AcDb2dVertex
 10
86.2750094727889
 20
-151.3475232911562
 30
0.0
  0
VERTEX
  5
8D
330
86
100
AcDbEntity
  8
Layer 1
370
     0
100
AcDbVertex
100
AcDb2dVertex
 10
81.73299558503551
 20
-144.0945637660597
 30
0.0
  0
SEQEND
  5
8E
330
86
100
AcDbEntity
  8
Layer 1
370
     0
  0
HATCH
  5
8F
330
6E
100
AcDbEntity
  8
Layer 1
 62
   114
420
    42320
100
AcDbHatch
 10
0.0
 20
0.0
 30
0.0
210
0.0
220
0.0
230
1.0
  2
SOLID
 70
     1
 71
     0
 91
        1
 92
        1
 93
        6
 72
     1
 10
81.73299558503551
 20
-144.0945637660597
 11
82.66902802837788
 21
-143.5082085144702
 72
     1
 10
82.66902802837788
 20
-143.5082085144702
 11
86.7190822808376
 21
-149.9753417593812
 72
     1
 10
86.7190822808376
 20
-149.9753417593812
 11
89.81863468891687
 21
-148.0347194725399
 72
     1
 10
89.81863468891687
 20
-148.0347194725399
 11
90.31024981466203
 21
-148.8202012431769
 72
     1
 10
90.31024981466203
 20
-148.8202012431769
 11
86.2750094727889
 21
-151.3475232911562
 72
     1
 10
86.2750094727889
 20
-151.3475232911562
 11
81.73299558503551
 21
-144.0945637660597
 97
        0
 75
     2
 76
     1
 98
        0
  0
SPLINE
  5
90
330
6E
100
AcDbEntity
  8
Layer 1
370
     0
100
AcDbSpline
210
0.0
220
0.0
230
1.0
 70
    11
 71
     3
 72
    47
 73
    43
 74
     0
 42
0.0000000001
 43
0.0000000001
 12
1.0
 22
0.0
 32
0.0
 13
1.0
 23
0.0
 33
0.0
 40
0.0
 40
0.0
 40
0.0
 40
0.0
 40
1.0
 40
1.0
 40
1.0
 40
2.0
 40
2.0
 40
2.0
 40
3.0
 40
3.0
 40
3.0
 40
4.0
 40
4.0
 40
4.0
 40
5.0
 40
5.0
 40
5.0
 40
6.0
 40
6.0
 40
6.0
 40
7.0
 40
7.0
 40
7.0
 40
8.0
 40
8.0
 40
8.0
 40
9.0
 40
9.0
 40
9.0
 40
10.0
 40
10.0
 40
10.0
 40
11.0
 40
11.0
 40
11.0
 40
12.0
 40
12.0
 40
12.0
 40
13.0
 40
13.0
 40
13.0
 40
14.0
 40
14.0
 40
14.0
 40
14.0
 10
94.5032755297596
 20
-147.0962754623579
 30
0.0
 10
94.5032755297596
 20
-147.0962754623579
 30
0.0
 10
94.13602835103197
 20
-146.408634403502
 30
0.0
 10
94.13602835103197
 20
-146.408634403502
 30
0.0
 10
94.13602835103197
 20
-146.408634403502
 30
0.0
 10
94.1005438675339
 20
-146.422414785443
 30
0.0
 10
94.1005438675339
 20
-146.422414785443
 30
0.0
 10
93.95895044309013
 20
-146.9974012219312
 30
0.0
 10
93.5035088199401
 20
-147.6416340776729
 30
0.0
 10
92.68839922812998
 20
-147.9637505055438
 30
0.0
 10
91.53119165463457
 20
-148.421259185985
 30
0.0
 10
90.61858586059189
 20
-147.8397270680748
 30
0.0
 10
90.2919908085902
 20
-147.0132486611634
 30
0.0
 10
89.74559866462958
 20
-145.6310763524811
 30
0.0
 10
90.67508542654998
 20
-144.3898084491456
 30
0.0
 10
92.88821476627447
 20
-143.5285345778331
 30
0.0
 10
92.88821476627447
 20
-143.5285345778331
 30
0.0
 10
92.84170597722361
 20
-143.4103678026891
 30
0.0
 10
92.84170597722361
 20
-143.4103678026891
 30
0.0
 10
92.65463729237455
 20
-142.9380452116613
 30
0.0
 10
92.18886038276877
 20
-142.1387830590834
 30
0.0
 10
91.01959497507497
 20
-142.6011148732039
 30
0.0
 10
90.48836125124944
 20
-142.8112656978041
 30
0.0
 10
89.99846867324692
 20
-143.1960828635065
 30
0.0
 10
89.69943438512723
 20
-143.6146619649644
 30
0.0
 10
89.69943438512723
 20
-143.6146619649644
 30
0.0
 10
89.19231632969846
 20
-143.0227945605985
 30
0.0
 10
89.19231632969846
 20
-143.0227945605985
 30
0.0
 10
89.54371606919393
 20
-142.5291123775622
 30
0.0
 10
90.14936385550085
 20
-142.0574788056315
 30
0.0
 10
90.8697333214666
 20
-141.7729139185498
 30
0.0
 10
92.61777477068236
 20
-141.0818277642087
 30
0.0
 10
93.5145331254929
 20
-142.1067436710705
 30
0.0
 10
93.96721867225473
 20
-143.2522379199161
 30
0.0
 10
93.96721867225473
 20
-143.2522379199161
 30
0.0
 10
94.8123005947865
 20
-145.3899196685136
 30
0.0
 10
94.8123005947865
 20
-145.3899196685136
 30
0.0
 10
95.00832652789722
 20
-145.8860134183896
 30
0.0
 10
95.22330048617683
 20
-146.3610920858056
 30
0.0
 10
95.44826522136363
 20
-146.7228271117568
 30
0.0
 10
95.44826522136363
 20
-146.7228271117568
 30
0.0
 10
94.5032755297596
 20
-147.0962754623579
 30
0.0
 10
94.5032755297596
 20
-147.0962754623579
 30
0.0
  0
SPLINE
  5
91
330
6E
100
AcDbEntity
  8
Layer 1
370
     0
100
AcDbSpline
210
0.0
220
0.0
230
1.0
 70
    11
 71
     3
 72
    20
 73
    16
 74
     0
 42
0.0000000001
 43
0.0000000001
 12
1.0
 22
0.0
 32
0.0
 13
1.0
 23
0.0
 33
0.0
 40
0.0
 40
0.0
 40
0.0
 40
0.0
 40
1.0
 40
1.0
 40
1.0
 40
2.0
 40
2.0
 40
2.0
 40
3.0
 40
3.0
 40
3.0
 40
4.0
 40
4.0
 40
4.0
 40
5.0
 40
5.0
 40
5.0
 40
5.0
 10
93.19689532175286
 20
-144.2396022859887
 30
0.0
 10
92.05346813019844
 20
-144.66438255932
 30
0.0
 10
90.84561765306985
 20
-145.373727719733
 30
0.0
 10
91.28417830834215
 20
-146.484081994629
 30
0.0
 10
91.55048418935196
 20
-147.1572536524468
 30
0.0
 10
92.12547062584017
 20
-147.298502567342
 30
0.0
 10
92.65670434966569
 20
-147.0886962522903
 30
0.0
 10
93.40084497447965
 20
-146.7948296073985
 30
0.0
 10
93.68678789975539
 20
-146.1354383315217
 30
0.0
 10
93.6606051740675
 20
-145.5859456016244
 30
0.0
 10
93.65405949264552
 20
-145.4657117691891
 30
0.0
 10
93.63097735289435
 20
-145.3382432362349
 30
0.0
 10
93.5889471879743
 20
-145.2317897857407
 30
0.0
 10
93.5889471879743
 20
-145.2317897857407
 30
0.0
 10
93.19689532175286
 20
-144.2396022859887
 30
0.0
 10
93.19689532175286
 20
-144.2396022859887
 30
0.0
  0
HATCH
  5
92
330
6E
100
AcDbEntity
  8
Layer 1
 62
   114
420
    42320
100
AcDbHatch
 10
0.0
 20
0.0
 30
0.0
210
0.0
220
0.0
230
1.0
  2
SOLID
 70
     1
 71
     0
 91
        2
 92
        1
 93
        1
 72
     4
 94
        3
 73
     0
 74
     1
 95
       47
 96
       43
 40
0.0
 40
0.0
 40
0.0
 40
0.0
 40
1.0
 40
1.0
 40
1.0
 40
2.0
 40
2.0
 40
2.0
 40
3.0
 40
3.0
 40
3.0
 40
4.0
 40
4.0
 40
4.0
 40
5.0
 40
5.0
 40
5.0
 40
6.0
 40
6.0
 40
6.0
 40
7.0
 40
7.0
 40
7.0
 40
8.0
 40
8.0
 40
8.0
 40
9.0
 40
9.0
 40
9.0
 40
10.0
 40
10.0
 40
10.0
 40
11.0
 40
11.0
 40
11.0
 40
12.0
 40
12.0
 40
12.0
 40
13.0
 40
13.0
 40
13.0
 40
14.0
 40
14.0
 40
14.0
 40
14.0
 10
94.5032755297596
 20
-147.0962754623579
 10
94.5032755297596
 20
-147.0962754623579
 10
94.13602835103197
 20
-146.408634403502
 10
94.13602835103197
 20
-146.408634403502
 10
94.13602835103197
 20
-146.408634403502
 10
94.1005438675339
 20
-146.422414785443
 10
94.1005438675339
 20
-146.422414785443
 10
93.95895044309013
 20
-146.9974012219312
 10
93.5035088199401
 20
-147.6416340776729
 10
92.68839922812998
 20
-147.9637505055438
 10
91.53119165463457
 20
-148.421259185985
 10
90.61858586059189
 20
-147.8397270680748
 10
90.2919908085902
 20
-147.0132486611634
 10
89.74559866462958
 20
-145.6310763524811
 10
90.67508542654998
 20
-144.3898084491456
 10
92.88821476627447
 20
-143.5285345778331
 10
92.88821476627447
 20
-143.5285345778331
 10
92.84170597722361
 20
-143.4103678026891
 10
92.84170597722361
 20
-143.4103678026891
 10
92.65463729237455
 20
-142.9380452116613
 10
92.18886038276877
 20
-142.1387830590834
 10
91.01959497507497
 20
-142.6011148732039
 10
90.48836125124944
 20
-142.8112656978041
 10
89.99846867324692
 20
-143.1960828635065
 10
89.69943438512723
 20
-143.6146619649644
 10
89.69943438512723
 20
-143.6146619649644
 10
89.19231632969846
 20
-143.0227945605985
 10
89.19231632969846
 20
-143.0227945605985
 10
89.54371606919393
 20
-142.5291123775622
 10
90.14936385550085
 20
-142.0574788056315
 10
90.8697333214666
 20
-141.7729139185498
 10
92.61777477068236
 20
-141.0818277642087
 10
93.5145331254929
 20
-142.1067436710705
 10
93.96721867225473
 20
-143.2522379199161
 10
93.96721867225473
 20
-143.2522379199161
 10
94.8123005947865
 20
-145.3899196685136
 10
94.8123005947865
 20
-145.3899196685136
 10
95.00832652789722
 20
-145.8860134183896
 10
95.22330048617683
 20
-146.3610920858056
 10
95.44826522136363
 20
-146.7228271117568
 10
95.44826522136363
 20
-146.7228271117568
 10
94.5032755297596
 20
-147.0962754623579
 10
94.5032755297596
 20
-147.0962754623579
 97
        0
 97
        0
 92
        1
 93
        1
 72
     4
 94
        3
 73
     0
 74
     1
 95
       20
 96
       16
 40
0.0
 40
0.0
 40
0.0
 40
0.0
 40
1.0
 40
1.0
 40
1.0
 40
2.0
 40
2.0
 40
2.0
 40
3.0
 40
3.0
 40
3.0
 40
4.0
 40
4.0
 40
4.0
 40
5.0
 40
5.0
 40
5.0
 40
5.0
 10
93.19689532175286
 20
-144.2396022859887
 10
92.05346813019844
 20
-144.66438255932
 10
90.84561765306985
 20
-145.373727719733
 10
91.28417830834215
 20
-146.484081994629
 10
91.55048418935196
 20
-147.1572536524468
 10
92.12547062584017
 20
-147.298502567342
 10
92.65670434966569
 20
-147.0886962522903
 10
93.40084497447965
 20
-146.7948296073985
 10
93.68678789975539
 20
-146.1354383315217
 10
93.6606051740675
 20
-145.5859456016244
 10
93.65405949264552
 20
-145.4657117691891
 10
93.63097735289435
 20
-145.3382432362349
 10
93.5889471879743
 20
-145.2317897857407
 10
93.5889471879743
 20
-145.2317897857407
 10
93.19689532175286
 20
-144.2396022859887
 10
93.19689532175286
 20
-144.2396022859887
 97
        0
 97
        0
 75
     2
 76
     1
 98
        0
  0
SPLINE
  5
93
330
6E
100
AcDbEntity
  8
Layer 1
370
     0
100
AcDbSpline
210
0.0
220
0.0
230
1.0
 70
    11
 71
     3
 72
    41
 73
    37
 74
     0
 42
0.0000000001
 43
0.0000000001
 12
1.0
 22
0.0
 32
0.0
 13
1.0
 23
0.0
 33
0.0
 40
0.0
 40
0.0
 40
0.0
 40
0.0
 40
1.0
 40
1.0
 40
1.0
 40
2.0
 40
2.0
 40
2.0
 40
3.0
 40
3.0
 40
3.0
 40
4.0
 40
4.0
 40
4.0
 40
5.0
 40
5.0
 40
5.0
 40
6.0
 40
6.0
 40
6.0
 40
7.0
 40
7.0
 40
7.0
 40
8.0
 40
8.0
 40
8.0
 40
9.0
 40
9.0
 40
9.0
 40
10.0
 40
10.0
 40
10.0
 40
11.0
 40
11.0
 40
11.0
 40
12.0
 40
12.0
 40
12.0
 40
12.0
 10
96.95136038157814
 20
-146.2250108141382
 30
0.0
 10
96.89933943975086
 20
-145.8084987699715
 30
0.0
 10
96.8101114666829
 20
-145.1921711876603
 30
0.0
 10
96.70985918806213
 20
-144.6554253110584
 30
0.0
 10
96.70985918806213
 20
-144.6554253110584
 30
0.0
 10
95.34663490454876
 20
-137.3535454300713
 30
0.0
 10
95.34663490454876
 20
-137.3535454300713
 30
0.0
 10
95.34663490454876
 20
-137.3535454300713
 30
0.0
 10
96.43252900149952
 20
-137.1509738155387
 30
0.0
 10
96.43252900149952
 20
-137.1509738155387
 30
0.0
 10
96.43252900149952
 20
-137.1509738155387
 30
0.0
 10
97.1411851428154
 20
-140.9454019829928
 30
0.0
 10
97.1411851428154
 20
-140.9454019829928
 30
0.0
 10
97.1411851428154
 20
-140.9454019829928
 30
0.0
 10
97.1659898303092
 20
-140.940923358862
 30
0.0
 10
97.1659898303092
 20
-140.940923358862
 30
0.0
 10
97.42712806809114
 20
-140.1947156767569
 30
0.0
 10
98.04448917904791
 20
-139.6273084503362
 30
0.0
 10
99.01807316317951
 20
-139.4454074087151
 30
0.0
 10
100.5163451897147
 20
-139.1656656553128
 30
0.0
 10
101.809978544426
 20
-140.2157307592169
 30
0.0
 10
102.1400186919129
 20
-142.0530001815006
 30
0.0
 10
102.5430948636871
 20
-144.2123860316553
 30
0.0
 10
101.382786704255
 20
-145.539781322122
 30
0.0
 10
100.0350653504253
 20
-145.7912732925452
 30
0.0
 10
99.16138913536591
 20
-145.9545708185461
 30
0.0
 10
98.39933401402864
 20
-145.7482095989796
 30
0.0
 10
97.80092092824074
 20
-145.0330077762418
 30
0.0
 10
97.80092092824074
 20
-145.0330077762418
 30
0.0
 10
97.76336938745152
 20
-145.0402424767608
 30
0.0
 10
97.76336938745152
 20
-145.0402424767608
 30
0.0
 10
97.76336938745152
 20
-145.0402424767608
 30
0.0
 10
97.89979516866741
 20
-146.0479329061964
 30
0.0
 10
97.89979516866741
 20
-146.0479329061964
 30
0.0
 10
97.89979516866741
 20
-146.0479329061964
 30
0.0
 10
96.95136038157814
 20
-146.2250108141382
 30
0.0
 10
96.95136038157814
 20
-146.2250108141382
 30
0.0
  0
SPLINE
  5
94
330
6E
100
AcDbEntity
  8
Layer 1
370
     0
100
AcDbSpline
210
0.0
220
0.0
230
1.0
 70
    11
 71
     3
 72
    26
 73
    22
 74
     0
 42
0.0000000001
 43
0.0000000001
 12
1.0
 22
0.0
 32
0.0
 13
1.0
 23
0.0
 33
0.0
 40
0.0
 40
0.0
 40
0.0
 40
0.0
 40
1.0
 40
1.0
 40
1.0
 40
2.0
 40
2.0
 40
2.0
 40
3.0
 40
3.0
 40
3.0
 40
4.0
 40
4.0
 40
4.0
 40
5.0
 40
5.0
 40
5.0
 40
6.0
 40
6.0
 40
6.0
 40
7.0
 40
7.0
 40
7.0
 40
7.0
 10
97.6348673258517
 20
-143.5915798252132
 30
0.0
 10
97.66070554199108
 20
-143.7290391350747
 30
0.0
 10
97.71134844562425
 20
-143.8616753112568
 30
0.0
 10
97.75957978241775
 20
-143.981909143692
 30
0.0
 10
98.11408010784996
 20
-144.7036566478519
 30
0.0
 10
98.8482299557567
 20
-145.1087998769173
 30
0.0
 10
99.64714759878613
 20
-144.9596272424059
 30
0.0
 10
100.7953979240199
 20
-144.7453423032234
 30
0.0
 10
101.307339113128
 20
-143.6808077982812
 30
0.0
 10
101.0486124421858
 20
-142.2955349036622
 30
0.0
 10
100.8226141783534
 20
-141.0849283501454
 30
0.0
 10
100.0050930197036
 20
-140.1654323651323
 30
0.0
 10
98.8316934974275
 20
-140.3841959284456
 30
0.0
 10
98.08272973893418
 20
-140.5240668051468
 30
0.0
 10
97.47949351946694
 20
-141.1665771131458
 30
0.0
 10
97.41093611931046
 20
-142.044731952336
 30
0.0
 10
97.40921357156785
 20
-142.1739230330329
 30
0.0
 10
97.39991181375767
 20
-142.3310193871603
 30
0.0
 10
97.43229571131901
 20
-142.5056857282625
 30
0.0
 10
97.43229571131901
 20
-142.5056857282625
 30
0.0
 10
97.6348673258517
 20
-143.5915798252132
 30
0.0
 10
97.6348673258517
 20
-143.5915798252132
 30
0.0
  0
HATCH
  5
95
330
6E
100
AcDbEntity
  8
Layer 1
 62
   114
420
    42320
100
AcDbHatch
 10
0.0
 20
0.0
 30
0.0
210
0.0
220
0.0
230
1.0
  2
SOLID
 70
     1
 71
     0
 91
        2
 92
        1
 93
        1
 72
     4
 94
        3
 73
     0
 74
     1
 95
       41
 96
       37
 40
0.0
 40
0.0
 40
0.0
 40
0.0
 40
1.0
 40
1.0
 40
1.0
 40
2.0
 40
2.0
 40
2.0
 40
3.0
 40
3.0
 40
3.0
 40
4.0
 40
4.0
 40
4.0
 40
5.0
 40
5.0
 40
5.0
 40
6.0
 40
6.0
 40
6.0
 40
7.0
 40
7.0
 40
7.0
 40
8.0
 40
8.0
 40
8.0
 40
9.0
 40
9.0
 40
9.0
 40
10.0
 40
10.0
 40
10.0
 40
11.0
 40
11.0
 40
11.0
 40
12.0
 40
12.0
 40
12.0
 40
12.0
 10
96.95136038157814
 20
-146.2250108141382
 10
96.89933943975086
 20
-145.8084987699715
 10
96.8101114666829
 20
-145.1921711876603
 10
96.70985918806213
 20
-144.6554253110584
 10
96.70985918806213
 20
-144.6554253110584
 10
95.34663490454876
 20
-137.3535454300713
 10
95.34663490454876
 20
-137.3535454300713
 10
95.34663490454876
 20
-137.3535454300713
 10
96.43252900149952
 20
-137.1509738155387
 10
96.43252900149952
 20
-137.1509738155387
 10
96.43252900149952
 20
-137.1509738155387
 10
97.1411851428154
 20
-140.9454019829928
 10
97.1411851428154
 20
-140.9454019829928
 10
97.1411851428154
 20
-140.9454019829928
 10
97.1659898303092
 20
-140.940923358862
 10
97.1659898303092
 20
-140.940923358862
 10
97.42712806809114
 20
-140.1947156767569
 10
98.04448917904791
 20
-139.6273084503362
 10
99.01807316317951
 20
-139.4454074087151
 10
100.5163451897147
 20
-139.1656656553128
 10
101.809978544426
 20
-140.2157307592169
 10
102.1400186919129
 20
-142.0530001815006
 10
102.5430948636871
 20
-144.2123860316553
 10
101.382786704255
 20
-145.539781322122
 10
100.0350653504253
 20
-145.7912732925452
 10
99.16138913536591
 20
-145.9545708185461
 10
98.39933401402864
 20
-145.7482095989796
 10
97.80092092824074
 20
-145.0330077762418
 10
97.80092092824074
 20
-145.0330077762418
 10
97.76336938745152
 20
-145.0402424767608
 10
97.76336938745152
 20
-145.0402424767608
 10
97.76336938745152
 20
-145.0402424767608
 10
97.89979516866741
 20
-146.0479329061964
 10
97.89979516866741
 20
-146.0479329061964
 10
97.89979516866741
 20
-146.0479329061964
 10
96.95136038157814
 20
-146.2250108141382
 10
96.95136038157814
 20
-146.2250108141382
 97
        0
 97
        0
 92
        1
 93
        1
 72
     4
 94
        3
 73
     0
 74
     1
 95
       26
 96
       22
 40
0.0
 40
0.0
 40
0.0
 40
0.0
 40
1.0
 40
1.0
 40
1.0
 40
2.0
 40
2.0
 40
2.0
 40
3.0
 40
3.0
 40
3.0
 40
4.0
 40
4.0
 40
4.0
 40
5.0
 40
5.0
 40
5.0
 40
6.0
 40
6.0
 40
6.0
 40
7.0
 40
7.0
 40
7.0
 40
7.0
 10
97.6348673258517
 20
-143.5915798252132
 10
97.66070554199108
 20
-143.7290391350747
 10
97.71134844562425
 20
-143.8616753112568
 10
97.75957978241775
 20
-143.981909143692
 10
98.11408010784996
 20
-144.7036566478519
 10
98.8482299557567
 20
-145.1087998769173
 10
99.64714759878613
 20
-144.9596272424059
 10
100.7953979240199
 20
-144.7453423032234
 10
101.307339113128
 20
-143.6808077982812
 10
101.0486124421858
 20
-142.2955349036622
 10
100.8226141783534
 20
-141.0849283501454
 10
100.0050930197036
 20
-140.1654323651323
 10
98.8316934974275
 20
-140.3841959284456
 10
98.08272973893418
 20
-140.5240668051468
 10
97.47949351946694
 20
-141.1665771131458
 10
97.41093611931046
 20
-142.044731952336
 10
97.40921357156785
 20
-142.1739230330329
 10
97.39991181375767
 20
-142.3310193871603
 10
97.43229571131901
 20
-142.5056857282625
 10
97.43229571131901
 20
-142.5056857282625
 10
97.6348673258517
 20
-143.5915798252132
 10
97.6348673258517
 20
-143.5915798252132
 97
        0
 97
        0
 75
     2
 76
     1
 98
        0
  0
POLYLINE
  5
96
330
6E
100
AcDbEntity
  8
Layer 1
370
     0
100
AcDb2dPolyline
 66
     1
 10
0.0
 20
0.0
 30
0.0
  0
VERTEX
  5
97
330
96
100
AcDbEntity
  8
Layer 1
370
     0
100
AcDbVertex
100
AcDb2dVertex
 10
111.3082790520341
 20
-136.9242865326092
 30
0.0
  0
VERTEX
  5
98
330
96
100
AcDbEntity
  8
Layer 1
370
     0
100
AcDbVertex
100
AcDb2dVertex
 10
115.8399576533317
 20
-137.7721245315292
 30
0.0
  0
VERTEX
  5
99
330
96
100
AcDbEntity
  8
Layer 1
370
     0
100
AcDbVertex
100
AcDb2dVertex
 10
115.6697699363603
 20
-138.6833522873778
 30
0.0
  0
VERTEX
  5
9A
330
96
100
AcDbEntity
  8
Layer 1
370
     0
100
AcDbVertex
100
AcDb2dVertex
 10
112.2239854320134
 20
-138.0387749220875
 30
0.0
  0
VERTEX
  5
9B
330
96
100
AcDbEntity
  8
Layer 1
370
     0
100
AcDbVertex
100
AcDb2dVertex
 10
111.7003309182555
 20
-140.8355034370134
 30
0.0
  0
VERTEX
  5
9C
330
96
100
AcDbEntity
  8
Layer 1
370
     0
100
AcDbVertex
100
AcDb2dVertex
 10
114.8842881657234
 20
-141.4308159368645
 30
0.0
  0
VERTEX
  5
9D
330
96
100
AcDbEntity
  8
Layer 1
370
     0
100
AcDbVertex
100
AcDb2dVertex
 10
114.7161675060432
 20
-142.3299858585147
 30
0.0
  0
VERTEX
  5
9E
330
96
100
AcDbEntity
  8
Layer 1
370
     0
100
AcDbVertex
100
AcDb2dVertex
 10
111.5322102585753
 20
-141.734328849115
 30
0.0
  0
VERTEX
  5
9F
330
96
100
AcDbEntity
  8
Layer 1
370
     0
100
AcDbVertex
100
AcDb2dVertex
 10
110.8204535313227
 20
-145.5425373985102
 30
0.0
  0
VERTEX
  5
A0
330
96
100
AcDbEntity
  8
Layer 1
370
     0
100
AcDbVertex
100
AcDb2dVertex
 10
109.7345594343719
 20
-145.3389322553319
 30
0.0
  0
VERTEX
  5
A1
330
96
100
AcDbEntity
  8
Layer 1
370
     0
100
AcDbVertex
100
AcDb2dVertex
 10
111.3082790520341
 20
-136.9242865326092
 30
0.0
  0
SEQEND
  5
A2
330
96
100
AcDbEntity
  8
Layer 1
370
     0
  0
HATCH
  5
A3
330
6E
100
AcDbEntity
  8
Layer 1
 62
   177
420
  3027090
100
AcDbHatch
 10
0.0
 20
0.0
 30
0.0
210
0.0
220
0.0
230
1.0
  2
SOLID
 70
     1
 71
     0
 91
        1
 92
        1
 93
       10
 72
     1
 10
111.3082790520341
 20
-136.9242865326092
 11
115.8399576533317
 21
-137.7721245315292
 72
     1
 10
115.8399576533317
 20
-137.7721245315292
 11
115.6697699363603
 21
-138.6833522873778
 72
     1
 10
115.6697699363603
 20
-138.6833522873778
 11
112.2239854320134
 21
-138.0387749220875
 72
     1
 10
112.2239854320134
 20
-138.0387749220875
 11
111.7003309182555
 21
-140.8355034370134
 72
     1
 10
111.7003309182555
 20
-140.8355034370134
 11
114.8842881657234
 21
-141.4308159368645
 72
     1
 10
114.8842881657234
 20
-141.4308159368645
 11
114.7161675060432
 21
-142.3299858585147
 72
     1
 10
114.7161675060432
 20
-142.3299858585147
 11
111.5322102585753
 21
-141.734328849115
 72
     1
 10
111.5322102585753
 20
-141.734328849115
 11
110.8204535313227
 21
-145.5425373985102
 72
     1
 10
110.8204535313227
 20
-145.5425373985102
 11
109.7345594343719
 21
-145.3389322553319
 72
     1
 10
109.7345594343719
 20
-145.3389322553319
 11
111.3082790520341
 21
-136.9242865326092
 97
        0
 75
     2
 76
     1
 98
        0
  0
SPLINE
  5
A4
330
6E
100
AcDbEntity
  8
Layer 1
370
     0
100
AcDbSpline
210
0.0
220
0.0
230
1.0
 70
    11
 71
     3
 72
    17
 73
    13
 74
     0
 42
0.0000000001
 43
0.0000000001
 12
1.0
 22
0.0
 32
0.0
 13
1.0
 23
0.0
 33
0.0
 40
0.0
 40
0.0
 40
0.0
 40
0.0
 40
1.0
 40
1.0
 40
1.0
 40
2.0
 40
2.0
 40
2.0
 40
3.0
 40
3.0
 40
3.0
 40
4.0
 40
4.0
 40
4.0
 40
4.0
 10
121.6277180685514
 20
-145.5652750287128
 30
0.0
 10
120.8105414194501
 20
-147.6860758094327
 30
0.0
 10
118.9853298313648
 20
-148.0436767208016
 30
0.0
 10
117.5983343890032
 20
-147.5093424110393
 30
0.0
 10
116.0466633824467
 20
-146.9109293252514
 30
0.0
 10
115.2887423756917
 20
-145.312060510547
 30
0.0
 10
115.9874077401004
 20
-143.4992512662085
 30
0.0
 10
116.727414250332
 20
-141.5799885713758
 30
0.0
 10
118.4175780953956
 20
-140.9388563015708
 30
0.0
 10
120.0050780949987
 20
-141.5507052597512
 30
0.0
 10
121.6518337369482
 20
-142.1859808672313
 30
0.0
 10
122.3043348218545
 20
-143.8117214267207
 30
0.0
 10
121.6277180685514
 20
-145.5652750287128
 30
0.0
  0
SPLINE
  5
A5
330
6E
100
AcDbEntity
  8
Layer 1
370
     0
100
AcDbSpline
210
0.0
220
0.0
230
1.0
 70
    11
 71
     3
 72
    17
 73
    13
 74
     0
 42
0.0000000001
 43
0.0000000001
 12
1.0
 22
0.0
 32
0.0
 13
1.0
 23
0.0
 33
0.0
 40
0.0
 40
0.0
 40
0.0
 40
0.0
 40
1.0
 40
1.0
 40
1.0
 40
2.0
 40
2.0
 40
2.0
 40
3.0
 40
3.0
 40
3.0
 40
4.0
 40
4.0
 40
4.0
 40
4.0
 10
117.0553873405278
 20
-143.8702880499699
 30
0.0
 10
116.5716959343987
 20
-145.1260253543435
 30
0.0
 10
116.9286078266706
 20
-146.352823856641
 30
0.0
 10
117.9476670712075
 20
-146.7455647419594
 30
0.0
 10
118.9426106473477
 20
-147.1293483790163
 30
0.0
 10
120.049864336307
 20
-146.4813259182408
 30
0.0
 10
120.5480251434741
 20
-145.1897596208206
 30
0.0
 10
120.9228515322693
 20
-144.2182426939802
 30
0.0
 10
120.9118272267165
 20
-142.7988633540572
 30
0.0
 10
119.6798610811911
 20
-142.3234401770927
 30
0.0
 10
118.4472059165688
 20
-141.8483615096768
 30
0.0
 10
117.4763780088253
 20
-142.7802598384369
 30
0.0
 10
117.0553873405278
 20
-143.8702880499699
 30
0.0
  0
HATCH
  5
A6
330
6E
100
AcDbEntity
  8
Layer 1
 62
   177
420
  3027090
100
AcDbHatch
 10
0.0
 20
0.0
 30
0.0
210
0.0
220
0.0
230
1.0
  2
SOLID
 70
     1
 71
     0
 91
        2
 92
        1
 93
        1
 72
     4
 94
        3
 73
     0
 74
     1
 95
       17
 96
       13
 40
0.0
 40
0.0
 40
0.0
 40
0.0
 40
1.0
 40
1.0
 40
1.0
 40
2.0
 40
2.0
 40
2.0
 40
3.0
 40
3.0
 40
3.0
 40
4.0
 40
4.0
 40
4.0
 40
4.0
 10
121.6277180685514
 20
-145.5652750287128
 10
120.8105414194501
 20
-147.6860758094327
 10
118.9853298313648
 20
-148.0436767208016
 10
117.5983343890032
 20
-147.5093424110393
 10
116.0466633824467
 20
-146.9109293252514
 10
115.2887423756917
 20
-145.312060510547
 10
115.9874077401004
 20
-143.4992512662085
 10
116.727414250332
 20
-141.5799885713758
 10
118.4175780953956
 20
-140.9388563015708
 10
120.0050780949987
 20
-141.5507052597512
 10
121.6518337369482
 20
-142.1859808672313
 10
122.3043348218545
 20
-143.8117214267207
 10
121.6277180685514
 20
-145.5652750287128
 97
        0
 97
        0
 92
        1
 93
        1
 72
     4
 94
        3
 73
     0
 74
     1
 95
       17
 96
       13
 40
0.0
 40
0.0
 40
0.0
 40
0.0
 40
1.0
 40
1.0
 40
1.0
 40
2.0
 40
2.0
 40
2.0
 40
3.0
 40
3.0
 40
3.0
 40
4.0
 40
4.0
 40
4.0
 40
4.0
 10
117.0553873405278
 20
-143.8702880499699
 10
116.5716959343987
 20
-145.1260253543435
 10
116.9286078266706
 20
-146.352823856641
 10
117.9476670712075
 20
-146.7455647419594
 10
118.9426106473477
 20
-147.1293483790163
 10
120.049864336307
 20
-146.4813259182408
 10
120.5480251434741
 20
-145.1897596208206
 10
120.9228515322693
 20
-144.2182426939802
 10
120.9118272267165
 20
-142.7988633540572
 10
119.6798610811911
 20
-142.3234401770927
 10
118.4472059165688
 20
-141.8483615096768
 10
117.4763780088253
 20
-142.7802598384369
 10
117.0553873405278
 20
-143.8702880499699
 97
        0
 97
        0
 75
     2
 76
     1
 98
        0
  0
SPLINE
  5
A7
330
6E
100
AcDbEntity
  8
Layer 1
370
     0
100
AcDbSpline
210
0.0
220
0.0
230
1.0
 70
    11
 71
     3
 72
    44
 73
    40
 74
     0
 42
0.0000000001
 43
0.0000000001
 12
1.0
 22
0.0
 32
0.0
 13
1.0
 23
0.0
 33
0.0
 40
0.0
 40
0.0
 40
0.0
 40
0.0
 40
1.0
 40
1.0
 40
1.0
 40
2.0
 40
2.0
 40
2.0
 40
3.0
 40
3.0
 40
3.0
 40
4.0
 40
4.0
 40
4.0
 40
5.0
 40
5.0
 40
5.0
 40
6.0
 40
6.0
 40
6.0
 40
7.0
 40
7.0
 40
7.0
 40
8.0
 40
8.0
 40
8.0
 40
9.0
 40
9.0
 40
9.0
 40
10.0
 40
10.0
 40
10.0
 40
11.0
 40
11.0
 40
11.0
 40
12.0
 40
12.0
 40
12.0
 40
13.0
 40
13.0
 40
13.0
 40
13.0
 10
123.841536427373
 20
-145.5807779583965
 30
0.0
 10
124.2094726251976
 20
-144.9572156755663
 30
0.0
 10
124.5147080851908
 20
-144.4146131366394
 30
0.0
 10
124.7724012274875
 20
-143.9030164570798
 30
0.0
 10
124.7724012274875
 20
-143.9030164570798
 30
0.0
 10
125.6143825640825
 20
-144.4001437356013
 30
0.0
 10
125.6143825640825
 20
-144.4001437356013
 30
0.0
 10
125.6143825640825
 20
-144.4001437356013
 30
0.0
 10
125.0342284843665
 20
-145.4584770686701
 30
0.0
 10
125.0342284843665
 20
-145.4584770686701
 30
0.0
 10
125.0342284843665
 20
-145.4584770686701
 30
0.0
 10
125.0783257065776
 20
-145.4843152848095
 30
0.0
 10
125.0783257065776
 20
-145.4843152848095
 30
0.0
 10
125.7384060015515
 20
-144.9155300201947
 30
0.0
 10
126.5824543954377
 20
-144.808732060152
 30
0.0
 10
127.2280652893735
 20
-145.1897596208206
 30
0.0
 10
127.3369303067074
 20
-145.2541829063948
 30
0.0
 10
127.4072102546065
 20
-145.3103379628044
 30
0.0
 10
127.482313336185
 20
-145.3837184966402
 30
0.0
 10
127.482313336185
 20
-145.3837184966402
 30
0.0
 10
126.9462564786801
 20
-146.291845666552
 30
0.0
 10
126.9462564786801
 20
-146.291845666552
 30
0.0
 10
126.8608181106459
 20
-146.2119194512942
 30
0.0
 10
126.7691785707383
 20
-146.1426730320407
 30
0.0
 10
126.6375759232017
 20
-146.0651583836226
 30
0.0
 10
125.9588921126075
 20
-145.6651827977851
 30
0.0
 10
125.1747883801646
 20
-145.8953151761998
 30
0.0
 10
124.6173719306512
 20
-146.53989254149
 30
0.0
 10
124.518153180676
 20
-146.6580593166341
 30
0.0
 10
124.4058430678569
 20
-146.7986192124323
 30
0.0
 10
124.3093803942699
 20
-146.9626057575302
 30
0.0
 10
124.3093803942699
 20
-146.9626057575302
 30
0.0
 10
122.6447102557972
 20
-149.7848279790469
 30
0.0
 10
122.6447102557972
 20
-149.7848279790469
 30
0.0
 10
122.6447102557972
 20
-149.7848279790469
 30
0.0
 10
121.6924858636741
 20
-149.2232774149511
 30
0.0
 10
121.6924858636741
 20
-149.2232774149511
 30
0.0
 10
121.6924858636741
 20
-149.2232774149511
 30
0.0
 10
123.841536427373
 20
-145.5807779583965
 30
0.0
 10
123.841536427373
 20
-145.5807779583965
 30
0.0
  0
HATCH
  5
A8
330
6E
100
AcDbEntity
  8
Layer 1
 62
   177
420
  3027090
100
AcDbHatch
 10
0.0
 20
0.0
 30
0.0
210
0.0
220
0.0
230
1.0
  2
SOLID
 70
     1
 71
     0
 91
        1
 92
        1
 93
        1
 72
     4
 94
        3
 73
     0
 74
     1
 95
       44
 96
       40
 40
0.0
 40
0.0
 40
0.0
 40
0.0
 40
1.0
 40
1.0
 40
1.0
 40
2.0
 40
2.0
 40
2.0
 40
3.0
 40
3.0
 40
3.0
 40
4.0
 40
4.0
 40
4.0
 40
5.0
 40
5.0
 40
5.0
 40
6.0
 40
6.0
 40
6.0
 40
7.0
 40
7.0
 40
7.0
 40
8.0
 40
8.0
 40
8.0
 40
9.0
 40
9.0
 40
9.0
 40
10.0
 40
10.0
 40
10.0
 40
11.0
 40
11.0
 40
11.0
 40
12.0
 40
12.0
 40
12.0
 40
13.0
 40
13.0
 40
13.0
 40
13.0
 10
123.841536427373
 20
-145.5807779583965
 10
124.2094726251976
 20
-144.9572156755663
 10
124.5147080851908
 20
-144.4146131366394
 10
124.7724012274875
 20
-143.9030164570798
 10
124.7724012274875
 20
-143.9030164570798
 10
125.6143825640825
 20
-144.4001437356013
 10
125.6143825640825
 20
-144.4001437356013
 10
125.6143825640825
 20
-144.4001437356013
 10
125.0342284843665
 20
-145.4584770686701
 10
125.0342284843665
 20
-145.4584770686701
 10
125.0342284843665
 20
-145.4584770686701
 10
125.0783257065776
 20
-145.4843152848095
 10
125.0783257065776
 20
-145.4843152848095
 10
125.7384060015515
 20
-144.9155300201947
 10
126.5824543954377
 20
-144.808732060152
 10
127.2280652893735
 20
-145.1897596208206
 10
127.3369303067074
 20
-145.2541829063948
 10
127.4072102546065
 20
-145.3103379628044
 10
127.482313336185
 20
-145.3837184966402
 10
127.482313336185
 20
-145.3837184966402
 10
126.9462564786801
 20
-146.291845666552
 10
126.9462564786801
 20
-146.291845666552
 10
126.8608181106459
 20
-146.2119194512942
 10
126.7691785707383
 20
-146.1426730320407
 10
126.6375759232017
 20
-146.0651583836226
 10
125.9588921126075
 20
-145.6651827977851
 10
125.1747883801646
 20
-145.8953151761998
 10
124.6173719306512
 20
-146.53989254149
 10
124.518153180676
 20
-146.6580593166341
 10
124.4058430678569
 20
-146.7986192124323
 10
124.3093803942699
 20
-146.9626057575302
 10
124.3093803942699
 20
-146.9626057575302
 10
122.6447102557972
 20
-149.7848279790469
 10
122.6447102557972
 20
-149.7848279790469
 10
122.6447102557972
 20
-149.7848279790469
 10
121.6924858636741
 20
-149.2232774149511
 10
121.6924858636741
 20
-149.2232774149511
 10
121.6924858636741
 20
-149.2232774149511
 10
123.841536427373
 20
-145.5807779583965
 10
123.841536427373
 20
-145.5807779583965
 97
        0
 97
        0
 75
     2
 76
     1
 98
        0
  0
SPLINE
  5
A9
330
6E
100
AcDbEntity
  8
Layer 1
370
     0
100
AcDbSpline
210
0.0
220
0.0
230
1.0
 70
    11
 71
     3
 72
    47
 73
    43
 74
     0
 42
0.0000000001
 43
0.0000000001
 12
1.0
 22
0.0
 32
0.0
 13
1.0
 23
0.0
 33
0.0
 40
0.0
 40
0.0
 40
0.0
 40
0.0
 40
1.0
 40
1.0
 40
1.0
 40
2.0
 40
2.0
 40
2.0
 40
3.0
 40
3.0
 40
3.0
 40
4.0
 40
4.0
 40
4.0
 40
5.0
 40
5.0
 40
5.0
 40
6.0
 40
6.0
 40
6.0
 40
7.0
 40
7.0
 40
7.0
 40
8.0
 40
8.0
 40
8.0
 40
9.0
 40
9.0
 40
9.0
 40
10.0
 40
10.0
 40
10.0
 40
11.0
 40
11.0
 40
11.0
 40
12.0
 40
12.0
 40
12.0
 40
13.0
 40
13.0
 40
13.0
 40
14.0
 40
14.0
 40
14.0
 40
14.0
 10
128.2319661137753
 20
-149.5484944287587
 30
0.0
 10
128.2319661137753
 20
-149.5484944287587
 30
0.0
 10
128.2512586484928
 20
-149.5646863775394
 30
0.0
 10
128.2512586484928
 20
-149.5646863775394
 30
0.0
 10
128.5061957144012
 20
-149.4940619200918
 30
0.0
 10
128.8424370337616
 20
-149.4244709912897
 30
0.0
 10
129.1166666343875
 20
-149.3700384826228
 30
0.0
 10
129.1166666343875
 20
-149.3700384826228
 30
0.0
 10
131.8555175451611
 20
-148.8711886563586
 30
0.0
 10
131.8555175451611
 20
-148.8711886563586
 30
0.0
 10
131.8555175451611
 20
-148.8711886563586
 30
0.0
 10
132.8973144199007
 20
-149.7238497889579
 30
0.0
 10
132.8973144199007
 20
-149.7238497889579
 30
0.0
 10
132.8973144199007
 20
-149.7238497889579
 30
0.0
 10
129.4584201065243
 20
-150.1751572975257
 30
0.0
 10
129.4584201065243
 20
-150.1751572975257
 30
0.0
 10
129.4584201065243
 20
-150.1751572975257
 30
0.0
 10
129.2586045683798
 20
-154.6892659118485
 30
0.0
 10
129.2586045683798
 20
-154.6892659118485
 30
0.0
 10
129.2586045683798
 20
-154.6892659118485
 30
0.0
 10
128.2078504453786
 20
-153.8283365500846
 30
0.0
 10
128.2078504453786
 20
-153.8283365500846
 30
0.0
 10
128.2078504453786
 20
-153.8283365500846
 30
0.0
 10
128.4331564456194
 20
-150.2054741377958
 30
0.0
 10
128.4331564456194
 20
-150.2054741377958
 30
0.0
 10
128.4331564456194
 20
-150.2054741377958
 30
0.0
 10
127.5884222771307
 20
-150.3346652184927
 30
0.0
 10
127.5884222771307
 20
-150.3346652184927
 30
0.0
 10
127.5884222771307
 20
-150.3346652184927
 30
0.0
 10
126.1242566958995
 20
-152.1233587944344
 30
0.0
 10
126.1242566958995
 20
-152.1233587944344
 30
0.0
 10
126.1242566958995
 20
-152.1233587944344
 30
0.0
 10
125.2691839964605
 20
-151.4233153918317
 30
0.0
 10
125.2691839964605
 20
-151.4233153918317
 30
0.0
 10
125.2691839964605
 20
-151.4233153918317
 30
0.0
 10
130.9811523110047
 20
-144.4466525246522
 30
0.0
 10
130.9811523110047
 20
-144.4466525246522
 30
0.0
 10
130.9811523110047
 20
-144.4466525246522
 30
0.0
 10
131.8355359913467
 20
-145.1463514177065
 30
0.0
 10
131.8355359913467
 20
-145.1463514177065
 30
0.0
 10
131.8355359913467
 20
-145.1463514177065
 30
0.0
 10
128.2319661137753
 20
-149.5484944287587
 30
0.0
 10
128.2319661137753
 20
-149.5484944287587
 30
0.0
  0
HATCH
  5
AA
330
6E
100
AcDbEntity
  8
Layer 1
 62
   177
420
  3027090
100
AcDbHatch
 10
0.0
 20
0.0
 30
0.0
210
0.0
220
0.0
230
1.0
  2
SOLID
 70
     1
 71
     0
 91
        1
 92
        1
 93
        1
 72
     4
 94
        3
 73
     0
 74
     1
 95
       47
 96
       43
 40
0.0
 40
0.0
 40
0.0
 40
0.0
 40
1.0
 40
1.0
 40
1.0
 40
2.0
 40
2.0
 40
2.0
 40
3.0
 40
3.0
 40
3.0
 40
4.0
 40
4.0
 40
4.0
 40
5.0
 40
5.0
 40
5.0
 40
6.0
 40
6.0
 40
6.0
 40
7.0
 40
7.0
 40
7.0
 40
8.0
 40
8.0
 40
8.0
 40
9.0
 40
9.0
 40
9.0
 40
10.0
 40
10.0
 40
10.0
 40
11.0
 40
11.0
 40
11.0
 40
12.0
 40
12.0
 40
12.0
 40
13.0
 40
13.0
 40
13.0
 40
14.0
 40
14.0
 40
14.0
 40
14.0
 10
128.2319661137753
 20
-149.5484944287587
 10
128.2319661137753
 20
-149.5484944287587
 10
128.2512586484928
 20
-149.5646863775394
 10
128.2512586484928
 20
-149.5646863775394
 10
128.5061957144012
 20
-149.4940619200918
 10
128.8424370337616
 20
-149.4244709912897
 10
129.1166666343875
 20
-149.3700384826228
 10
129.1166666343875
 20
-149.3700384826228
 10
131.8555175451611
 20
-148.8711886563586
 10
131.8555175451611
 20
-148.8711886563586
 10
131.8555175451611
 20
-148.8711886563586
 10
132.8973144199007
 20
-149.7238497889579
 10
132.8973144199007
 20
-149.7238497889579
 10
132.8973144199007
 20
-149.7238497889579
 10
129.4584201065243
 20
-150.1751572975257
 10
129.4584201065243
 20
-150.1751572975257
 10
129.4584201065243
 20
-150.1751572975257
 10
129.2586045683798
 20
-154.6892659118485
 10
129.2586045683798
 20
-154.6892659118485
 10
129.2586045683798
 20
-154.6892659118485
 10
128.2078504453786
 20
-153.8283365500846
 10
128.2078504453786
 20
-153.8283365500846
 10
128.2078504453786
 20
-153.8283365500846
 10
128.4331564456194
 20
-150.2054741377958
 10
128.4331564456194
 20
-150.2054741377958
 10
128.4331564456194
 20
-150.2054741377958
 10
127.5884222771307
 20
-150.3346652184927
 10
127.5884222771307
 20
-150.3346652184927
 10
127.5884222771307
 20
-150.3346652184927
 10
126.1242566958995
 20
-152.1233587944344
 10
126.1242566958995
 20
-152.1233587944344
 10
126.1242566958995
 20
-152.1233587944344
 10
125.2691839964605
 20
-151.4233153918317
 10
125.2691839964605
 20
-151.4233153918317
 10
125.2691839964605
 20
-151.4233153918317
 10
130.9811523110047
 20
-144.4466525246522
 10
130.9811523110047
 20
-144.4466525246522
 10
130.9811523110047
 20
-144.4466525246522
 10
131.8355359913467
 20
-145.1463514177065
 10
131.8355359913467
 20
-145.1463514177065
 10
131.8355359913467
 20
-145.1463514177065
 10
128.2319661137753
 20
-149.5484944287587
 10
128.2319661137753
 20
-149.5484944287587
 97
        0
 97
        0
 75
     2
 76
     1
 98
        0
  0
SPLINE
  5
AB
330
6E
100
AcDbEntity
  8
Layer 1
370
     0
100
AcDbSpline
210
0.0
220
0.0
230
1.0
 70
    11
 71
     3
 72
    35
 73
    31
 74
     0
 42
0.0000000001
 43
0.0000000001
 12
1.0
 22
0.0
 32
0.0
 13
1.0
 23
0.0
 33
0.0
 40
0.0
 40
0.0
 40
0.0
 40
0.0
 40
1.0
 40
1.0
 40
1.0
 40
2.0
 40
2.0
 40
2.0
 40
3.0
 40
3.0
 40
3.0
 40
4.0
 40
4.0
 40
4.0
 40
5.0
 40
5.0
 40
5.0
 40
6.0
 40
6.0
 40
6.0
 40
7.0
 40
7.0
 40
7.0
 40
8.0
 40
8.0
 40
8.0
 40
9.0
 40
9.0
 40
9.0
 40
10.0
 40
10.0
 40
10.0
 40
10.0
 10
136.2555934989222
 20
-149.8712998757266
 30
0.0
 10
136.6428222314643
 20
-150.1772243548168
 30
0.0
 10
137.1885253563279
 20
-150.7146592505158
 30
0.0
 10
137.6839300871068
 20
-151.3103162599155
 30
0.0
 10
138.390174661583
 20
-152.1595322970296
 30
0.0
 10
138.6988552170614
 20
-152.8282253307165
 30
0.0
 10
138.707808961269
 20
-153.5144883513783
 30
0.0
 10
138.7381293055932
 20
-154.0674261767609
 30
0.0
 10
138.5183322136343
 20
-154.5972818623924
 30
0.0
 10
138.0001898526527
 20
-155.0275742885001
 30
0.0
 10
137.3656032642697
 20
-155.5553629168403
 30
0.0
 10
136.4602321707461
 20
-155.598426610406
 30
0.0
 10
135.6292751397038
 20
-155.116113242471
 30
0.0
 10
135.6292751397038
 20
-155.116113242471
 30
0.0
 10
135.6099826049864
 20
-155.1326497008002
 30
0.0
 10
135.6099826049864
 20
-155.1326497008002
 30
0.0
 10
135.9730956691317
 20
-155.8874701216184
 30
0.0
 10
136.0654242281364
 20
-157.0501898478902
 30
0.0
 10
135.0890841676166
 20
-157.8621988537636
 30
0.0
 10
134.5227104698415
 20
-158.3331434065973
 30
0.0
 10
133.9060383779818
 20
-158.4657795827794
 30
0.0
 10
133.3079698017424
 20
-158.4020453163023
 30
0.0
 10
132.5059515727763
 20
-158.2921467703228
 30
0.0
 10
131.6935980573544
 20
-157.7126817097038
 30
0.0
 10
130.8006293075776
 20
-156.6385009374029
 30
0.0
 10
130.3128037868663
 20
-156.0528347049104
 30
0.0
 10
129.978629524797
 20
-155.570865846524
 30
0.0
 10
129.7822590821378
 20
-155.2552951000751
 30
0.0
 10
129.7822590821378
 20
-155.2552951000751
 30
0.0
 10
136.2555934989222
 20
-149.8712998757266
 30
0.0
 10
136.2555934989222
 20
-149.8712998757266
 30
0.0
  0
SPLINE
  5
AC
330
6E
100
AcDbEntity
  8
Layer 1
370
     0
100
AcDbSpline
210
0.0
220
0.0
230
1.0
 70
    11
 71
     3
 72
    20
 73
    16
 74
     0
 42
0.0000000001
 43
0.0000000001
 12
1.0
 22
0.0
 32
0.0
 13
1.0
 23
0.0
 33
0.0
 40
0.0
 40
0.0
 40
0.0
 40
0.0
 40
1.0
 40
1.0
 40
1.0
 40
2.0
 40
2.0
 40
2.0
 40
3.0
 40
3.0
 40
3.0
 40
4.0
 40
4.0
 40
4.0
 40
5.0
 40
5.0
 40
5.0
 40
5.0
 10
131.1134439776383
 20
-155.5849907380135
 30
0.0
 10
131.2223089949722
 20
-155.7755045183478
 30
0.0
 10
131.4159233612432
 20
-156.0276855078681
 30
0.0
 10
131.6674153316665
 20
-156.3305094010215
 30
0.0
 10
132.3977755745395
 20
-157.2090087497602
 30
0.0
 10
133.3947862079708
 20
-157.7516112886871
 30
0.0
 10
134.3511447146761
 20
-156.9557942315944
 30
0.0
 10
135.2496256172293
 20
-156.2088975303922
 30
0.0
 10
134.9788411120886
 20
-155.1285155862179
 30
0.0
 10
134.2078287424897
 20
-154.2010958815886
 30
0.0
 10
134.2078287424897
 20
-154.2010958815886
 30
0.0
 10
133.6228515290943
 20
-153.4982964025976
 30
0.0
 10
133.6228515290943
 20
-153.4982964025976
 30
0.0
 10
133.6228515290943
 20
-153.4982964025976
 30
0.0
 10
131.1134439776383
 20
-155.5849907380135
 30
0.0
 10
131.1134439776383
 20
-155.5849907380135
 30
0.0
  0
SPLINE
  5
AD
330
6E
100
AcDbEntity
  8
Layer 1
370
     0
100
AcDbSpline
210
0.0
220
0.0
230
1.0
 70
    11
 71
     3
 72
    20
 73
    16
 74
     0
 42
0.0000000001
 43
0.0000000001
 12
1.0
 22
0.0
 32
0.0
 13
1.0
 23
0.0
 33
0.0
 40
0.0
 40
0.0
 40
0.0
 40
0.0
 40
1.0
 40
1.0
 40
1.0
 40
2.0
 40
2.0
 40
2.0
 40
3.0
 40
3.0
 40
3.0
 40
4.0
 40
4.0
 40
4.0
 40
5.0
 40
5.0
 40
5.0
 40
5.0
 10
134.2677734039331
 20
-152.9622395450928
 30
0.0
 10
134.2677734039331
 20
-152.9622395450928
 30
0.0
 10
134.9092501832866
 20
-153.7335964242402
 30
0.0
 10
134.9092501832866
 20
-153.7335964242402
 30
0.0
 10
135.6561468844887
 20
-154.6317328172449
 30
0.0
 10
136.5635850353036
 20
-154.7691921271063
 30
0.0
 10
137.1981716236866
 20
-154.241403498766
 30
0.0
 10
137.9691839932855
 20
-153.5999267194125
 30
0.0
 10
137.7845268752761
 20
-152.7624240069483
 30
0.0
 10
137.0700140716353
 20
-151.903217192927
 30
0.0
 10
136.7454860769247
 20
-151.5125433648996
 30
0.0
 10
136.5291340804511
 20
-151.3123833172066
 30
0.0
 10
136.3865071273617
 20
-151.2000732043875
 30
0.0
 10
136.3865071273617
 20
-151.2000732043875
 30
0.0
 10
134.2677734039331
 20
-152.9622395450928
 30
0.0
 10
134.2677734039331
 20
-152.9622395450928
 30
0.0
  0
HATCH
  5
AE
330
6E
100
AcDbEntity
  8
Layer 1
 62
   177
420
  3027090
100
AcDbHatch
 10
0.0
 20
0.0
 30
0.0
210
0.0
220
0.0
230
1.0
  2
SOLID
 70
     1
 71
     0
 91
        3
 92
        1
 93
        1
 72
     4
 94
        3
 73
     0
 74
     1
 95
       35
 96
       31
 40
0.0
 40
0.0
 40
0.0
 40
0.0
 40
1.0
 40
1.0
 40
1.0
 40
2.0
 40
2.0
 40
2.0
 40
3.0
 40
3.0
 40
3.0
 40
4.0
 40
4.0
 40
4.0
 40
5.0
 40
5.0
 40
5.0
 40
6.0
 40
6.0
 40
6.0
 40
7.0
 40
7.0
 40
7.0
 40
8.0
 40
8.0
 40
8.0
 40
9.0
 40
9.0
 40
9.0
 40
10.0
 40
10.0
 40
10.0
 40
10.0
 10
136.2555934989222
 20
-149.8712998757266
 10
136.6428222314643
 20
-150.1772243548168
 10
137.1885253563279
 20
-150.7146592505158
 10
137.6839300871068
 20
-151.3103162599155
 10
138.390174661583
 20
-152.1595322970296
 10
138.6988552170614
 20
-152.8282253307165
 10
138.707808961269
 20
-153.5144883513783
 10
138.7381293055932
 20
-154.0674261767609
 10
138.5183322136343
 20
-154.5972818623924
 10
138.0001898526527
 20
-155.0275742885001
 10
137.3656032642697
 20
-155.5553629168403
 10
136.4602321707461
 20
-155.598426610406
 10
135.6292751397038
 20
-155.116113242471
 10
135.6292751397038
 20
-155.116113242471
 10
135.6099826049864
 20
-155.1326497008002
 10
135.6099826049864
 20
-155.1326497008002
 10
135.9730956691317
 20
-155.8874701216184
 10
136.0654242281364
 20
-157.0501898478902
 10
135.0890841676166
 20
-157.8621988537636
 10
134.5227104698415
 20
-158.3331434065973
 10
133.9060383779818
 20
-158.4657795827794
 10
133.3079698017424
 20
-158.4020453163023
 10
132.5059515727763
 20
-158.2921467703228
 10
131.6935980573544
 20
-157.7126817097038
 10
130.8006293075776
 20
-156.6385009374029
 10
130.3128037868663
 20
-156.0528347049104
 10
129.978629524797
 20
-155.570865846524
 10
129.7822590821378
 20
-155.2552951000751
 10
129.7822590821378
 20
-155.2552951000751
 10
136.2555934989222
 20
-149.8712998757266
 10
136.2555934989222
 20
-149.8712998757266
 97
        0
 97
        0
 92
        1
 93
        1
 72
     4
 94
        3
 73
     0
 74
     1
 95
       20
 96
       16
 40
0.0
 40
0.0
 40
0.0
 40
0.0
 40
1.0
 40
1.0
 40
1.0
 40
2.0
 40
2.0
 40
2.0
 40
3.0
 40
3.0
 40
3.0
 40
4.0
 40
4.0
 40
4.0
 40
5.0
 40
5.0
 40
5.0
 40
5.0
 10
131.1134439776383
 20
-155.5849907380135
 10
131.2223089949722
 20
-155.7755045183478
 10
131.4159233612432
 20
-156.0276855078681
 10
131.6674153316665
 20
-156.3305094010215
 10
132.3977755745395
 20
-157.2090087497602
 10
133.3947862079708
 20
-157.7516112886871
 10
134.3511447146761
 20
-156.9557942315944
 10
135.2496256172293
 20
-156.2088975303922
 10
134.9788411120886
 20
-155.1285155862179
 10
134.2078287424897
 20
-154.2010958815886
 10
134.2078287424897
 20
-154.2010958815886
 10
133.6228515290943
 20
-153.4982964025976
 10
133.6228515290943
 20
-153.4982964025976
 10
133.6228515290943
 20
-153.4982964025976
 10
131.1134439776383
 20
-155.5849907380135
 10
131.1134439776383
 20
-155.5849907380135
 97
        0
 97
        0
 92
        1
 93
        1
 72
     4
 94
        3
 73
     0
 74
     1
 95
       20
 96
       16
 40
0.0
 40
0.0
 40
0.0
 40
0.0
 40
1.0
 40
1.0
 40
1.0
 40
2.0
 40
2.0
 40
2.0
 40
3.0
 40
3.0
 40
3.0
 40
4.0
 40
4.0
 40
4.0
 40
5.0
 40
5.0
 40
5.0
 40
5.0
 10
134.2677734039331
 20
-152.9622395450928
 10
134.2677734039331
 20
-152.9622395450928
 10
134.9092501832866
 20
-153.7335964242402
 10
134.9092501832866
 20
-153.7335964242402
 10
135.6561468844887
 20
-154.6317328172449
 10
136.5635850353036
 20
-154.7691921271063
 10
137.1981716236866
 20
-154.241403498766
 10
137.9691839932855
 20
-153.5999267194125
 10
137.7845268752761
 20
-152.7624240069483
 10
137.0700140716353
 20
-151.903217192927
 10
136.7454860769247
 20
-151.5125433648996
 10
136.5291340804511
 20
-151.3123833172066
 10
136.3865071273617
 20
-151.2000732043875
 10
136.3865071273617
 20
-151.2000732043875
 10
134.2677734039331
 20
-152.9622395450928
 10
134.2677734039331
 20
-152.9622395450928
 97
        0
 97
        0
 75
     2
 76
     1
 98
        0
  0
SPLINE
  5
AF
330
6E
100
AcDbEntity
  8
Layer 1
370
     0
100
AcDbSpline
210
0.0
220
0.0
230
1.0
 70
    11
 71
     3
 72
    17
 73
    13
 74
     0
 42
0.0000000001
 43
0.0000000001
 12
1.0
 22
0.0
 32
0.0
 13
1.0
 23
0.0
 33
0.0
 40
0.0
 40
0.0
 40
0.0
 40
0.0
 40
1.0
 40
1.0
 40
1.0
 40
2.0
 40
2.0
 40
2.0
 40
3.0
 40
3.0
 40
3.0
 40
4.0
 40
4.0
 40
4.0
 40
4.0
 10
139.3244845571828
 20
-164.0568250457914
 30
0.0
 10
137.3153048701851
 20
-165.121015041185
 30
0.0
 10
135.7023111639911
 20
-164.1929063174587
 30
0.0
 10
135.0070908950677
 20
-162.87998042803
 30
0.0
 10
134.2278102963042
 20
-161.4092691653769
 30
0.0
 10
134.7046115114627
 20
-159.7053249383723
 30
0.0
 10
136.4223361204083
 20
-158.7954752207178
 30
0.0
 10
138.2406575175232
 20
-157.832226523042
 30
0.0
 10
139.9370225344602
 20
-158.4568223345177
 30
0.0
 10
140.73352861065
 20
-159.9609510233778
 30
0.0
 10
141.5603515271099
 20
-161.5212347686475
 30
0.0
 10
140.9857096001703
 20
-163.17660314931
 30
0.0
 10
139.3244845571828
 20
-164.0568250457914
 30
0.0
  0
SPLINE
  5
B0
330
6E
100
AcDbEntity
  8
Layer 1
370
     0
100
AcDbSpline
210
0.0
220
0.0
230
1.0
 70
    11
 71
     3
 72
    17
 73
    13
 74
     0
 42
0.0000000001
 43
0.0000000001
 12
1.0
 22
0.0
 32
0.0
 13
1.0
 23
0.0
 33
0.0
 40
0.0
 40
0.0
 40
0.0
 40
0.0
 40
1.0
 40
1.0
 40
1.0
 40
2.0
 40
2.0
 40
2.0
 40
3.0
 40
3.0
 40
3.0
 40
4.0
 40
4.0
 40
4.0
 40
4.0
 10
136.9852647226981
 20
-159.776638414917
 30
0.0
 10
135.7953287420928
 20
-160.4067463791692
 30
0.0
 10
135.259960903685
 20
-161.5670545386013
 30
0.0
 10
135.7712130736961
 20
-162.5323702935683
 30
0.0
 10
136.2707519190573
 20
-163.4749484183327
 30
0.0
 10
137.5323458857558
 20
-163.7126600068149
 30
0.0
 10
138.7553547830195
 20
-163.0642930364909
 30
0.0
 10
139.6758842966782
 20
-162.576812025328
 30
0.0
 10
140.5991698867252
 20
-161.4981526288963
 30
0.0
 10
139.9811197566714
 20
-160.3309542784937
 30
0.0
 10
139.3623806075205
 20
-159.163755928091
 30
0.0
 10
138.017415330079
 20
-159.2292127423108
 30
0.0
 10
136.9852647226981
 20
-159.776638414917
 30
0.0
  0
HATCH
  5
B1
330
6E
100
AcDbEntity
  8
Layer 1
 62
   177
420
  3027090
100
AcDbHatch
 10
0.0
 20
0.0
 30
0.0
210
0.0
220
0.0
230
1.0
  2
SOLID
 70
     1
 71
     0
 91
        2
 92
        1
 93
        1
 72
     4
 94
        3
 73
     0
 74
     1
 95
       17
 96
       13
 40
0.0
 40
0.0
 40
0.0
 40
0.0
 40
1.0
 40
1.0
 40
1.0
 40
2.0
 40
2.0
 40
2.0
 40
3.0
 40
3.0
 40
3.0
 40
4.0
 40
4.0
 40
4.0
 40
4.0
 10
139.3244845571828
 20
-164.0568250457914
 10
137.3153048701851
 20
-165.121015041185
 10
135.7023111639911
 20
-164.1929063174587
 10
135.0070908950677
 20
-162.87998042803
 10
134.2278102963042
 20
-161.4092691653769
 10
134.7046115114627
 20
-159.7053249383723
 10
136.4223361204083
 20
-158.7954752207178
 10
138.2406575175232
 20
-157.832226523042
 10
139.9370225344602
 20
-158.4568223345177
 10
140.73352861065
 20
-159.9609510233778
 10
141.5603515271099
 20
-161.5212347686475
 10
140.9857096001703
 20
-163.17660314931
 10
139.3244845571828
 20
-164.0568250457914
 97
        0
 97
        0
 92
        1
 93
        1
 72
     4
 94
        3
 73
     0
 74
     1
 95
       17
 96
       13
 40
0.0
 40
0.0
 40
0.0
 40
0.0
 40
1.0
 40
1.0
 40
1.0
 40
2.0
 40
2.0
 40
2.0
 40
3.0
 40
3.0
 40
3.0
 40
4.0
 40
4.0
 40
4.0
 40
4.0
 10
136.9852647226981
 20
-159.776638414917
 10
135.7953287420928
 20
-160.4067463791692
 10
135.259960903685
 20
-161.5670545386013
 10
135.7712130736961
 20
-162.5323702935683
 10
136.2707519190573
 20
-163.4749484183327
 10
137.5323458857558
 20
-163.7126600068149
 10
138.7553547830195
 20
-163.0642930364909
 10
139.6758842966782
 20
-162.576812025328
 10
140.5991698867252
 20
-161.4981526288963
 10
139.9811197566714
 20
-160.3309542784937
 10
139.3623806075205
 20
-159.163755928091
 10
138.017415330079
 20
-159.2292127423108
 10
136.9852647226981
 20
-159.776638414917
 97
        0
 97
        0
 75
     2
 76
     1
 98
        0
  0
SPLINE
  5
B2
330
6E
100
AcDbEntity
  8
Layer 1
370
     0
100
AcDbSpline
210
0.0
220
0.0
230
1.0
 70
    11
 71
     3
 72
    56
 73
    52
 74
     0
 42
0.0000000001
 43
0.0000000001
 12
1.0
 22
0.0
 32
0.0
 13
1.0
 23
0.0
 33
0.0
 40
0.0
 40
0.0
 40
0.0
 40
0.0
 40
1.0
 40
1.0
 40
1.0
 40
2.0
 40
2.0
 40
2.0
 40
3.0
 40
3.0
 40
3.0
 40
4.0
 40
4.0
 40
4.0
 40
5.0
 40
5.0
 40
5.0
 40
6.0
 40
6.0
 40
6.0
 40
7.0
 40
7.0
 40
7.0
 40
8.0
 40
8.0
 40
8.0
 40
9.0
 40
9.0
 40
9.0
 40
10.0
 40
10.0
 40
10.0
 40
11.0
 40
11.0
 40
11.0
 40
12.0
 40
12.0
 40
12.0
 40
13.0
 40
13.0
 40
13.0
 40
14.0
 40
14.0
 40
14.0
 40
15.0
 40
15.0
 40
15.0
 40
16.0
 40
16.0
 40
16.0
 40
17.0
 40
17.0
 40
17.0
 40
17.0
 10
144.9014051287052
 20
-165.6212429056433
 30
0.0
 10
144.9014051287052
 20
-165.6212429056433
 30
0.0
 10
143.2270887228738
 20
-166.1807264124479
 30
0.0
 10
143.2270887228738
 20
-166.1807264124479
 30
0.0
 10
143.2270887228738
 20
-166.1807264124479
 30
0.0
 10
143.7342067783026
 20
-167.6989799927975
 30
0.0
 10
143.7342067783026
 20
-167.6989799927975
 30
0.0
 10
143.7342067783026
 20
-167.6989799927975
 30
0.0
 10
142.9273654156571
 20
-167.9687309692926
 30
0.0
 10
142.9273654156571
 20
-167.9687309692926
 30
0.0
 10
142.9273654156571
 20
-167.9687309692926
 30
0.0
 10
142.4195583411312
 20
-166.4508218984915
 30
0.0
 10
142.4195583411312
 20
-166.4508218984915
 30
0.0
 10
142.4195583411312
 20
-166.4508218984915
 30
0.0
 10
139.2755642012922
 20
-167.5015760214927
 30
0.0
 10
139.2755642012922
 20
-167.5015760214927
 30
0.0
 10
138.5527831684868
 20
-167.7430772150087
 30
0.0
 10
138.2117187154471
 20
-168.0848306871455
 30
0.0
 10
138.4087781772034
 20
-168.6753200533173
 30
0.0
 10
138.5011067362081
 20
-168.9523057303314
 30
0.0
 10
138.6058376389597
 20
-169.1448865679568
 30
0.0
 10
138.6864528733145
 20
-169.2654649099406
 30
0.0
 10
138.6864528733145
 20
-169.2654649099406
 30
0.0
 10
137.907172274551
 20
-169.5796576181954
 30
0.0
 10
137.907172274551
 20
-169.5796576181954
 30
0.0
 10
137.7542100350059
 20
-169.4029242198021
 30
0.0
 10
137.5854003562287
 20
-169.0976887598089
 30
0.0
 10
137.4489745750128
 20
-168.6880669066127
 30
0.0
 10
137.2836099917208
 20
-168.1940402140279
 30
0.0
 10
137.3077256601175
 20
-167.7441107436543
 30
0.0
 10
137.5123643319414
 20
-167.3944335519014
 30
0.0
 10
137.7245822138327
 20
-166.9889458132875
 30
0.0
 10
138.2062065626707
 20
-166.7071370025941
 30
0.0
 10
138.8931586024295
 20
-166.4776936432764
 30
0.0
 10
138.8931586024295
 20
-166.4776936432764
 30
0.0
 10
142.0736707544121
 20
-165.4145371765283
 30
0.0
 10
142.0736707544121
 20
-165.4145371765283
 30
0.0
 10
142.0736707544121
 20
-165.4145371765283
 30
0.0
 10
141.7711913708072
 20
-164.5112331402958
 30
0.0
 10
141.7711913708072
 20
-164.5112331402958
 30
0.0
 10
141.7711913708072
 20
-164.5112331402958
 30
0.0
 10
142.5787217525498
 20
-164.2414821638008
 30
0.0
 10
142.5787217525498
 20
-164.2414821638008
 30
0.0
 10
142.5787217525498
 20
-164.2414821638008
 30
0.0
 10
142.8805121170577
 20
-165.1447862000333
 30
0.0
 10
142.8805121170577
 20
-165.1447862000333
 30
0.0
 10
142.8805121170577
 20
-165.1447862000333
 30
0.0
 10
144.2785318649721
 20
-164.6779757617819
 30
0.0
 10
144.2785318649721
 20
-164.6779757617819
 30
0.0
 10
144.2785318649721
 20
-164.6779757617819
 30
0.0
 10
144.9014051287052
 20
-165.6212429056433
 30
0.0
 10
144.9014051287052
 20
-165.6212429056433
 30
0.0
  0
HATCH
  5
B3
330
6E
100
AcDbEntity
  8
Layer 1
 62
   177
420
  3027090
100
AcDbHatch
 10
0.0
 20
0.0
 30
0.0
210
0.0
220
0.0
230
1.0
  2
SOLID
 70
     1
 71
     0
 91
        1
 92
        1
 93
        1
 72
     4
 94
        3
 73
     0
 74
     1
 95
       56
 96
       52
 40
0.0
 40
0.0
 40
0.0
 40
0.0
 40
1.0
 40
1.0
 40
1.0
 40
2.0
 40
2.0
 40
2.0
 40
3.0
 40
3.0
 40
3.0
 40
4.0
 40
4.0
 40
4.0
 40
5.0
 40
5.0
 40
5.0
 40
6.0
 40
6.0
 40
6.0
 40
7.0
 40
7.0
 40
7.0
 40
8.0
 40
8.0
 40
8.0
 40
9.0
 40
9.0
 40
9.0
 40
10.0
 40
10.0
 40
10.0
 40
11.0
 40
11.0
 40
11.0
 40
12.0
 40
12.0
 40
12.0
 40
13.0
 40
13.0
 40
13.0
 40
14.0
 40
14.0
 40
14.0
 40
15.0
 40
15.0
 40
15.0
 40
16.0
 40
16.0
 40
16.0
 40
17.0
 40
17.0
 40
17.0
 40
17.0
 10
144.9014051287052
 20
-165.6212429056433
 10
144.9014051287052
 20
-165.6212429056433
 10
143.2270887228738
 20
-166.1807264124479
 10
143.2270887228738
 20
-166.1807264124479
 10
143.2270887228738
 20
-166.1807264124479
 10
143.7342067783026
 20
-167.6989799927975
 10
143.7342067783026
 20
-167.6989799927975
 10
143.7342067783026
 20
-167.6989799927975
 10
142.9273654156571
 20
-167.9687309692926
 10
142.9273654156571
 20
-167.9687309692926
 10
142.9273654156571
 20
-167.9687309692926
 10
142.4195583411312
 20
-166.4508218984915
 10
142.4195583411312
 20
-166.4508218984915
 10
142.4195583411312
 20
-166.4508218984915
 10
139.2755642012922
 20
-167.5015760214927
 10
139.2755642012922
 20
-167.5015760214927
 10
138.5527831684868
 20
-167.7430772150087
 10
138.2117187154471
 20
-168.0848306871455
 10
138.4087781772034
 20
-168.6753200533173
 10
138.5011067362081
 20
-168.9523057303314
 10
138.6058376389597
 20
-169.1448865679568
 10
138.6864528733145
 20
-169.2654649099406
 10
138.6864528733145
 20
-169.2654649099406
 10
137.907172274551
 20
-169.5796576181954
 10
137.907172274551
 20
-169.5796576181954
 10
137.7542100350059
 20
-169.4029242198021
 10
137.5854003562287
 20
-169.0976887598089
 10
137.4489745750128
 20
-168.6880669066127
 10
137.2836099917208
 20
-168.1940402140279
 10
137.3077256601175
 20
-167.7441107436543
 10
137.5123643319414
 20
-167.3944335519014
 10
137.7245822138327
 20
-166.9889458132875
 10
138.2062065626707
 20
-166.7071370025941
 10
138.8931586024295
 20
-166.4776936432764
 10
138.8931586024295
 20
-166.4776936432764
 10
142.0736707544121
 20
-165.4145371765283
 10
142.0736707544121
 20
-165.4145371765283
 10
142.0736707544121
 20
-165.4145371765283
 10
141.7711913708072
 20
-164.5112331402958
 10
141.7711913708072
 20
-164.5112331402958
 10
141.7711913708072
 20
-164.5112331402958
 10
142.5787217525498
 20
-164.2414821638008
 10
142.5787217525498
 20
-164.2414821638008
 10
142.5787217525498
 20
-164.2414821638008
 10
142.8805121170577
 20
-165.1447862000333
 10
142.8805121170577
 20
-165.1447862000333
 10
142.8805121170577
 20
-165.1447862000333
 10
144.2785318649721
 20
-164.6779757617819
 10
144.2785318649721
 20
-164.6779757617819
 10
144.2785318649721
 20
-164.6779757617819
 10
144.9014051287052
 20
-165.6212429056433
 10
144.9014051287052
 20
-165.6212429056433
 97
        0
 97
        0
 75
     2
 76
     1
 98
        0
  0
ENDBLK
  5
71
330
6E
100
AcDbEntity
  8
0
100
AcDbBlockEnd
  0
ENDSEC
  0
SECTION
  2
ENTITIES
  0
SPLINE
  5
41
330
1F
100
AcDbEntity
  8
Layer 1
 62
   250
420
  2301728
370
    35
100
AcDbSpline
210
0.0
220
0.0
230
1.0
 70
    11
 71
     3
 72
    17
 73
    13
 74
     0
 42
0.0000000001
 43
0.0000000001
 12
1.0
 22
0.0
 32
0.0
 13
1.0
 23
0.0
 33
0.0
 40
0.0
 40
0.0
 40
0.0
 40
0.0
 40
1.0
 40
1.0
 40
1.0
 40
2.0
 40
2.0
 40
2.0
 40
3.0
 40
3.0
 40
3.0
 40
4.0
 40
4.0
 40
4.0
 40
4.0
 10
155.7207446419209
 20
-71.29113473395154
 30
0.0
 10
155.7207446419209
 20
-98.90537221704813
 30
0.0
 10
133.3349821375173
 20
-121.2911347214514
 30
0.0
 10
105.7207446544207
 20
-121.2911347214514
 30
0.0
 10
78.10650717132476
 20
-121.2911347214514
 30
0.0
 10
55.72074466692118
 20
-98.90537221704813
 30
0.0
 10
55.72074466692118
 20
-71.29113473395154
 30
0.0
 10
55.72074466692118
 20
-43.67689725085494
 30
0.0
 10
78.10650717132476
 20
-21.29113474645167
 30
0.0
 10
105.7207446544207
 20
-21.29113474645167
 30
0.0
 10
133.3349821375173
 20
-21.29113474645167
 30
0.0
 10
155.7207446419209
 20
-43.67689725085494
 30
0.0
 10
155.7207446419209
 20
-71.29113473395154
 30
0.0
  0
INSERT
  5
43
330
1F
100
AcDbEntity
  8
Layer 1
100
AcDbBlockReference
  2
block 2
 10
0.0
 20
0.0
 30
0.0
  0
INSERT
  5
51
330
1F
100
AcDbEntity
  8
Layer 1
100
AcDbBlockReference
  2
block 3
 10
0.0
 20
0.0
 30
0.0
  0
INSERT
  5
65
330
1F
100
AcDbEntity
  8
Layer 1
100
AcDbBlockReference
  2
block 4
 10
0.0
 20
0.0
 30
0.0
  0
SPLINE
  5
B4
330
1F
100
AcDbEntity
  8
Layer 1
 62
   250
420
  2301728
370
    35
100
AcDbSpline
210
0.0
220
0.0
230
1.0
 70
    11
 71
     3
 72
    17
 73
    13
 74
     0
 42
0.0000000001
 43
0.0000000001
 12
1.0
 22
0.0
 32
0.0
 13
1.0
 23
0.0
 33
0.0
 40
0.0
 40
0.0
 40
0.0
 40
0.0
 40
1.0
 40
1.0
 40
1.0
 40
2.0
 40
2.0
 40
2.0
 40
3.0
 40
3.0
 40
3.0
 40
4.0
 40
4.0
 40
4.0
 40
4.0
 10
109.7207446534211
 20
-71.29113473395057
 30
0.0
 10
109.7207446534211
 20
-73.50027373289579
 30
0.0
 10
107.9298836530682
 20
-75.29113473348933
 30
0.0
 10
105.7207446544207
 20
-75.29113473348933
 30
0.0
 10
103.5116056557729
 20
-75.29113473348933
 30
0.0
 10
101.720744655421
 20
-73.50027373289579
 30
0.0
 10
101.720744655421
 20
-71.29113473395057
 30
0.0
 10
101.720744655421
 20
-69.08199573500535
 30
0.0
 10
103.5116056557729
 20
-67.29113473441181
 30
0.0
 10
105.7207446544207
 20
-67.29113473441181
 30
0.0
 10
107.9298836530682
 20
-67.29113473441181
 30
0.0
 10
109.7207446534211
 20
-69.08199573500535
 30
0.0
 10
109.7207446534211
 20
-71.29113473395057
 30
0.0
  0
SPLINE
  5
B5
330
1F
100
AcDbEntity
  8
Layer 1
370
     0
100
AcDbSpline
210
0.0
220
0.0
230
1.0
 70
    11
 71
     3
 72
    17
 73
    13
 74
     0
 42
0.0000000001
 43
0.0000000001
 12
1.0
 22
0.0
 32
0.0
 13
1.0
 23
0.0
 33
0.0
 40
0.0
 40
0.0
 40
0.0
 40
0.0
 40
1.0
 40
1.0
 40
1.0
 40
2.0
 40
2.0
 40
2.0
 40
3.0
 40
3.0
 40
3.0
 40
4.0
 40
4.0
 40
4.0
 40
4.0
 10
109.7207446534205
 20
-178.4711583478193
 30
0.0
 10
109.7207446534205
 20
-180.6802973467651
 30
0.0
 10
107.9298836530682
 20
-182.471158347358
 30
0.0
 10
105.7207446544207
 20
-182.471158347358
 30
0.0
 10
103.5116056557733
 20
-182.471158347358
 30
0.0
 10
101.7207446554207
 20
-180.6802973467651
 30
0.0
 10
101.7207446554207
 20
-178.4711583478193
 30
0.0
 10
101.7207446554207
 20
-176.2620193488734
 30
0.0
 10
103.5116056557733
 20
-174.4711583482805
 30
0.0
 10
105.7207446544207
 20
-174.4711583482805
 30
0.0
 10
107.9298836530682
 20
-174.4711583482805
 30
0.0
 10
109.7207446534205
 20
-176.2620193488734
 30
0.0
 10
109.7207446534205
 20
-178.4711583478193
 30
0.0
  0
SPLINE
  5
B6
330
1F
100
AcDbEntity
  8
Layer 1
 62
   250
420
  2301728
370
    35
100
AcDbSpline
210
0.0
220
0.0
230
1.0
 70
    11
 71
     3
 72
    17
 73
    13
 74
     0
 42
0.0000000001
 43
0.0000000001
 12
1.0
 22
0.0
 32
0.0
 13
1.0
 23
0.0
 33
0.0
 40
0.0
 40
0.0
 40
0.0
 40
0.0
 40
1.0
 40
1.0
 40
1.0
 40
2.0
 40
2.0
 40
2.0
 40
3.0
 40
3.0
 40
3.0
 40
4.0
 40
4.0
 40
4.0
 40
4.0
 10
109.7207446534205
 20
-178.4711583478193
 30
0.0
 10
109.7207446534205
 20
-180.6802973464667
 30
0.0
 10
107.9298836530682
 20
-182.471158346819
 30
0.0
 10
105.7207446544207
 20
-182.471158346819
 30
0.0
 10
103.5116056557729
 20
-182.471158346819
 30
0.0
 10
101.7207446554207
 20
-180.6802973464667
 30
0.0
 10
101.7207446554207
 20
-178.4711583478193
 30
0.0
 10
101.7207446554207
 20
-176.2620193491718
 30
0.0
 10
103.5116056557729
 20
-174.4711583488195
 30
0.0
 10
105.7207446544207
 20
-174.4711583488195
 30
0.0
 10
107.9298836530682
 20
-174.4711583488195
 30
0.0
 10
109.7207446534205
 20
-176.2620193491718
 30
0.0
 10
109.7207446534205
 20
-178.4711583478193
 30
0.0
  0
ENDSEC
  0
SECTION
  2
OBJECTS
  0
DICTIONARY
  5
C
330
0
100
AcDbDictionary
281
     1
  3
ACAD_GROUP
350
D
  3
ACAD_IMAGE_DICT
350
69
  3
ACAD_IMAGE_VARS
350
6B
  3
ACAD_LAYOUT
350
1A
  3
ACAD_MATERIAL
350
3B
  3
ACAD_MLEADERSTYLE
350
B8
  3
ACAD_MLINESTYLE
350
17
  3
ACAD_PLOTSETTINGS
350
19
  3
ACAD_PLOTSTYLENAME
350
E
  3
ACAD_TABLESTYLE
350
B7
  3
ACAD_VISUALSTYLE
350
2A
  0
SUN
  5
3F
330
29
100
AcDbSun
 90
        1
290
     0
 63
     7
421
 16777215
 40
1.0
291
     1
 91
  2455826
 92
 54000000
292
     0
 70
     2
 71
   256
280
     1
  0
IMAGEDEF_REACTOR
  5
6D
330
6C
100
AcDbRasterImageDefReactor
 90
        2
330
6C
  0
DICTIONARY
  5
D
102
{ACAD_REACTORS
330
C
102
}
330
C
100
AcDbDictionary
281
     1
  0
DICTIONARY
  5
69
102
{ACAD_REACTORS
330
C
102
}
330
C
100
AcDbDictionary
281
     1
  3
C:\Users\Ivan\Desktop\wheel_logo_1.png
350
6A
  0
RASTERVARIABLES
  5
6B
102
{ACAD_REACTORS
330
C
102
}
330
C
100
AcDbRasterVariables
 90
        0
 70
     0
 71
     1
 72
     0
  0
DICTIONARY
  5
1A
102
{ACAD_REACTORS
330
C
102
}
330
C
100
AcDbDictionary
281
     1
  3
Layout1
350
1E
  3
Layout2
350
26
  3
Model
350
22
  0
DICTIONARY
  5
3B
102
{ACAD_REACTORS
330
C
102
}
330
C
100
AcDbDictionary
281
     1
  3
ByBlock
350
3D
  3
ByLayer
350
3C
  3
Global
350
3E
  0
DICTIONARY
  5
B8
102
{ACAD_REACTORS
330
C
102
}
330
C
100
AcDbDictionary
281
     1
  0
DICTIONARY
  5
17
102
{ACAD_REACTORS
330
C
102
}
330
C
100
AcDbDictionary
281
     1
  3
Standard
350
18
  0
DICTIONARY
  5
19
102
{ACAD_REACTORS
330
C
102
}
330
C
100
AcDbDictionary
281
     1
  0
ACDBDICTIONARYWDFLT
  5
E
102
{ACAD_REACTORS
330
C
102
}
330
C
100
AcDbDictionary
281
     1
  3
Normal
350
F
100
AcDbDictionaryWithDefault
340
F
  0
DICTIONARY
  5
B7
102
{ACAD_REACTORS
330
C
102
}
330
C
100
AcDbDictionary
281
     1
  0
DICTIONARY
  5
2A
102
{ACAD_REACTORS
330
C
102
}
330
C
100
AcDbDictionary
281
     1
  3
2dWireframe
350
2F
  3
3D Hidden
350
31
  3
3dWireframe
350
30
  3
Basic
350
32
  3
Brighten
350
36
  3
ColorChange
350
3A
  3
Conceptual
350
34
  3
Dim
350
35
  3
Facepattern
350
39
  3
Flat
350
2B
  3
FlatWithEdges
350
2C
  3
Gouraud
350
2D
  3
GouraudWithEdges
350
2E
  3
Linepattern
350
38
  3
Realistic
350
33
  3
Thicken
350
37
  0
IMAGEDEF
  5
6A
102
{ACAD_REACTORS
330
69
330
6D
102
}
330
69
100
AcDbRasterImageDef
 90
        0
  1
C:\Users\Ivan\Desktop\wheel_logo_1.png
 10
1194.0
 20
1205.0
 11
0.3527777777777777
 21
0.3527777777777777
280
     1
281
     5
  0
LAYOUT
  5
1E
102
{ACAD_REACTORS
330
1A
102
}
330
1A
100
AcDbPlotSettings
  1

  2
none_device
  4

  6

 40
0.0
 41
0.0
 42
0.0
 43
0.0
 44
0.0
 45
0.0
 46
0.0
 47
0.0
 48
0.0
 49
0.0
140
0.0
141
0.0
142
1.0
143
1.0
 70
   688
 72
     0
 73
     0
 74
     5
  7

 75
    16
 76
     0
 77
     2
 78
   300
147
1.0
148
0.0
149
0.0
100
AcDbLayout
  1
Layout1
 70
     1
 71
     1
 10
0.0
 20
0.0
 11
12.0
 21
9.0
 12
0.0
 22
0.0
 32
0.0
 14
1.000000000000000E+20
 24
1.000000000000000E+20
 34
1.000000000000000E+20
 15
-1.000000000000000E+20
 25
-1.000000000000000E+20
 35
-1.000000000000000E+20
146
0.0
 13
0.0
 23
0.0
 33
0.0
 16
1.0
 26
0.0
 36
0.0
 17
0.0
 27
1.0
 37
0.0
 76
     0
330
1B
  0
LAYOUT
  5
26
102
{ACAD_REACTORS
330
1A
102
}
330
1A
100
AcDbPlotSettings
  1

  2
none_device
  4

  6

 40
0.0
 41
0.0
 42
0.0
 43
0.0
 44
0.0
 45
0.0
 46
0.0
 47
0.0
 48
0.0
 49
0.0
140
0.0
141
0.0
142
1.0
143
1.0
 70
   688
 72
     0
 73
     0
 74
     5
  7

 75
    16
 76
     0
 77
     2
 78
   300
147
1.0
148
0.0
149
0.0
100
AcDbLayout
  1
Layout2
 70
     1
 71
     2
 10
0.0
 20
0.0
 11
0.0
 21
0.0
 12
0.0
 22
0.0
 32
0.0
 14
0.0
 24
0.0
 34
0.0
 15
0.0
 25
0.0
 35
0.0
146
0.0
 13
0.0
 23
0.0
 33
0.0
 16
1.0
 26
0.0
 36
0.0
 17
0.0
 27
1.0
 37
0.0
 76
     0
330
23
  0
LAYOUT
  5
22
102
{ACAD_REACTORS
330
1A
102
}
330
1A
100
AcDbPlotSettings
  1

  2
none_device
  4

  6

 40
0.0
 41
0.0
 42
0.0
 43
0.0
 44
0.0
 45
0.0
 46
0.0
 47
0.0
 48
0.0
 49
0.0
140
0.0
141
0.0
142
1.0
143
1.0
 70
  1712
 72
     0
 73
     0
 74
     0
  7

 75
     0
 76
     0
 77
     2
 78
   300
147
1.0
148
0.0
149
0.0
100
AcDbLayout
  1
Model
 70
     1
 71
     0
 10
0.0
 20
0.0
 11
12.0
 21
9.0
 12
0.0
 22
0.0
 32
0.0
 14
1.000000000000000E+20
 24
1.000000000000000E+20
 34
1.000000000000000E+20
 15
-1.000000000000000E+20
 25
-1.000000000000000E+20
 35
-1.000000000000000E+20
146
0.0
 13
0.0
 23
0.0
 33
0.0
 16
1.0
 26
0.0
 36
0.0
 17
0.0
 27
1.0
 37
0.0
 76
     0
330
1F
331
29
  0
MATERIAL
  5
3D
102
{ACAD_REACTORS
330
3B
102
}
330
3B
100
AcDbMaterial
  1
ByBlock
 72
     1
 94
      127
  0
MATERIAL
  5
3C
102
{ACAD_REACTORS
330
3B
102
}
330
3B
100
AcDbMaterial
  1
ByLayer
 72
     1
 94
      127
  0
MATERIAL
  5
3E
102
{ACAD_REACTORS
330
3B
102
}
330
3B
100
AcDbMaterial
  1
Global
 72
     1
 94
      127
  0
MLINESTYLE
  5
18
102
{ACAD_REACTORS
330
17
102
}
330
17
100
AcDbMlineStyle
  2
Standard
 70
     0
  3

 62
   256
 51
90.0
 52
90.0
 71
     2
 49
0.5
 62
   256
  6
BYLAYER
 49
-0.5
 62
   256
  6
BYLAYER
  0
ACDBPLACEHOLDER
  5
F
102
{ACAD_REACTORS
330
E
102
}
330
E
  0
VISUALSTYLE
  5
2F
102
{ACAD_REACTORS
330
2A
102
}
330
2A
100
AcDbVisualStyle
  2
2dWireframe
 70
     4
177
     2
291
     0
 71
     0
176
     1
 72
     2
176
     1
 73
     0
176
     1
 90
        0
176
     1
 40
-0.6
176
     1
 41
-30.0
176
     1
 62
     5
 63
     7
421
 16777215
176
     1
 74
     1
176
     1
 91
        4
176
     1
 64
     7
176
     1
 65
   257
176
     1
 75
     1
176
     1
175
     1
176
     1
 42
1.0
176
     1
 92
        0
176
     1
 66
   257
176
     1
 43
1.0
176
     1
 76
     1
176
     1
 77
     6
176
     1
 78
     2
176
     1
 67
     7
176
     1
 79
     5
176
     1
170
     0
176
     1
171
     0
176
     1
290
     0
176
     1
 93
        1
176
     1
 44
0.0
176
     1
173
     0
176
     1
  0
VISUALSTYLE
  5
31
102
{ACAD_REACTORS
330
2A
102
}
330
2A
100
AcDbVisualStyle
  2
3D Hidden
 70
     6
177
     2
291
     0
 71
     1
176
     1
 72
     2
176
     1
 73
     2
176
     1
 90
        0
176
     1
 40
-0.6
176
     1
 41
-30.0
176
     1
 62
     5
 63
     7
421
 16777215
176
     1
 74
     2
176
     1
 91
        2
176
     1
 64
     7
176
     1
 65
   257
176
     1
 75
     2
176
     1
175
     1
176
     1
 42
40.0
176
     1
 92
        0
176
     1
 66
   257
176
     1
 43
1.0
176
     1
 76
     1
176
     1
 77
     6
176
     1
 78
     2
176
     1
 67
     7
176
     1
 79
     3
176
     1
170
     0
176
     1
171
     0
176
     1
290
     0
176
     1
 93
        1
176
     1
 44
0.0
176
     1
173
     0
176
     1
  0
VISUALSTYLE
  5
30
102
{ACAD_REACTORS
330
2A
102
}
330
2A
100
AcDbVisualStyle
  2
3dWireframe
 70
     5
177
     2
291
     0
 71
     0
176
     1
 72
     2
176
     1
 73
     0
176
     1
 90
        0
176
     1
 40
-0.6
176
     1
 41
-30.0
176
     1
 62
     5
 63
     7
421
 16777215
176
     1
 74
     1
176
     1
 91
        4
176
     1
 64
     7
176
     1
 65
   257
176
     1
 75
     1
176
     1
175
     1
176
     1
 42
1.0
176
     1
 92
        0
176
     1
 66
   257
176
     1
 43
1.0
176
     1
 76
     1
176
     1
 77
     6
176
     1
 78
     2
176
     1
 67
     7
176
     1
 79
     5
176
     1
170
     0
176
     1
171
     0
176
     1
290
     0
176
     1
 93
        1
176
     1
 44
0.0
176
     1
173
     0
176
     1
  0
VISUALSTYLE
  5
32
102
{ACAD_REACTORS
330
2A
102
}
330
2A
100
AcDbVisualStyle
  2
Basic
 70
     7
177
     2
291
     1
 71
     1
176
     1
 72
     0
176
     1
 73
     1
176
     1
 90
        0
176
     1
 40
-0.6
176
     1
 41
-30.0
176
     1
 62
     5
 63
     7
421
 16777215
176
     1
 74
     0
176
     1
 91
        4
176
     1
 64
     7
176
     1
 65
   257
176
     1
 75
     1
176
     1
175
     1
176
     1
 42
1.0
176
     1
 92
        8
176
     1
 66
     7
176
     1
 43
1.0
176
     1
 76
     1
176
     1
 77
     6
176
     1
 78
     2
176
     1
 67
     7
176
     1
 79
     5
176
     1
170
     0
176
     1
171
     0
176
     1
290
     0
176
     1
 93
        1
176
     1
 44
0.0
176
     1
173
     0
176
     1
  0
VISUALSTYLE
  5
36
102
{ACAD_REACTORS
330
2A
102
}
330
2A
100
AcDbVisualStyle
  2
Brighten
 70
    12
177
     2
291
     1
 71
     2
176
     1
 72
     2
176
     1
 73
     0
176
     1
 90
        0
176
     1
 40
-0.6
176
     1
 41
-30.0
176
     1
 62
     5
 63
     7
421
 16777215
176
     1
 74
     1
176
     1
 91
        4
176
     1
 64
     7
176
     1
 65
   257
176
     1
 75
     1
176
     1
175
     1
176
     1
 42
1.0
176
     1
 92
        8
176
     1
 66
     7
176
     1
 43
1.0
176
     1
 76
     1
176
     1
 77
     6
176
     1
 78
     2
176
     1
 67
     7
176
     1
 79
     5
176
     1
170
     0
176
     1
171
     0
176
     1
290
     0
176
     1
 93
        1
176
     1
 44
50.0
176
     1
173
     0
176
     1
  0
VISUALSTYLE
  5
3A
102
{ACAD_REACTORS
330
2A
102
}
330
2A
100
AcDbVisualStyle
  2
ColorChange
 70
    16
177
     2
291
     1
 71
     2
176
     1
 72
     2
176
     1
 73
     3
176
     1
 90
        0
176
     1
 40
-0.6
176
     1
 41
-30.0
176
     1
 62
     5
 63
     8
421
  8421504
176
     1
 74
     1
176
     1
 91
        4
176
     1
 64
     7
176
     1
 65
   257
176
     1
 75
     1
176
     1
175
     1
176
     1
 42
1.0
176
     1
 92
        8
176
     1
 66
     8
424
  8421504
176
     1
 43
1.0
176
     1
 76
     1
176
     1
 77
     6
176
     1
 78
     2
176
     1
 67
     7
176
     1
 79
     5
176
     1
170
     0
176
     1
171
     0
176
     1
290
     0
176
     1
 93
        1
176
     1
 44
0.0
176
     1
173
     0
176
     1
  0
VISUALSTYLE
  5
34
102
{ACAD_REACTORS
330
2A
102
}
330
2A
100
AcDbVisualStyle
  2
Conceptual
 70
     9
177
     2
291
     0
 71
     3
176
     1
 72
     2
176
     1
 73
     0
176
     1
 90
        0
176
     1
 40
-0.6
176
     1
 41
-30.0
176
     1
 62
     5
 63
     7
421
 16777215
176
     1
 74
     2
176
     1
 91
        2
176
     1
 64
     7
176
     1
 65
   257
176
     1
 75
     1
176
     1
175
     1
176
     1
 42
40.0
176
     1
 92
        8
176
     1
 66
     7
176
     1
 43
1.0
176
     1
 76
     1
176
     1
 77
     6
176
     1
 78
     2
176
     1
 67
     7
176
     1
 79
     3
176
     1
170
     0
176
     1
171
     0
176
     1
290
     0
176
     1
 93
        1
176
     1
 44
0.0
176
     1
173
     0
176
     1
  0
VISUALSTYLE
  5
35
102
{ACAD_REACTORS
330
2A
102
}
330
2A
100
AcDbVisualStyle
  2
Dim
 70
    11
177
     2
291
     1
 71
     2
176
     1
 72
     2
176
     1
 73
     0
176
     1
 90
        0
176
     1
 40
-0.6
176
     1
 41
-30.0
176
     1
 62
     5
 63
     7
421
 16777215
176
     1
 74
     1
176
     1
 91
        4
176
     1
 64
     7
176
     1
 65
   257
176
     1
 75
     1
176
     1
175
     1
176
     1
 42
1.0
176
     1
 92
        8
176
     1
 66
     7
176
     1
 43
1.0
176
     1
 76
     1
176
     1
 77
     6
176
     1
 78
     2
176
     1
 67
     7
176
     1
 79
     5
176
     1
170
     0
176
     1
171
     0
176
     1
290
     0
176
     1
 93
        1
176
     1
 44
-50.0
176
     1
173
     0
176
     1
  0
VISUALSTYLE
  5
39
102
{ACAD_REACTORS
330
2A
102
}
330
2A
100
AcDbVisualStyle
  2
Facepattern
 70
    15
177
     2
291
     1
 71
     2
176
     1
 72
     2
176
     1
 73
     0
176
     1
 90
        0
176
     1
 40
-0.6
176
     1
 41
-30.0
176
     1
 62
     5
 63
     7
421
 16777215
176
     1
 74
     1
176
     1
 91
        4
176
     1
 64
     7
176
     1
 65
   257
176
     1
 75
     1
176
     1
175
     1
176
     1
 42
1.0
176
     1
 92
        8
176
     1
 66
     7
176
     1
 43
1.0
176
     1
 76
     1
176
     1
 77
     6
176
     1
 78
     2
176
     1
 67
     7
176
     1
 79
     5
176
     1
170
     0
176
     1
171
     0
176
     1
290
     0
176
     1
 93
        1
176
     1
 44
0.0
176
     1
173
     0
176
     1
  0
VISUALSTYLE
  5
2B
102
{ACAD_REACTORS
330
2A
102
}
330
2A
100
AcDbVisualStyle
  2
Flat
 70
     0
177
     2
291
     1
 71
     2
176
     1
 72
     1
176
     1
 73
     1
176
     1
 90
        2
176
     1
 40
-0.6
176
     1
 41
30.0
176
     1
 62
     5
 63
     7
421
 16777215
176
     1
 74
     0
176
     1
 91
        4
176
     1
 64
     7
176
     1
 65
   257
176
     1
 75
     1
176
     1
175
     1
176
     1
 42
1.0
176
     1
 92
        8
176
     1
 66
     7
176
     1
 43
1.0
176
     1
 76
     1
176
     1
 77
     6
176
     1
 78
     2
176
     1
 67
     7
176
     1
 79
     5
176
     1
170
     0
176
     1
171
     0
176
     1
290
     0
176
     1
 93
       13
176
     1
 44
0.0
176
     1
173
     0
176
     1
  0
VISUALSTYLE
  5
2C
102
{ACAD_REACTORS
330
2A
102
}
330
2A
100
AcDbVisualStyle
  2
FlatWithEdges
 70
     1
177
     2
291
     1
 71
     2
176
     1
 72
     1
176
     1
 73
     1
176
     1
 90
        2
176
     1
 40
-0.6
176
     1
 41
30.0
176
     1
 62
     5
 63
     7
421
 16777215
176
     1
 74
     1
176
     1
 91
        4
176
     1
 64
     7
176
     1
 65
   257
176
     1
 75
     1
176
     1
175
     1
176
     1
 42
1.0
176
     1
 92
        0
176
     1
 66
   257
176
     1
 43
1.0
176
     1
 76
     1
176
     1
 77
     6
176
     1
 78
     2
176
     1
 67
     7
176
     1
 79
     5
176
     1
170
     0
176
     1
171
     0
176
     1
290
     0
176
     1
 93
       13
176
     1
 44
0.0
176
     1
173
     0
176
     1
  0
VISUALSTYLE
  5
2D
102
{ACAD_REACTORS
330
2A
102
}
330
2A
100
AcDbVisualStyle
  2
Gouraud
 70
     2
177
     2
291
     1
 71
     2
176
     1
 72
     2
176
     1
 73
     1
176
     1
 90
        2
176
     1
 40
-0.6
176
     1
 41
30.0
176
     1
 62
     5
 63
     7
421
 16777215
176
     1
 74
     0
176
     1
 91
        4
176
     1
 64
     7
176
     1
 65
   257
176
     1
 75
     1
176
     1
175
     1
176
     1
 42
1.0
176
     1
 92
        0
176
     1
 66
     7
176
     1
 43
1.0
176
     1
 76
     1
176
     1
 77
     6
176
     1
 78
     2
176
     1
 67
     7
176
     1
 79
     5
176
     1
170
     0
176
     1
171
     0
176
     1
290
     0
176
     1
 93
       13
176
     1
 44
0.0
176
     1
173
     0
176
     1
  0
VISUALSTYLE
  5
2E
102
{ACAD_REACTORS
330
2A
102
}
330
2A
100
AcDbVisualStyle
  2
GouraudWithEdges
 70
     3
177
     2
291
     1
 71
     2
176
     1
 72
     2
176
     1
 73
     1
176
     1
 90
        2
176
     1
 40
-0.6
176
     1
 41
30.0
176
     1
 62
     5
 63
     7
421
 16777215
176
     1
 74
     1
176
     1
 91
        4
176
     1
 64
     7
176
     1
 65
   257
176
     1
 75
     1
176
     1
175
     1
176
     1
 42
1.0
176
     1
 92
        0
176
     1
 66
   257
176
     1
 43
1.0
176
     1
 76
     1
176
     1
 77
     6
176
     1
 78
     2
176
     1
 67
     7
176
     1
 79
     5
176
     1
170
     0
176
     1
171
     0
176
     1
290
     0
176
     1
 93
       13
176
     1
 44
0.0
176
     1
173
     0
176
     1
  0
VISUALSTYLE
  5
38
102
{ACAD_REACTORS
330
2A
102
}
330
2A
100
AcDbVisualStyle
  2
Linepattern
 70
    14
177
     2
291
     1
 71
     2
176
     1
 72
     2
176
     1
 73
     0
176
     1
 90
        0
176
     1
 40
-0.6
176
     1
 41
-30.0
176
     1
 62
     5
 63
     7
421
 16777215
176
     1
 74
     1
176
     1
 91
        4
176
     1
 64
     7
176
     1
 65
   257
176
     1
 75
     7
176
     1
175
     7
176
     1
 42
1.0
176
     1
 92
        8
176
     1
 66
     7
176
     1
 43
1.0
176
     1
 76
     1
176
     1
 77
     6
176
     1
 78
     2
176
     1
 67
     7
176
     1
 79
     5
176
     1
170
     0
176
     1
171
     0
176
     1
290
     0
176
     1
 93
        1
176
     1
 44
0.0
176
     1
173
     0
176
     1
  0
VISUALSTYLE
  5
33
102
{ACAD_REACTORS
330
2A
102
}
330
2A
100
AcDbVisualStyle
  2
Realistic
 70
     8
177
     2
291
     0
 71
     2
176
     1
 72
     2
176
     1
 73
     0
176
     1
 90
        0
176
     1
 40
-0.6
176
     1
 41
-30.0
176
     1
 62
     5
 63
     7
421
 16777215
176
     1
 74
     1
176
     1
 91
        0
176
     1
 64
     7
176
     1
 65
   257
176
     1
 75
     1
176
     1
175
     1
176
     1
 42
1.0
176
     1
 92
        8
176
     1
 66
     8
424
  7895160
176
     1
 43
1.0
176
     1
 76
     1
176
     1
 77
     6
176
     1
 78
     2
176
     1
 67
     7
176
     1
 79
     5
176
     1
170
     0
176
     1
171
     0
176
     1
290
     0
176
     1
 93
       13
176
     1
 44
0.0
176
     1
173
     0
176
     1
  0
VISUALSTYLE
  5
37
102
{ACAD_REACTORS
330
2A
102
}
330
2A
100
AcDbVisualStyle
  2
Thicken
 70
    13
177
     2
291
     1
 71
     2
176
     1
 72
     2
176
     1
 73
     0
176
     1
 90
        0
176
     1
 40
-0.6
176
     1
 41
-30.0
176
     1
 62
     5
 63
     7
421
 16777215
176
     1
 74
     1
176
     1
 91
        4
176
     1
 64
     7
176
     1
 65
   257
176
     1
 75
     1
176
     1
175
     1
176
     1
 42
1.0
176
     1
 92
       12
176
     1
 66
     7
176
     1
 43
1.0
176
     1
 76
     1
176
     1
 77
     6
176
     1
 78
     2
176
     1
 67
     7
176
     1
 79
     5
176
     1
170
     0
176
     1
171
     0
176
     1
290
     0
176
     1
 93
        1
176
     1
 44
0.0
176
     1
173
     0
176
     1
  0
ENDSEC
  0
EOF
