  0
SECTION
  2
HEADER
  9
$ACADVER
  1
AC1014
  9
$HANDSEED
  5
FFFF
  9
$MEASUREMENT
 70
     1
  0
ENDSEC
  0
SECTION
  2
TABLES
  0
TABLE
  2
VPORT
  5
8
330
0
100
AcDbSymbolTable
 70
     4
  0
VPORT
  5
2E
330
8
100
AcDbSymbolTableRecord
100
AcDbViewportTableRecord
  2
*ACTIVE
 70
     0
 10
0.0
 20
0.0
 11
1.0
 21
1.0
 12
210.0
 22
148.5
 13
0.0
 23
0.0
 14
10.0
 24
10.0
 15
10.0
 25
10.0
 16
0.0
 26
0.0
 36
1.0
 17
0.0
 27
0.0
 37
0.0
 40
341.0
 41
1.24
 42
50.0
 43
0.0
 44
0.0
 50
0.0
 51
0.0
 71
     0
 72
   100
 73
     1
 74
     3
 75
     0
 76
     0
 77
     0
 78
     0
  0
ENDTAB
  0
TABLE
  2
LTYPE
  5
5
330
0
100
AcDbSymbolTable
 70
     1
  0
LTYPE
  5
14
330
5
100
AcDbSymbolTableRecord
100
AcDbLinetypeTableRecord
  2
BYBLOCK
 70
     0
  3

 72
    65
 73
     0
 40
0.0
  0
LTYPE
  5
15
330
5
100
AcDbSymbolTableRecord
100
AcDbLinetypeTableRecord
  2
BYLAYER
 70
     0
  3

 72
    65
 73
     0
 40
0.0
  0
LTYPE
  5
16
330
5
100
AcDbSymbolTableRecord
100
AcDbLinetypeTableRecord
  2
CONTINUOUS
 70
     0
  3
Solid line
 72
    65
 73
     0
 40
0.0
  0
ENDTAB
  0
TABLE
  2
LAYER
  5
2
100
AcDbSymbolTable
 70
4
  0
LAYER
  5
50
100
AcDbSymbolTableRecord
100
AcDbLayerTableRecord
  2
0
 70
0
  6
CONTINUOUS
  0
LAYER
  5
51
100
AcDbSymbolTableRecord
100
AcDbLayerTableRecord
  2
image
 70
0
  6
CONTINUOUS
  0
LAYER
  5
52
100
AcDbSymbolTableRecord
100
AcDbLayerTableRecord
  2
oeil
 70
0
  6
CONTINUOUS
  0
LAYER
  5
53
100
AcDbSymbolTableRecord
100
AcDbLayerTableRecord
  2
dessin_vecteur
 70
0
  6
CONTINUOUS
  0
ENDTAB
  0
TABLE
  2
STYLE
  5
3
330
0
100
AcDbSymbolTable
 70
     1
  0
STYLE
  5
11
330
3
100
AcDbSymbolTableRecord
100
AcDbTextStyleTableRecord
  2
STANDARD
 70
     0
 40
0.0
 41
1.0
 50
0.0
 71
     0
 42
2.5
  3
txt
  4

  0
ENDTAB
  0
TABLE
  2
VIEW
  5
6
330
0
100
AcDbSymbolTable
 70
     0
  0
ENDTAB
  0
TABLE
  2
UCS
  5
7
330
0
100
AcDbSymbolTable
 70
     0
  0
ENDTAB
  0
TABLE
  2
APPID
  5
9
330
0
100
AcDbSymbolTable
 70
     2
  0
APPID
  5
12
330
9
100
AcDbSymbolTableRecord
100
AcDbRegAppTableRecord
  2
ACAD
 70
     0
  0
ENDTAB
  0
TABLE
  2
DIMSTYLE
  5
A
330
0
100
AcDbSymbolTable
 70
     1
  0
DIMSTYLE
105
27
330
A
100
AcDbSymbolTableRecord
100
AcDbDimStyleTableRecord
  2
ISO-25
 70
     0
  3

  4

  5

  6

  7

 40
1.0
 41
2.5
 42
0.625
 43
3.75
 44
1.25
 45
0.0
 46
0.0
 47
0.0
 48
0.0
140
2.5
141
2.5
142
0.0
143
0.03937007874016
144
1.0
145
0.0
146
1.0
147
0.625
 71
     0
 72
     0
 73
     0
 74
     0
 75
     0
 76
     0
 77
     1
 78
     8
170
     0
171
     3
172
     1
173
     0
174
     0
175
     0
176
     0
177
     0
178
     0
270
     2
271
     2
272
     2
273
     2
274
     3
340
11
275
     0
280
     0
281
     0
282
     0
283
     0
284
     8
285
     0
286
     0
287
     3
288
     0
  0
ENDTAB
  0
TABLE
  2
BLOCK_RECORD
  5
1
330
0
100
AcDbSymbolTable
 70
     1
  0
BLOCK_RECORD
  5
1F
330
1
100
AcDbSymbolTableRecord
100
AcDbBlockTableRecord
  2
*MODEL_SPACE
  0
BLOCK_RECORD
  5
1B
330
1
100
AcDbSymbolTableRecord
100
AcDbBlockTableRecord
  2
*PAPER_SPACE
  0
ENDTAB
  0
ENDSEC
  0
SECTION
  2
BLOCKS
  0
BLOCK
  5
20
330
1F
100
AcDbEntity
  8
0
100
AcDbBlockBegin
  2
*MODEL_SPACE
 70
     0
 10
0.0
 20
0.0
 30
0.0
  3
*MODEL_SPACE
  1

  0
ENDBLK
  5
21
330
1F
100
AcDbEntity
  8
0
100
AcDbBlockEnd
  0
BLOCK
  5
1C
330
1B
100
AcDbEntity
 67
     1
  8
0
100
AcDbBlockBegin
  2
*PAPER_SPACE
  1

  0
ENDBLK
  5
1D
330
1B
100
AcDbEntity
 67
     1
  8
0
100
AcDbBlockEnd
  0
ENDSEC
  0
SECTION
  2
ENTITIES
  0
SPLINE
  5
100
100
AcDbEntity
  8
oeil
 62
7
100
AcDbSpline
 70
8
 71
3
 72
8
 73
4
 74
0
 40
0
 40
0
 40
0
 40
0
 40
1
 40
1
 40
1
 40
1
 10
177.079100
 20
699.492306
 30
0.0
 10
167.473897
 20
699.492194
 30
0.0
 10
159.687315
 20
691.493780
 30
0.0
 10
159.687013
 20
681.627073
 30
0.0
  0
SPLINE
  5
101
100
AcDbEntity
  8
oeil
 62
7
100
AcDbSpline
 70
8
 71
3
 72
8
 73
4
 74
0
 40
0
 40
0
 40
0
 40
0
 40
1
 40
1
 40
1
 40
1
 10
159.687013
 20
681.627073
 30
0.0
 10
159.686730
 20
676.993582
 30
0.0
 10
161.438894
 20
672.541211
 30
0.0
 10
164.573728
 20
669.209593
 30
0.0
  0
SPLINE
  5
102
100
AcDbEntity
  8
oeil
 62
7
100
AcDbSpline
 70
8
 71
3
 72
8
 73
4
 74
0
 40
0
 40
0
 40
0
 40
0
 40
1
 40
1
 40
1
 40
1
 10
164.573728
 20
669.209593
 30
0.0
 10
164.697001
 20
671.284721
 30
0.0
 10
166.385082
 20
672.903481
 30
0.0
 10
168.426268
 20
672.903928
 30
0.0
  0
SPLINE
  5
103
100
AcDbEntity
  8
oeil
 62
7
100
AcDbSpline
 70
8
 71
3
 72
8
 73
4
 74
0
 40
0
 40
0
 40
0
 40
0
 40
1
 40
1
 40
1
 40
1
 10
168.426268
 20
672.903928
 30
0.0
 10
169.450248
 20
672.904175
 30
0.0
 10
170.432373
 20
672.490063
 30
0.0
 10
171.156535
 20
671.752714
 30
0.0
  0
SPLINE
  5
104
100
AcDbEntity
  8
oeil
 62
7
100
AcDbSpline
 70
8
 71
3
 72
8
 73
4
 74
0
 40
0
 40
0
 40
0
 40
0
 40
1
 40
1
 40
1
 40
1
 10
171.156535
 20
671.752714
 30
0.0
 10
171.880697
 20
671.015366
 30
0.0
 10
172.287560
 20
670.015197
 30
0.0
 10
172.287598
 20
668.972286
 30
0.0
  0
SPLINE
  5
105
100
AcDbEntity
  8
oeil
 62
7
100
AcDbSpline
 70
8
 71
3
 72
8
 73
4
 74
0
 40
0
 40
0
 40
0
 40
0
 40
1
 40
1
 40
1
 40
1
 10
172.287598
 20
668.972286
 30
0.0
 10
172.287829
 20
667.387612
 30
0.0
 10
171.353988
 20
665.957688
 30
0.0
 10
169.918940
 20
665.345331
 30
0.0
  0
SPLINE
  5
106
100
AcDbEntity
  8
oeil
 62
7
100
AcDbSpline
 70
8
 71
3
 72
8
 73
4
 74
0
 40
0
 40
0
 40
0
 40
0
 40
1
 40
1
 40
1
 40
1
 10
169.918940
 20
665.345331
 30
0.0
 10
172.169074
 20
664.300898
 30
0.0
 10
174.609913
 20
663.760599
 30
0.0
 10
177.079100
 20
663.760371
 30
0.0
  0
SPLINE
  5
107
100
AcDbEntity
  8
oeil
 62
7
100
AcDbSpline
 70
8
 71
3
 72
8
 73
4
 74
0
 40
0
 40
0
 40
0
 40
0
 40
1
 40
1
 40
1
 40
1
 10
177.079100
 20
663.760371
 30
0.0
 10
181.691940
 20
663.760425
 30
0.0
 10
186.115819
 20
665.642857
 30
0.0
 10
189.377488
 20
668.993534
 30
0.0
  0
SPLINE
  5
108
100
AcDbEntity
  8
oeil
 62
7
100
AcDbSpline
 70
8
 71
3
 72
8
 73
4
 74
0
 40
0
 40
0
 40
0
 40
0
 40
1
 40
1
 40
1
 40
1
 10
189.377488
 20
668.993534
 30
0.0
 10
192.639157
 20
672.344211
 30
0.0
 10
194.471422
 20
676.888648
 30
0.0
 10
194.471188
 20
681.627073
 30
0.0
  0
SPLINE
  5
109
100
AcDbEntity
  8
oeil
 62
7
100
AcDbSpline
 70
8
 71
3
 72
8
 73
4
 74
0
 40
0
 40
0
 40
0
 40
0
 40
1
 40
1
 40
1
 40
1
 10
194.471188
 20
681.627073
 30
0.0
 10
194.470959
 20
683.166775
 30
0.0
 10
194.276969
 20
684.699988
 30
0.0
 10
193.894040
 20
686.188596
 30
0.0
  0
SPLINE
  5
10a
100
AcDbEntity
  8
oeil
 62
7
100
AcDbSpline
 70
8
 71
3
 72
8
 73
4
 74
0
 40
0
 40
0
 40
0
 40
0
 40
1
 40
1
 40
1
 40
1
 10
193.894040
 20
686.188596
 30
0.0
 10
192.560904
 20
684.462505
 30
0.0
 10
190.470205
 20
683.446729
 30
0.0
 10
188.249998
 20
683.446408
 30
0.0
  0
SPLINE
  5
10b
100
AcDbEntity
  8
oeil
 62
7
100
AcDbSpline
 70
8
 71
3
 72
8
 73
4
 74
0
 40
0
 40
0
 40
0
 40
0
 40
1
 40
1
 40
1
 40
1
 10
188.249998
 20
683.446408
 30
0.0
 10
184.351524
 20
683.446567
 30
0.0
 10
181.191195
 20
686.519018
 30
0.0
 10
181.190915
 20
690.309201
 30
0.0
  0
SPLINE
  5
10c
100
AcDbEntity
  8
oeil
 62
7
100
AcDbSpline
 70
8
 71
3
 72
8
 73
4
 74
0
 40
0
 40
0
 40
0
 40
0
 40
1
 40
1
 40
1
 40
1
 10
181.190915
 20
690.309201
 30
0.0
 10
181.191282
 20
693.315338
 30
0.0
 10
183.203808
 20
695.971397
 30
0.0
 10
186.156733
 20
696.862911
 30
0.0
  0
SPLINE
  5
10d
100
AcDbEntity
  8
oeil
 62
7
100
AcDbSpline
 70
8
 71
3
 72
8
 73
4
 74
0
 40
0
 40
0
 40
0
 40
0
 40
1
 40
1
 40
1
 40
1
 10
186.156733
 20
696.862911
 30
0.0
 10
183.424379
 20
698.581518
 30
0.0
 10
180.282985
 20
699.491443
 30
0.0
 10
177.079100
 20
699.492306
 30
0.0
  0
SPLINE
  5
10e
100
AcDbEntity
  8
oeil
 62
7
100
AcDbSpline
 70
8
 71
3
 72
8
 73
4
 74
0
 40
0
 40
0
 40
0
 40
0
 40
1
 40
1
 40
1
 40
1
 10
257.667338
 20
699.547045
 30
0.0
 10
248.062135
 20
699.546933
 30
0.0
 10
240.275553
 20
691.548520
 30
0.0
 10
240.275251
 20
681.681813
 30
0.0
  0
SPLINE
  5
10f
100
AcDbEntity
  8
oeil
 62
7
100
AcDbSpline
 70
8
 71
3
 72
8
 73
4
 74
0
 40
0
 40
0
 40
0
 40
0
 40
1
 40
1
 40
1
 40
1
 10
240.275251
 20
681.681813
 30
0.0
 10
240.274967
 20
677.048322
 30
0.0
 10
242.027131
 20
672.595951
 30
0.0
 10
245.161964
 20
669.264333
 30
0.0
  0
SPLINE
  5
110
100
AcDbEntity
  8
oeil
 62
7
100
AcDbSpline
 70
8
 71
3
 72
8
 73
4
 74
0
 40
0
 40
0
 40
0
 40
0
 40
1
 40
1
 40
1
 40
1
 10
245.161964
 20
669.264333
 30
0.0
 10
245.285238
 20
671.339461
 30
0.0
 10
246.973320
 20
672.958220
 30
0.0
 10
249.014506
 20
672.958667
 30
0.0
  0
SPLINE
  5
111
100
AcDbEntity
  8
oeil
 62
7
100
AcDbSpline
 70
8
 71
3
 72
8
 73
4
 74
0
 40
0
 40
0
 40
0
 40
0
 40
1
 40
1
 40
1
 40
1
 10
249.014506
 20
672.958667
 30
0.0
 10
250.038485
 20
672.958913
 30
0.0
 10
251.020610
 20
672.544801
 30
0.0
 10
251.744772
 20
671.807453
 30
0.0
  0
SPLINE
  5
112
100
AcDbEntity
  8
oeil
 62
7
100
AcDbSpline
 70
8
 71
3
 72
8
 73
4
 74
0
 40
0
 40
0
 40
0
 40
0
 40
1
 40
1
 40
1
 40
1
 10
251.744772
 20
671.807453
 30
0.0
 10
252.468934
 20
671.070104
 30
0.0
 10
252.875797
 20
670.069935
 30
0.0
 10
252.875835
 20
669.027025
 30
0.0
  0
SPLINE
  5
113
100
AcDbEntity
  8
oeil
 62
7
100
AcDbSpline
 70
8
 71
3
 72
8
 73
4
 74
0
 40
0
 40
0
 40
0
 40
0
 40
1
 40
1
 40
1
 40
1
 10
252.875835
 20
669.027025
 30
0.0
 10
252.876066
 20
667.442351
 30
0.0
 10
251.942226
 20
666.012427
 30
0.0
 10
250.507179
 20
665.400070
 30
0.0
  0
SPLINE
  5
114
100
AcDbEntity
  8
oeil
 62
7
100
AcDbSpline
 70
8
 71
3
 72
8
 73
4
 74
0
 40
0
 40
0
 40
0
 40
0
 40
1
 40
1
 40
1
 40
1
 10
250.507179
 20
665.400070
 30
0.0
 10
252.757313
 20
664.355637
 30
0.0
 10
255.198151
 20
663.815337
 30
0.0
 10
257.667338
 20
663.815109
 30
0.0
  0
SPLINE
  5
115
100
AcDbEntity
  8
oeil
 62
7
100
AcDbSpline
 70
8
 71
3
 72
8
 73
4
 74
0
 40
0
 40
0
 40
0
 40
0
 40
1
 40
1
 40
1
 40
1
 10
257.667338
 20
663.815109
 30
0.0
 10
262.280178
 20
663.815163
 30
0.0
 10
266.704057
 20
665.697595
 30
0.0
 10
269.965726
 20
669.048272
 30
0.0
  0
SPLINE
  5
116
100
AcDbEntity
  8
oeil
 62
7
100
AcDbSpline
 70
8
 71
3
 72
8
 73
4
 74
0
 40
0
 40
0
 40
0
 40
0
 40
1
 40
1
 40
1
 40
1
 10
269.965726
 20
669.048272
 30
0.0
 10
273.227395
 20
672.398949
 30
0.0
 10
275.059661
 20
676.943387
 30
0.0
 10
275.059426
 20
681.681813
 30
0.0
  0
SPLINE
  5
117
100
AcDbEntity
  8
oeil
 62
7
100
AcDbSpline
 70
8
 71
3
 72
8
 73
4
 74
0
 40
0
 40
0
 40
0
 40
0
 40
1
 40
1
 40
1
 40
1
 10
275.059426
 20
681.681813
 30
0.0
 10
275.059197
 20
683.221515
 30
0.0
 10
274.865207
 20
684.754727
 30
0.0
 10
274.482278
 20
686.243336
 30
0.0
  0
SPLINE
  5
118
100
AcDbEntity
  8
oeil
 62
7
100
AcDbSpline
 70
8
 71
3
 72
8
 73
4
 74
0
 40
0
 40
0
 40
0
 40
0
 40
1
 40
1
 40
1
 40
1
 10
274.482278
 20
686.243336
 30
0.0
 10
273.149142
 20
684.517245
 30
0.0
 10
271.058443
 20
683.501468
 30
0.0
 10
268.838235
 20
683.501148
 30
0.0
  0
SPLINE
  5
119
100
AcDbEntity
  8
oeil
 62
7
100
AcDbSpline
 70
8
 71
3
 72
8
 73
4
 74
0
 40
0
 40
0
 40
0
 40
0
 40
1
 40
1
 40
1
 40
1
 10
268.838235
 20
683.501148
 30
0.0
 10
264.939761
 20
683.501307
 30
0.0
 10
261.779432
 20
686.573758
 30
0.0
 10
261.779153
 20
690.363941
 30
0.0
  0
SPLINE
  5
11a
100
AcDbEntity
  8
oeil
 62
7
100
AcDbSpline
 70
8
 71
3
 72
8
 73
4
 74
0
 40
0
 40
0
 40
0
 40
0
 40
1
 40
1
 40
1
 40
1
 10
261.779153
 20
690.363941
 30
0.0
 10
261.779521
 20
693.370078
 30
0.0
 10
263.792046
 20
696.026137
 30
0.0
 10
266.744971
 20
696.917650
 30
0.0
  0
SPLINE
  5
11b
100
AcDbEntity
  8
oeil
 62
7
100
AcDbSpline
 70
8
 71
3
 72
8
 73
4
 74
0
 40
0
 40
0
 40
0
 40
0
 40
1
 40
1
 40
1
 40
1
 10
266.744971
 20
696.917650
 30
0.0
 10
264.012617
 20
698.636257
 30
0.0
 10
260.871223
 20
699.546182
 30
0.0
 10
257.667338
 20
699.547045
 30
0.0
  0
LWPOLYLINE
  5
11c
100
AcDbEntity
  8
oeil
 62
7
100
AcDbPolyline
 90
1
 70
1
 10
177.079100
 20
699.492306
 30
0.0
  0
SPLINE
  5
11d
100
AcDbEntity
  8
oeil
 62
7
100
AcDbSpline
 70
8
 71
3
 72
8
 73
4
 74
0
 40
0
 40
0
 40
0
 40
0
 40
1
 40
1
 40
1
 40
1
 10
171.769040
 20
719.395138
 30
0.0
 10
152.537541
 20
719.551048
 30
0.0
 10
132.439603
 20
695.676148
 30
0.0
 10
136.082518
 20
677.064081
 30
0.0
  0
SPLINE
  5
11e
100
AcDbEntity
  8
oeil
 62
7
100
AcDbSpline
 70
8
 71
3
 72
8
 73
4
 74
0
 40
0
 40
0
 40
0
 40
0
 40
1
 40
1
 40
1
 40
1
 10
136.082518
 20
677.064081
 30
0.0
 10
141.271596
 20
650.552474
 30
0.0
 10
176.912990
 20
649.724541
 30
0.0
 10
189.518555
 20
663.471801
 30
0.0
  0
SPLINE
  5
11f
100
AcDbEntity
  8
oeil
 62
7
100
AcDbSpline
 70
8
 71
3
 72
8
 73
4
 74
0
 40
0
 40
0
 40
0
 40
0
 40
1
 40
1
 40
1
 40
1
 10
189.518555
 20
663.471801
 30
0.0
 10
185.897267
 20
661.026729
 30
0.0
 10
181.632911
 20
659.720698
 30
0.0
 10
177.269533
 20
659.720331
 30
0.0
  0
SPLINE
  5
120
100
AcDbEntity
  8
oeil
 62
7
100
AcDbSpline
 70
8
 71
3
 72
8
 73
4
 74
0
 40
0
 40
0
 40
0
 40
0
 40
1
 40
1
 40
1
 40
1
 10
177.269533
 20
659.720331
 30
0.0
 10
171.445038
 20
659.720085
 30
0.0
 10
165.859030
 20
662.044083
 30
0.0
 10
161.740498
 20
666.181020
 30
0.0
  0
SPLINE
  5
121
100
AcDbEntity
  8
oeil
 62
7
100
AcDbSpline
 70
8
 71
3
 72
8
 73
4
 74
0
 40
0
 40
0
 40
0
 40
0
 40
1
 40
1
 40
1
 40
1
 10
161.740498
 20
666.181020
 30
0.0
 10
157.621966
 20
670.317956
 30
0.0
 10
155.308319
 20
675.928913
 30
0.0
 10
155.308588
 20
681.779413
 30
0.0
  0
SPLINE
  5
122
100
AcDbEntity
  8
oeil
 62
7
100
AcDbSpline
 70
8
 71
3
 72
8
 73
4
 74
0
 40
0
 40
0
 40
0
 40
0
 40
1
 40
1
 40
1
 40
1
 10
155.308588
 20
681.779413
 30
0.0
 10
155.308706
 20
687.629660
 30
0.0
 10
157.622523
 20
693.240241
 30
0.0
 10
161.741013
 20
697.376861
 30
0.0
  0
SPLINE
  5
123
100
AcDbEntity
  8
oeil
 62
7
100
AcDbSpline
 70
8
 71
3
 72
8
 73
4
 74
0
 40
0
 40
0
 40
0
 40
0
 40
1
 40
1
 40
1
 40
1
 10
161.741013
 20
697.376861
 30
0.0
 10
165.859503
 20
701.513482
 30
0.0
 10
171.445290
 20
703.837280
 30
0.0
 10
177.269533
 20
703.837033
 30
0.0
  0
SPLINE
  5
124
100
AcDbEntity
  8
oeil
 62
7
100
AcDbSpline
 70
8
 71
3
 72
8
 73
4
 74
0
 40
0
 40
0
 40
0
 40
0
 40
1
 40
1
 40
1
 40
1
 10
177.269533
 20
703.837033
 30
0.0
 10
188.397348
 20
703.836987
 30
0.0
 10
197.766221
 20
695.476304
 30
0.0
 10
199.076660
 20
684.376581
 30
0.0
  0
SPLINE
  5
125
100
AcDbEntity
  8
oeil
 62
7
100
AcDbSpline
 70
8
 71
3
 72
8
 73
4
 74
0
 40
0
 40
0
 40
0
 40
0
 40
1
 40
1
 40
1
 40
1
 10
199.076660
 20
684.376581
 30
0.0
 10
201.209180
 20
699.936651
 30
0.0
 10
194.046275
 20
715.966318
 30
0.0
 10
175.596680
 20
719.034785
 30
0.0
  0
SPLINE
  5
126
100
AcDbEntity
  8
oeil
 62
7
100
AcDbSpline
 70
8
 71
3
 72
8
 73
4
 74
0
 40
0
 40
0
 40
0
 40
0
 40
1
 40
1
 40
1
 40
1
 10
175.596680
 20
719.034785
 30
0.0
 10
174.329570
 20
719.267458
 30
0.0
 10
173.051143
 20
719.384743
 30
0.0
 10
171.769040
 20
719.395138
 30
0.0
  0
LWPOLYLINE
  5
127
100
AcDbEntity
  8
oeil
 62
7
100
AcDbPolyline
 90
1
 70
1
 10
257.667338
 20
699.547045
 30
0.0
  0
SPLINE
  5
128
100
AcDbEntity
  8
oeil
 62
7
100
AcDbSpline
 70
8
 71
3
 72
8
 73
4
 74
0
 40
0
 40
0
 40
0
 40
0
 40
1
 40
1
 40
1
 40
1
 10
262.856254
 20
719.138744
 30
0.0
 10
282.087751
 20
719.294649
 30
0.0
 10
302.185701
 20
695.419753
 30
0.0
 10
298.542784
 20
676.807685
 30
0.0
  0
SPLINE
  5
129
100
AcDbEntity
  8
oeil
 62
7
100
AcDbSpline
 70
8
 71
3
 72
8
 73
4
 74
0
 40
0
 40
0
 40
0
 40
0
 40
1
 40
1
 40
1
 40
1
 10
298.542784
 20
676.807685
 30
0.0
 10
293.353710
 20
650.296080
 30
0.0
 10
257.712301
 20
649.468145
 30
0.0
 10
245.106737
 20
663.215406
 30
0.0
  0
SPLINE
  5
12a
100
AcDbEntity
  8
oeil
 62
7
100
AcDbSpline
 70
8
 71
3
 72
8
 73
4
 74
0
 40
0
 40
0
 40
0
 40
0
 40
1
 40
1
 40
1
 40
1
 10
245.106737
 20
663.215406
 30
0.0
 10
248.728025
 20
660.770334
 30
0.0
 10
252.992381
 20
659.464304
 30
0.0
 10
257.355760
 20
659.463936
 30
0.0
  0
SPLINE
  5
12b
100
AcDbEntity
  8
oeil
 62
7
100
AcDbSpline
 70
8
 71
3
 72
8
 73
4
 74
0
 40
0
 40
0
 40
0
 40
0
 40
1
 40
1
 40
1
 40
1
 10
257.355760
 20
659.463936
 30
0.0
 10
263.180255
 20
659.463690
 30
0.0
 10
268.766262
 20
661.787689
 30
0.0
 10
272.884794
 20
665.924625
 30
0.0
  0
SPLINE
  5
12c
100
AcDbEntity
  8
oeil
 62
7
100
AcDbSpline
 70
8
 71
3
 72
8
 73
4
 74
0
 40
0
 40
0
 40
0
 40
0
 40
1
 40
1
 40
1
 40
1
 10
272.884794
 20
665.924625
 30
0.0
 10
277.003326
 20
670.061562
 30
0.0
 10
279.316972
 20
675.672519
 30
0.0
 10
279.316704
 20
681.523019
 30
0.0
  0
SPLINE
  5
12d
100
AcDbEntity
  8
oeil
 62
7
100
AcDbSpline
 70
8
 71
3
 72
8
 73
4
 74
0
 40
0
 40
0
 40
0
 40
0
 40
1
 40
1
 40
1
 40
1
 10
279.316704
 20
681.523019
 30
0.0
 10
279.316586
 20
687.373265
 30
0.0
 10
277.002769
 20
692.983846
 30
0.0
 10
272.884279
 20
697.120466
 30
0.0
  0
SPLINE
  5
12e
100
AcDbEntity
  8
oeil
 62
7
100
AcDbSpline
 70
8
 71
3
 72
8
 73
4
 74
0
 40
0
 40
0
 40
0
 40
0
 40
1
 40
1
 40
1
 40
1
 10
272.884279
 20
697.120466
 30
0.0
 10
268.765789
 20
701.257086
 30
0.0
 10
263.180002
 20
703.580884
 30
0.0
 10
257.355760
 20
703.580638
 30
0.0
  0
SPLINE
  5
12f
100
AcDbEntity
  8
oeil
 62
7
100
AcDbSpline
 70
8
 71
3
 72
8
 73
4
 74
0
 40
0
 40
0
 40
0
 40
0
 40
1
 40
1
 40
1
 40
1
 10
257.355760
 20
703.580638
 30
0.0
 10
246.227944
 20
703.580593
 30
0.0
 10
236.859072
 20
695.219909
 30
0.0
 10
235.548632
 20
684.120186
 30
0.0
  0
SPLINE
  5
130
100
AcDbEntity
  8
oeil
 62
7
100
AcDbSpline
 70
8
 71
3
 72
8
 73
4
 74
0
 40
0
 40
0
 40
0
 40
0
 40
1
 40
1
 40
1
 40
1
 10
235.548632
 20
684.120186
 30
0.0
 10
233.416114
 20
699.680256
 30
0.0
 10
240.579017
 20
715.709923
 30
0.0
 10
259.028612
 20
718.778390
 30
0.0
  0
SPLINE
  5
131
100
AcDbEntity
  8
oeil
 62
7
100
AcDbSpline
 70
8
 71
3
 72
8
 73
4
 74
0
 40
0
 40
0
 40
0
 40
0
 40
1
 40
1
 40
1
 40
1
 10
259.028612
 20
718.778390
 30
0.0
 10
260.295724
 20
719.011057
 30
0.0
 10
261.574149
 20
719.128349
 30
0.0
 10
262.856254
 20
719.138744
 30
0.0
  0
LWPOLYLINE
  5
132
100
AcDbEntity
  8
oeil
 62
7
100
AcDbPolyline
 90
1
 70
1
 10
171.769040
 20
719.395138
 30
0.0
  0
SPLINE
  5
133
100
AcDbEntity
  8
dessin_vecteur
 62
7
100
AcDbSpline
 70
8
 71
3
 72
8
 73
4
 74
0
 40
0
 40
0
 40
0
 40
0
 40
1
 40
1
 40
1
 40
1
 10
173.453556
 20
768.231833
 30
0.0
 10
229.262108
 20
790.938386
 30
0.0
 10
252.146013
 20
772.208804
 30
0.0
 10
264.392830
 20
766.314992
 30
0.0
  0
SPLINE
  5
134
100
AcDbEntity
  8
dessin_vecteur
 62
7
100
AcDbSpline
 70
8
 71
3
 72
8
 73
4
 74
0
 40
0
 40
0
 40
0
 40
0
 40
1
 40
1
 40
1
 40
1
 10
264.392830
 20
766.314992
 30
0.0
 10
264.392830
 20
766.314992
 30
0.0
 10
288.969165
 20
793.341357
 30
0.0
 10
309.349616
 20
768.962687
 30
0.0
  0
SPLINE
  5
135
100
AcDbEntity
  8
dessin_vecteur
 62
7
100
AcDbSpline
 70
8
 71
3
 72
8
 73
4
 74
0
 40
0
 40
0
 40
0
 40
0
 40
1
 40
1
 40
1
 40
1
 10
309.349616
 20
768.962687
 30
0.0
 10
332.108589
 20
741.738898
 30
0.0
 10
298.945956
 20
721.079422
 30
0.0
 10
300.204709
 20
721.429078
 30
0.0
  0
SPLINE
  5
136
100
AcDbEntity
  8
dessin_vecteur
 62
7
100
AcDbSpline
 70
8
 71
3
 72
8
 73
4
 74
0
 40
0
 40
0
 40
0
 40
0
 40
1
 40
1
 40
1
 40
1
 10
300.204709
 20
721.429078
 30
0.0
 10
300.204709
 20
721.429078
 30
0.0
 10
317.850180
 20
688.219149
 30
0.0
 10
303.803376
 20
654.001393
 30
0.0
  0
SPLINE
  5
137
100
AcDbEntity
  8
dessin_vecteur
 62
7
100
AcDbSpline
 70
8
 71
3
 72
8
 73
4
 74
0
 40
0
 40
0
 40
0
 40
0
 40
1
 40
1
 40
1
 40
1
 10
303.803376
 20
654.001393
 30
0.0
 10
291.492709
 20
628.291151
 30
0.0
 10
276.532447
 20
625.429213
 30
0.0
 10
268.669624
 20
621.761930
 30
0.0
  0
SPLINE
  5
138
100
AcDbEntity
  8
dessin_vecteur
 62
7
100
AcDbSpline
 70
8
 71
3
 72
8
 73
4
 74
0
 40
0
 40
0
 40
0
 40
0
 40
1
 40
1
 40
1
 40
1
 10
268.669624
 20
621.761930
 30
0.0
 10
279.986723
 20
612.938503
 30
0.0
 10
311.531641
 20
594.259024
 30
0.0
 10
291.302702
 20
579.565783
 30
0.0
  0
SPLINE
  5
139
100
AcDbEntity
  8
dessin_vecteur
 62
7
100
AcDbSpline
 70
8
 71
3
 72
8
 73
4
 74
0
 40
0
 40
0
 40
0
 40
0
 40
1
 40
1
 40
1
 40
1
 10
291.302702
 20
579.565783
 30
0.0
 10
284.395039
 20
574.548395
 30
0.0
 10
276.125910
 20
579.888266
 30
0.0
 10
271.036556
 20
583.922058
 30
0.0
  0
SPLINE
  5
13a
100
AcDbEntity
  8
dessin_vecteur
 62
7
100
AcDbSpline
 70
8
 71
3
 72
8
 73
4
 74
0
 40
0
 40
0
 40
0
 40
0
 40
1
 40
1
 40
1
 40
1
 10
271.036556
 20
583.922058
 30
0.0
 10
270.773104
 20
556.112891
 30
0.0
 10
268.627774
 20
532.667225
 30
0.0
 10
260.756314
 20
524.460246
 30
0.0
  0
SPLINE
  5
13b
100
AcDbEntity
  8
dessin_vecteur
 62
7
100
AcDbSpline
 70
8
 71
3
 72
8
 73
4
 74
0
 40
0
 40
0
 40
0
 40
0
 40
1
 40
1
 40
1
 40
1
 10
260.756314
 20
524.460246
 30
0.0
 10
257.070532
 20
520.617345
 30
0.0
 10
250.555000
 20
521.470403
 30
0.0
 10
242.403129
 20
521.288872
 30
0.0
  0
SPLINE
  5
13c
100
AcDbEntity
  8
dessin_vecteur
 62
7
100
AcDbSpline
 70
8
 71
3
 72
8
 73
4
 74
0
 40
0
 40
0
 40
0
 40
0
 40
1
 40
1
 40
1
 40
1
 10
242.403129
 20
521.288872
 30
0.0
 10
235.631860
 20
521.138069
 30
0.0
 10
232.115615
 20
521.448746
 30
0.0
 10
229.557166
 20
524.259921
 30
0.0
  0
SPLINE
  5
13d
100
AcDbEntity
  8
dessin_vecteur
 62
7
100
AcDbSpline
 70
8
 71
3
 72
8
 73
4
 74
0
 40
0
 40
0
 40
0
 40
0
 40
1
 40
1
 40
1
 40
1
 10
229.557166
 20
524.259921
 30
0.0
 10
226.437951
 20
527.687150
 30
0.0
 10
225.890425
 20
525.179395
 30
0.0
 10
225.390283
 20
537.707594
 30
0.0
  0
LWPOLYLINE
  5
13e
100
AcDbEntity
  8
oeil
 62
7
100
AcDbPolyline
 90
1
 70
1
 10
262.856254
 20
719.138744
 30
0.0
  0
SPLINE
  5
13f
100
AcDbEntity
  8
dessin_vecteur
 62
7
100
AcDbSpline
 70
8
 71
3
 72
8
 73
4
 74
0
 40
0
 40
0
 40
0
 40
0
 40
1
 40
1
 40
1
 40
1
 10
213.647261
 20
538.275798
 30
0.0
 10
209.966224
 20
523.751924
 30
0.0
 10
214.050869
 20
520.914671
 30
0.0
 10
191.400069
 20
521.594220
 30
0.0
  0
SPLINE
  5
140
100
AcDbEntity
  8
dessin_vecteur
 62
7
100
AcDbSpline
 70
8
 71
3
 72
8
 73
4
 74
0
 40
0
 40
0
 40
0
 40
0
 40
1
 40
1
 40
1
 40
1
 10
191.400069
 20
521.594220
 30
0.0
 10
171.094085
 20
522.203414
 30
0.0
 10
173.586056
 20
531.570189
 30
0.0
 10
168.720540
 20
560.267589
 30
0.0
  0
SPLINE
  5
141
100
AcDbEntity
  8
dessin_vecteur
 62
7
100
AcDbSpline
 70
8
 71
3
 72
8
 73
4
 74
0
 40
0
 40
0
 40
0
 40
0
 40
1
 40
1
 40
1
 40
1
 10
168.720540
 20
560.267589
 30
0.0
 10
167.759614
 20
565.935242
 30
0.0
 10
167.164707
 20
574.208487
 30
0.0
 10
168.609336
 20
586.607156
 30
0.0
  0
SPLINE
  5
142
100
AcDbEntity
  8
dessin_vecteur
 62
7
100
AcDbSpline
 70
8
 71
3
 72
8
 73
4
 74
0
 40
0
 40
0
 40
0
 40
0
 40
1
 40
1
 40
1
 40
1
 10
168.609336
 20
586.607156
 30
0.0
 10
161.272426
 20
578.583111
 30
0.0
 10
148.602920
 20
577.122797
 30
0.0
 10
146.130523
 20
578.023784
 30
0.0
  0
SPLINE
  5
143
100
AcDbEntity
  8
dessin_vecteur
 62
7
100
AcDbSpline
 70
8
 71
3
 72
8
 73
4
 74
0
 40
0
 40
0
 40
0
 40
0
 40
1
 40
1
 40
1
 40
1
 10
146.130523
 20
578.023784
 30
0.0
 10
143.251362
 20
579.073003
 30
0.0
 10
136.802744
 20
584.277900
 30
0.0
 10
137.219958
 20
591.840156
 30
0.0
  0
SPLINE
  5
144
100
AcDbEntity
  8
dessin_vecteur
 62
7
100
AcDbSpline
 70
8
 71
3
 72
8
 73
4
 74
0
 40
0
 40
0
 40
0
 40
0
 40
1
 40
1
 40
1
 40
1
 10
137.219958
 20
591.840156
 30
0.0
 10
137.587677
 20
598.505292
 30
0.0
 10
143.756878
 20
605.205505
 30
0.0
 10
149.976729
 20
610.095745
 30
0.0
  0
SPLINE
  5
145
100
AcDbEntity
  8
dessin_vecteur
 62
7
100
AcDbSpline
 70
8
 71
3
 72
8
 73
4
 74
0
 40
0
 40
0
 40
0
 40
0
 40
1
 40
1
 40
1
 40
1
 10
149.976729
 20
610.095745
 30
0.0
 10
162.557983
 20
619.987513
 30
0.0
 10
162.427311
 20
617.645078
 30
0.0
 10
167.608570
 20
621.680230
 30
0.0
  0
SPLINE
  5
146
100
AcDbEntity
  8
dessin_vecteur
 62
7
100
AcDbSpline
 70
8
 71
3
 72
8
 73
4
 74
0
 40
0
 40
0
 40
0
 40
0
 40
1
 40
1
 40
1
 40
1
 10
167.608570
 20
621.680230
 30
0.0
 10
132.394493
 20
629.637259
 30
0.0
 10
126.458949
 20
655.875584
 30
0.0
 10
125.480923
 20
683.640403
 30
0.0
  0
SPLINE
  5
147
100
AcDbEntity
  8
dessin_vecteur
 62
7
100
AcDbSpline
 70
8
 71
3
 72
8
 73
4
 74
0
 40
0
 40
0
 40
0
 40
0
 40
1
 40
1
 40
1
 40
1
 10
125.480923
 20
683.640403
 30
0.0
 10
124.857173
 20
701.347813
 30
0.0
 10
131.604123
 20
716.349552
 30
0.0
 10
134.679342
 20
724.595417
 30
0.0
  0
SPLINE
  5
148
100
AcDbEntity
  8
dessin_vecteur
 62
7
100
AcDbSpline
 70
8
 71
3
 72
8
 73
4
 74
0
 40
0
 40
0
 40
0
 40
0
 40
1
 40
1
 40
1
 40
1
 10
134.679342
 20
724.595417
 30
0.0
 10
103.830318
 20
746.960034
 30
0.0
 10
137.927347
 20
801.759271
 30
0.0
 10
173.453556
 20
768.231833
 30
0.0
  0
LWPOLYLINE
  5
149
100
AcDbEntity
  8
dessin_vecteur
 62
7
100
AcDbPolyline
 90
2
 70
0
 10
225.390283
 20
537.707594
 30
0.0
 10
213.647261
 20
538.275798
 30
0.0
  0
SPLINE
  5
14a
100
AcDbEntity
  8
dessin_vecteur
 62
7
100
AcDbSpline
 70
8
 71
3
 72
8
 73
4
 74
0
 40
0
 40
0
 40
0
 40
0
 40
1
 40
1
 40
1
 40
1
 10
220.074151
 20
541.419506
 30
0.0
 10
248.992724
 20
540.962646
 30
0.0
 10
273.119003
 20
562.609301
 30
0.0
 10
263.114493
 20
590.550463
 30
0.0
  0
SPLINE
  5
14b
100
AcDbEntity
  8
dessin_vecteur
 62
7
100
AcDbSpline
 70
8
 71
3
 72
8
 73
4
 74
0
 40
0
 40
0
 40
0
 40
0
 40
1
 40
1
 40
1
 40
1
 10
263.114493
 20
590.550463
 30
0.0
 10
253.657474
 20
616.962557
 30
0.0
 10
179.833167
 20
617.651351
 30
0.0
 10
172.567369
 20
586.490051
 30
0.0
  0
SPLINE
  5
14c
100
AcDbEntity
  8
dessin_vecteur
 62
7
100
AcDbSpline
 70
8
 71
3
 72
8
 73
4
 74
0
 40
0
 40
0
 40
0
 40
0
 40
1
 40
1
 40
1
 40
1
 10
172.567369
 20
586.490051
 30
0.0
 10
165.454027
 20
555.982583
 30
0.0
 10
194.488546
 20
541.823726
 30
0.0
 10
220.074151
 20
541.419506
 30
0.0
  0
LWPOLYLINE
  5
14d
100
AcDbEntity
  8
dessin_vecteur
 62
7
100
AcDbPolyline
 90
1
 70
1
 10
173.453556
 20
768.231833
 30
0.0
  0
SPLINE
  5
14e
100
AcDbEntity
  8
dessin_vecteur
 62
7
100
AcDbSpline
 70
8
 71
3
 72
8
 73
4
 74
0
 40
0
 40
0
 40
0
 40
0
 40
1
 40
1
 40
1
 40
1
 10
217.434178
 20
658.369310
 30
0.0
 10
211.560225
 20
658.189225
 30
0.0
 10
203.250376
 20
663.445998
 30
0.0
 10
203.019721
 20
668.520329
 30
0.0
  0
SPLINE
  5
14f
100
AcDbEntity
  8
dessin_vecteur
 62
7
100
AcDbSpline
 70
8
 71
3
 72
8
 73
4
 74
0
 40
0
 40
0
 40
0
 40
0
 40
1
 40
1
 40
1
 40
1
 10
203.019721
 20
668.520329
 30
0.0
 10
202.799186
 20
673.369449
 30
0.0
 10
231.339249
 20
673.023036
 30
0.0
 10
231.442571
 20
669.535430
 30
0.0
  0
SPLINE
  5
150
100
AcDbEntity
  8
dessin_vecteur
 62
7
100
AcDbSpline
 70
8
 71
3
 72
8
 73
4
 74
0
 40
0
 40
0
 40
0
 40
0
 40
1
 40
1
 40
1
 40
1
 10
231.442571
 20
669.535430
 30
0.0
 10
231.618319
 20
663.605317
 30
0.0
 10
223.219264
 20
658.546679
 30
0.0
 10
217.434178
 20
658.369310
 30
0.0
  0
LWPOLYLINE
  5
151
100
AcDbEntity
  8
dessin_vecteur
 62
7
100
AcDbPolyline
 90
1
 70
1
 10
220.074151
 20
541.419506
 30
0.0
  0
SPLINE
  5
152
100
AcDbEntity
  8
dessin_vecteur
 62
7
100
AcDbSpline
 70
8
 71
3
 72
8
 73
4
 74
0
 40
0
 40
0
 40
0
 40
0
 40
1
 40
1
 40
1
 40
1
 10
249.093275
 20
620.469896
 30
0.0
 10
322.760948
 20
631.506674
 30
0.0
 10
309.583956
 20
700.610944
 30
0.0
 10
289.697414
 20
734.973423
 30
0.0
  0
SPLINE
  5
153
100
AcDbEntity
  8
dessin_vecteur
 62
7
100
AcDbSpline
 70
8
 71
3
 72
8
 73
4
 74
0
 40
0
 40
0
 40
0
 40
0
 40
1
 40
1
 40
1
 40
1
 10
289.697414
 20
734.973423
 30
0.0
 10
258.351687
 20
789.136532
 30
0.0
 10
182.520031
 20
786.176881
 30
0.0
 10
150.831397
 20
744.312362
 30
0.0
  0
SPLINE
  5
154
100
AcDbEntity
  8
dessin_vecteur
 62
7
100
AcDbSpline
 70
8
 71
3
 72
8
 73
4
 74
0
 40
0
 40
0
 40
0
 40
0
 40
1
 40
1
 40
1
 40
1
 10
150.831397
 20
744.312362
 30
0.0
 10
118.055032
 20
701.010833
 30
0.0
 10
123.601802
 20
634.981348
 30
0.0
 10
168.697196
 20
624.936336
 30
0.0
  0
SPLINE
  5
155
100
AcDbEntity
  8
dessin_vecteur
 62
7
100
AcDbSpline
 70
8
 71
3
 72
8
 73
4
 74
0
 40
0
 40
0
 40
0
 40
0
 40
1
 40
1
 40
1
 40
1
 10
168.697196
 20
624.936336
 30
0.0
 10
199.047747
 20
618.175743
 30
0.0
 10
219.255256
 20
615.999611
 30
0.0
 10
249.093275
 20
620.469896
 30
0.0
  0
LWPOLYLINE
  5
156
100
AcDbEntity
  8
dessin_vecteur
 62
7
100
AcDbPolyline
 90
1
 70
1
 10
217.434178
 20
658.369310
 30
0.0
  0
SPLINE
  5
157
100
AcDbEntity
  8
dessin_vecteur
 62
7
100
AcDbSpline
 70
8
 71
3
 72
8
 73
4
 74
0
 40
0
 40
0
 40
0
 40
0
 40
1
 40
1
 40
1
 40
1
 10
217.231869
 20
652.268670
 30
0.0
 10
217.231869
 20
652.268670
 30
0.0
 10
219.666229
 20
646.898978
 30
0.0
 10
228.397995
 20
646.990138
 30
0.0
  0
SPLINE
  5
158
100
AcDbEntity
  8
dessin_vecteur
 62
7
100
AcDbSpline
 70
8
 71
3
 72
8
 73
4
 74
0
 40
0
 40
0
 40
0
 40
0
 40
1
 40
1
 40
1
 40
1
 10
228.397995
 20
646.990138
 30
0.0
 10
240.906220
 20
647.120730
 30
0.0
 10
240.545823
 20
657.392275
 30
0.0
 10
239.564120
 20
657.953249
 30
0.0
  0
SPLINE
  5
159
100
AcDbEntity
  8
dessin_vecteur
 62
7
100
AcDbSpline
 70
8
 71
3
 72
8
 73
4
 74
0
 40
0
 40
0
 40
0
 40
0
 40
1
 40
1
 40
1
 40
1
 10
239.564120
 20
657.953249
 30
0.0
 10
239.422870
 20
658.006087
 30
0.0
 10
238.608944
 20
650.895018
 30
0.0
 10
229.616118
 20
650.238471
 30
0.0
  0
SPLINE
  5
15a
100
AcDbEntity
  8
dessin_vecteur
 62
7
100
AcDbSpline
 70
8
 71
3
 72
8
 73
4
 74
0
 40
0
 40
0
 40
0
 40
0
 40
1
 40
1
 40
1
 40
1
 10
229.616118
 20
650.238471
 30
0.0
 10
219.095938
 20
649.470416
 30
0.0
 10
217.434178
 20
658.369312
 30
0.0
 10
217.434178
 20
658.369312
 30
0.0
  0
SPLINE
  5
15b
100
AcDbEntity
  8
dessin_vecteur
 62
7
100
AcDbSpline
 70
8
 71
3
 72
8
 73
4
 74
0
 40
0
 40
0
 40
0
 40
0
 40
1
 40
1
 40
1
 40
1
 10
217.434178
 20
658.369312
 30
0.0
 10
217.434178
 20
658.369312
 30
0.0
 10
215.810728
 20
649.832426
 30
0.0
 10
205.456686
 20
650.847529
 30
0.0
  0
SPLINE
  5
15c
100
AcDbEntity
  8
dessin_vecteur
 62
7
100
AcDbSpline
 70
8
 71
3
 72
8
 73
4
 74
0
 40
0
 40
0
 40
0
 40
0
 40
1
 40
1
 40
1
 40
1
 10
205.456686
 20
650.847529
 30
0.0
 10
195.102643
 20
651.862630
 30
0.0
 10
194.696606
 20
657.750226
 30
0.0
 10
194.696606
 20
657.750226
 30
0.0
  0
SPLINE
  5
15d
100
AcDbEntity
  8
dessin_vecteur
 62
7
100
AcDbSpline
 70
8
 71
3
 72
8
 73
4
 74
0
 40
0
 40
0
 40
0
 40
0
 40
1
 40
1
 40
1
 40
1
 10
194.696606
 20
657.750226
 30
0.0
 10
193.534169
 20
657.726698
 30
0.0
 10
193.578508
 20
647.936884
 30
0.0
 10
204.441582
 20
647.599207
 30
0.0
  0
SPLINE
  5
15e
100
AcDbEntity
  8
dessin_vecteur
 62
7
100
AcDbSpline
 70
8
 71
3
 72
8
 73
4
 74
0
 40
0
 40
0
 40
0
 40
0
 40
1
 40
1
 40
1
 40
1
 10
204.441582
 20
647.599207
 30
0.0
 10
215.510652
 20
647.255129
 30
0.0
 10
217.345663
 20
652.060259
 30
0.0
 10
217.231869
 20
652.268670
 30
0.0
  0
LWPOLYLINE
  5
15f
100
AcDbEntity
  8
dessin_vecteur
 62
7
100
AcDbPolyline
 90
1
 70
1
 10
249.093275
 20
620.469896
 30
0.0
  0
LWPOLYLINE
  5
160
100
AcDbEntity
  8
dessin_vecteur
 62
7
100
AcDbPolyline
 90
1
 70
1
 10
217.231869
 20
652.268670
 30
0.0
  0
ENDSEC
  0
SECTION
  2
OBJECTS
  0
DICTIONARY
  5
C
330
0
100
AcDbDictionary
  3
ACAD_GROUP
350
D
  3
ACAD_MLINESTYLE
350
17
  0
DICTIONARY
  5
D
330
C
100
AcDbDictionary
  0
DICTIONARY
  5
1A
330
C
100
AcDbDictionary
  0
DICTIONARY
  5
17
330
C
100
AcDbDictionary
  3
STANDARD
350
18
  0
DICTIONARY
  5
19
330
C
100
AcDbDictionary
  0
ENDSEC
  0
EOF
