  0
SECTION
  2
HEADER
  9
$ACADVER
  1
AC1009
  9
$EXTMIN
 10
0.0
 20
0.0
 30
0.0
  9
$EXTMAX
 10
1000.0
 20
1000.0
 30
0.0
  9
$FILLMODE
 70
 0
  9
$SPLFRAME
 70
 1
  0
ENDSEC
  0
SECTION
  2
TABLES
  0
TABLE
  2
LAYER
 70
1
  0
LAYER
  2
0
 70
     0
 62
     7
  6
CONTINUOUS
  0
ENDTAB
  0
ENDSEC
  0
SECTION
  2
ENTITIES
  0
POLYLINE
  8
0
 62
     0
 66
     1
 10
0
 20
0
 30
0.0
 70
     1
 40
1.36063
 41
1.36063
  0
VERTEX
  8
0
 10
10.2402
 20
10.7501
 30
0.0
 40
0.48
 41
0.48
  0
VERTEX
  8
0
 10
21.2397
 20
10.7501
 30
0.0
 40
0.48
 41
0.48
  0
VERTEX
  8
0
 10
21.2631
 20
10.7501
 30
0.0
 40
0.48
 41
0.48
  0
VERTEX
  8
0
 10
21.3334
 20
10.7694
 30
0.0
 40
0.48
 41
0.48
  0
VERTEX
  8
0
 10
21.4092
 20
10.8204
 30
0.0
 40
0.48
 41
0.48
  0
VERTEX
  8
0
 10
21.4602
 20
10.8975
 30
0.0
 40
0.48
 41
0.48
  0
VERTEX
  8
0
 10
21.4795
 20
10.9678
 30
0.0
 40
0.48
 41
0.48
  0
VERTEX
  8
0
 10
21.4795
 20
10.9898
 30
0.0
 40
0.48
 41
0.48
  0
VERTEX
  8
0
 10
21.4795
 20
13.9899
 30
0.0
 40
0.48
 41
0.48
  0
VERTEX
  8
0
 10
21.4795
 20
13.9678
 30
0.0
 40
0.48
 41
0.48
  0
VERTEX
  8
0
 10
21.4602
 20
13.8975
 30
0.0
 40
0.48
 41
0.48
  0
VERTEX
  8
0
 10
21.4092
 20
13.8204
 30
0.0
 40
0.48
 41
0.48
  0
VERTEX
  8
0
 10
21.3334
 20
13.7694
 30
0.0
 40
0.48
 41
0.48
  0
VERTEX
  8
0
 10
21.2631
 20
13.7501
 30
0.0
 40
0.48
 41
0.48
  0
VERTEX
  8
0
 10
21.2397
 20
13.7501
 30
0.0
 40
0.48
 41
0.48
  0
VERTEX
  8
0
 10
27.2397
 20
13.7501
 30
0.0
 40
0.48
 41
0.48
  0
VERTEX
  8
0
 10
27.2162
 20
13.7501
 30
0.0
 40
0.48
 41
0.48
  0
VERTEX
  8
0
 10
27.146
 20
13.7694
 30
0.0
 40
0.48
 41
0.48
  0
VERTEX
  8
0
 10
27.0702
 20
13.8204
 30
0.0
 40
0.48
 41
0.48
  0
VERTEX
  8
0
 10
27.0178
 20
13.8975
 30
0.0
 40
0.48
 41
0.48
  0
VERTEX
  8
0
 10
26.9999
 20
13.9678
 30
0.0
 40
0.48
 41
0.48
  0
VERTEX
  8
0
 10
26.9999
 20
13.9899
 30
0.0
 40
0.48
 41
0.48
  0
VERTEX
  8
0
 10
26.9999
 20
10.9898
 30
0.0
 40
0.48
 41
0.48
  0
VERTEX
  8
0
 10
26.9999
 20
10.9678
 30
0.0
 40
0.48
 41
0.48
  0
VERTEX
  8
0
 10
27.0178
 20
10.8975
 30
0.0
 40
0.48
 41
0.48
  0
VERTEX
  8
0
 10
27.0702
 20
10.8204
 30
0.0
 40
0.48
 41
0.48
  0
VERTEX
  8
0
 10
27.146
 20
10.7694
 30
0.0
 40
0.48
 41
0.48
  0
VERTEX
  8
0
 10
27.2162
 20
10.7501
 30
0.0
 40
0.48
 41
0.48
  0
VERTEX
  8
0
 10
27.2397
 20
10.7501
 30
0.0
 40
0.48
 41
0.48
  0
VERTEX
  8
0
 10
33.2397
 20
10.7501
 30
0.0
 40
0.48
 41
0.48
  0
VERTEX
  8
0
 10
33.2617
 20
10.7501
 30
0.0
 40
0.48
 41
0.48
  0
VERTEX
  8
0
 10
33.332
 20
10.7694
 30
0.0
 40
0.48
 41
0.48
  0
VERTEX
  8
0
 10
33.4092
 20
10.8204
 30
0.0
 40
0.48
 41
0.48
  0
VERTEX
  8
0
 10
33.4602
 20
10.8975
 30
0.0
 40
0.48
 41
0.48
  0
VERTEX
  8
0
 10
33.4794
 20
10.9678
 30
0.0
 40
0.48
 41
0.48
  0
VERTEX
  8
0
 10
33.4794
 20
10.9898
 30
0.0
 40
0.48
 41
0.48
  0
VERTEX
  8
0
 10
33.4794
 20
13.9899
 30
0.0
 40
0.48
 41
0.48
  0
VERTEX
  8
0
 10
33.4794
 20
13.9678
 30
0.0
 40
0.48
 41
0.48
  0
VERTEX
  8
0
 10
33.4602
 20
13.8975
 30
0.0
 40
0.48
 41
0.48
  0
VERTEX
  8
0
 10
33.4092
 20
13.8204
 30
0.0
 40
0.48
 41
0.48
  0
VERTEX
  8
0
 10
33.332
 20
13.7694
 30
0.0
 40
0.48
 41
0.48
  0
VERTEX
  8
0
 10
33.2617
 20
13.7501
 30
0.0
 40
0.48
 41
0.48
  0
VERTEX
  8
0
 10
33.2397
 20
13.7501
 30
0.0
 40
0.48
 41
0.48
  0
VERTEX
  8
0
 10
39.2395
 20
13.7501
 30
0.0
 40
0.48
 41
0.48
  0
VERTEX
  8
0
 10
39.2162
 20
13.7501
 30
0.0
 40
0.48
 41
0.48
  0
VERTEX
  8
0
 10
39.146
 20
13.7694
 30
0.0
 40
0.48
 41
0.48
  0
VERTEX
  8
0
 10
39.0701
 20
13.8204
 30
0.0
 40
0.48
 41
0.48
  0
VERTEX
  8
0
 10
39.0179
 20
13.8975
 30
0.0
 40
0.48
 41
0.48
  0
VERTEX
  8
0
 10
38.9999
 20
13.9678
 30
0.0
 40
0.48
 41
0.48
  0
VERTEX
  8
0
 10
38.9999
 20
13.9899
 30
0.0
 40
0.48
 41
0.48
  0
VERTEX
  8
0
 10
38.9999
 20
10.9898
 30
0.0
 40
0.48
 41
0.48
  0
VERTEX
  8
0
 10
38.9999
 20
10.9678
 30
0.0
 40
0.48
 41
0.48
  0
VERTEX
  8
0
 10
39.0179
 20
10.8975
 30
0.0
 40
0.48
 41
0.48
  0
VERTEX
  8
0
 10
39.0701
 20
10.8204
 30
0.0
 40
0.48
 41
0.48
  0
VERTEX
  8
0
 10
39.146
 20
10.7694
 30
0.0
 40
0.48
 41
0.48
  0
VERTEX
  8
0
 10
39.2162
 20
10.7501
 30
0.0
 40
0.48
 41
0.48
  0
VERTEX
  8
0
 10
39.2395
 20
10.7501
 30
0.0
 40
0.48
 41
0.48
  0
VERTEX
  8
0
 10
50.2405
 20
10.7501
 30
0.0
 40
0.48
 41
0.48
  0
VERTEX
  8
0
 10
73.8022
 20
10.7501
 30
0.0
 40
0.48
 41
0.48
  0
VERTEX
  8
0
 10
84.8018
 20
10.7501
 30
0.0
 40
0.48
 41
0.48
  0
VERTEX
  8
0
 10
84.8237
 20
10.7501
 30
0.0
 40
0.48
 41
0.48
  0
VERTEX
  8
0
 10
84.8942
 20
10.7694
 30
0.0
 40
0.48
 41
0.48
  0
VERTEX
  8
0
 10
84.9711
 20
10.8204
 30
0.0
 40
0.48
 41
0.48
  0
VERTEX
  8
0
 10
85.0223
 20
10.8975
 30
0.0
 40
0.48
 41
0.48
  0
VERTEX
  8
0
 10
85.0417
 20
10.9678
 30
0.0
 40
0.48
 41
0.48
  0
VERTEX
  8
0
 10
85.0417
 20
10.9898
 30
0.0
 40
0.48
 41
0.48
  0
VERTEX
  8
0
 10
85.0417
 20
13.9899
 30
0.0
 40
0.48
 41
0.48
  0
VERTEX
  8
0
 10
85.0417
 20
13.9678
 30
0.0
 40
0.48
 41
0.48
  0
VERTEX
  8
0
 10
85.0223
 20
13.8975
 30
0.0
 40
0.48
 41
0.48
  0
VERTEX
  8
0
 10
84.9711
 20
13.8204
 30
0.0
 40
0.48
 41
0.48
  0
VERTEX
  8
0
 10
84.8942
 20
13.7694
 30
0.0
 40
0.48
 41
0.48
  0
VERTEX
  8
0
 10
84.8237
 20
13.7501
 30
0.0
 40
0.48
 41
0.48
  0
VERTEX
  8
0
 10
84.8018
 20
13.7501
 30
0.0
 40
0.48
 41
0.48
  0
VERTEX
  8
0
 10
90.8018
 20
13.7501
 30
0.0
 40
0.48
 41
0.48
  0
VERTEX
  8
0
 10
90.7782
 20
13.7501
 30
0.0
 40
0.48
 41
0.48
  0
VERTEX
  8
0
 10
90.708
 20
13.7694
 30
0.0
 40
0.48
 41
0.48
  0
VERTEX
  8
0
 10
90.6321
 20
13.8204
 30
0.0
 40
0.48
 41
0.48
  0
VERTEX
  8
0
 10
90.5799
 20
13.8975
 30
0.0
 40
0.48
 41
0.48
  0
VERTEX
  8
0
 10
90.5619
 20
13.9678
 30
0.0
 40
0.48
 41
0.48
  0
VERTEX
  8
0
 10
90.5619
 20
13.9899
 30
0.0
 40
0.48
 41
0.48
  0
VERTEX
  8
0
 10
90.5619
 20
10.9898
 30
0.0
 40
0.48
 41
0.48
  0
VERTEX
  8
0
 10
90.5619
 20
10.9678
 30
0.0
 40
0.48
 41
0.48
  0
VERTEX
  8
0
 10
90.5799
 20
10.8975
 30
0.0
 40
0.48
 41
0.48
  0
VERTEX
  8
0
 10
90.6321
 20
10.8204
 30
0.0
 40
0.48
 41
0.48
  0
VERTEX
  8
0
 10
90.708
 20
10.7694
 30
0.0
 40
0.48
 41
0.48
  0
VERTEX
  8
0
 10
90.7782
 20
10.7501
 30
0.0
 40
0.48
 41
0.48
  0
VERTEX
  8
0
 10
90.8018
 20
10.7501
 30
0.0
 40
0.48
 41
0.48
  0
VERTEX
  8
0
 10
96.8015
 20
10.7501
 30
0.0
 40
0.48
 41
0.48
  0
VERTEX
  8
0
 10
96.8237
 20
10.7501
 30
0.0
 40
0.48
 41
0.48
  0
VERTEX
  8
0
 10
96.8939
 20
10.7694
 30
0.0
 40
0.48
 41
0.48
  0
VERTEX
  8
0
 10
96.9712
 20
10.8204
 30
0.0
 40
0.48
 41
0.48
  0
VERTEX
  8
0
 10
97.022
 20
10.8975
 30
0.0
 40
0.48
 41
0.48
  0
VERTEX
  8
0
 10
97.0414
 20
10.9678
 30
0.0
 40
0.48
 41
0.48
  0
VERTEX
  8
0
 10
97.0414
 20
10.9898
 30
0.0
 40
0.48
 41
0.48
  0
VERTEX
  8
0
 10
97.0414
 20
13.9899
 30
0.0
 40
0.48
 41
0.48
  0
VERTEX
  8
0
 10
97.0414
 20
13.9678
 30
0.0
 40
0.48
 41
0.48
  0
VERTEX
  8
0
 10
97.022
 20
13.8975
 30
0.0
 40
0.48
 41
0.48
  0
VERTEX
  8
0
 10
96.9712
 20
13.8204
 30
0.0
 40
0.48
 41
0.48
  0
VERTEX
  8
0
 10
96.8939
 20
13.7694
 30
0.0
 40
0.48
 41
0.48
  0
VERTEX
  8
0
 10
96.8237
 20
13.7501
 30
0.0
 40
0.48
 41
0.48
  0
VERTEX
  8
0
 10
96.8015
 20
13.7501
 30
0.0
 40
0.48
 41
0.48
  0
VERTEX
  8
0
 10
102.802
 20
13.7501
 30
0.0
 40
0.48
 41
0.48
  0
VERTEX
  8
0
 10
102.778
 20
13.7501
 30
0.0
 40
0.48
 41
0.48
  0
VERTEX
  8
0
 10
102.708
 20
13.7694
 30
0.0
 40
0.48
 41
0.48
  0
VERTEX
  8
0
 10
102.632
 20
13.8204
 30
0.0
 40
0.48
 41
0.48
  0
VERTEX
  8
0
 10
102.58
 20
13.8975
 30
0.0
 40
0.48
 41
0.48
  0
VERTEX
  8
0
 10
102.562
 20
13.9678
 30
0.0
 40
0.48
 41
0.48
  0
VERTEX
  8
0
 10
102.562
 20
13.9899
 30
0.0
 40
0.48
 41
0.48
  0
VERTEX
  8
0
 10
102.562
 20
10.9898
 30
0.0
 40
0.48
 41
0.48
  0
VERTEX
  8
0
 10
102.562
 20
10.9678
 30
0.0
 40
0.48
 41
0.48
  0
VERTEX
  8
0
 10
102.58
 20
10.8975
 30
0.0
 40
0.48
 41
0.48
  0
VERTEX
  8
0
 10
102.632
 20
10.8204
 30
0.0
 40
0.48
 41
0.48
  0
VERTEX
  8
0
 10
102.708
 20
10.7694
 30
0.0
 40
0.48
 41
0.48
  0
VERTEX
  8
0
 10
102.778
 20
10.7501
 30
0.0
 40
0.48
 41
0.48
  0
VERTEX
  8
0
 10
102.802
 20
10.7501
 30
0.0
 40
0.48
 41
0.48
  0
VERTEX
  8
0
 10
108.802
 20
10.7501
 30
0.0
 40
0.48
 41
0.48
  0
VERTEX
  8
0
 10
108.824
 20
10.7501
 30
0.0
 40
0.48
 41
0.48
  0
VERTEX
  8
0
 10
108.894
 20
10.7694
 30
0.0
 40
0.48
 41
0.48
  0
VERTEX
  8
0
 10
108.971
 20
10.8204
 30
0.0
 40
0.48
 41
0.48
  0
VERTEX
  8
0
 10
109.022
 20
10.8975
 30
0.0
 40
0.48
 41
0.48
  0
VERTEX
  8
0
 10
109.041
 20
10.9678
 30
0.0
 40
0.48
 41
0.48
  0
VERTEX
  8
0
 10
109.041
 20
10.9898
 30
0.0
 40
0.48
 41
0.48
  0
VERTEX
  8
0
 10
109.041
 20
13.9899
 30
0.0
 40
0.48
 41
0.48
  0
VERTEX
  8
0
 10
109.041
 20
13.9678
 30
0.0
 40
0.48
 41
0.48
  0
VERTEX
  8
0
 10
109.022
 20
13.8975
 30
0.0
 40
0.48
 41
0.48
  0
VERTEX
  8
0
 10
108.971
 20
13.8204
 30
0.0
 40
0.48
 41
0.48
  0
VERTEX
  8
0
 10
108.894
 20
13.7694
 30
0.0
 40
0.48
 41
0.48
  0
VERTEX
  8
0
 10
108.824
 20
13.7501
 30
0.0
 40
0.48
 41
0.48
  0
VERTEX
  8
0
 10
108.802
 20
13.7501
 30
0.0
 40
0.48
 41
0.48
  0
VERTEX
  8
0
 10
114.802
 20
13.7501
 30
0.0
 40
0.48
 41
0.48
  0
VERTEX
  8
0
 10
114.778
 20
13.7501
 30
0.0
 40
0.48
 41
0.48
  0
VERTEX
  8
0
 10
114.708
 20
13.7694
 30
0.0
 40
0.48
 41
0.48
  0
VERTEX
  8
0
 10
114.632
 20
13.8204
 30
0.0
 40
0.48
 41
0.48
  0
VERTEX
  8
0
 10
114.58
 20
13.8975
 30
0.0
 40
0.48
 41
0.48
  0
VERTEX
  8
0
 10
114.562
 20
13.9678
 30
0.0
 40
0.48
 41
0.48
  0
VERTEX
  8
0
 10
114.562
 20
13.9899
 30
0.0
 40
0.48
 41
0.48
  0
VERTEX
  8
0
 10
114.562
 20
10.9898
 30
0.0
 40
0.48
 41
0.48
  0
VERTEX
  8
0
 10
114.562
 20
10.9678
 30
0.0
 40
0.48
 41
0.48
  0
VERTEX
  8
0
 10
114.58
 20
10.8975
 30
0.0
 40
0.48
 41
0.48
  0
VERTEX
  8
0
 10
114.632
 20
10.8204
 30
0.0
 40
0.48
 41
0.48
  0
VERTEX
  8
0
 10
114.708
 20
10.7694
 30
0.0
 40
0.48
 41
0.48
  0
VERTEX
  8
0
 10
114.778
 20
10.7501
 30
0.0
 40
0.48
 41
0.48
  0
VERTEX
  8
0
 10
114.802
 20
10.7501
 30
0.0
 40
0.48
 41
0.48
  0
VERTEX
  8
0
 10
120.802
 20
10.7501
 30
0.0
 40
0.48
 41
0.48
  0
VERTEX
  8
0
 10
120.824
 20
10.7501
 30
0.0
 40
0.48
 41
0.48
  0
VERTEX
  8
0
 10
120.894
 20
10.7694
 30
0.0
 40
0.48
 41
0.48
  0
VERTEX
  8
0
 10
120.971
 20
10.8204
 30
0.0
 40
0.48
 41
0.48
  0
VERTEX
  8
0
 10
121.022
 20
10.8975
 30
0.0
 40
0.48
 41
0.48
  0
VERTEX
  8
0
 10
121.041
 20
10.9678
 30
0.0
 40
0.48
 41
0.48
  0
VERTEX
  8
0
 10
121.041
 20
10.9898
 30
0.0
 40
0.48
 41
0.48
  0
VERTEX
  8
0
 10
121.041
 20
13.9899
 30
0.0
 40
0.48
 41
0.48
  0
VERTEX
  8
0
 10
121.041
 20
13.9678
 30
0.0
 40
0.48
 41
0.48
  0
VERTEX
  8
0
 10
121.022
 20
13.8975
 30
0.0
 40
0.48
 41
0.48
  0
VERTEX
  8
0
 10
120.971
 20
13.8204
 30
0.0
 40
0.48
 41
0.48
  0
VERTEX
  8
0
 10
120.894
 20
13.7694
 30
0.0
 40
0.48
 41
0.48
  0
VERTEX
  8
0
 10
120.824
 20
13.7501
 30
0.0
 40
0.48
 41
0.48
  0
VERTEX
  8
0
 10
120.802
 20
13.7501
 30
0.0
 40
0.48
 41
0.48
  0
VERTEX
  8
0
 10
126.802
 20
13.7501
 30
0.0
 40
0.48
 41
0.48
  0
VERTEX
  8
0
 10
126.778
 20
13.7501
 30
0.0
 40
0.48
 41
0.48
  0
VERTEX
  8
0
 10
126.708
 20
13.7694
 30
0.0
 40
0.48
 41
0.48
  0
VERTEX
  8
0
 10
126.632
 20
13.8204
 30
0.0
 40
0.48
 41
0.48
  0
VERTEX
  8
0
 10
126.58
 20
13.8975
 30
0.0
 40
0.48
 41
0.48
  0
VERTEX
  8
0
 10
126.562
 20
13.9678
 30
0.0
 40
0.48
 41
0.48
  0
VERTEX
  8
0
 10
126.562
 20
13.9899
 30
0.0
 40
0.48
 41
0.48
  0
VERTEX
  8
0
 10
126.562
 20
10.9898
 30
0.0
 40
0.48
 41
0.48
  0
VERTEX
  8
0
 10
126.562
 20
10.9678
 30
0.0
 40
0.48
 41
0.48
  0
VERTEX
  8
0
 10
126.58
 20
10.8975
 30
0.0
 40
0.48
 41
0.48
  0
VERTEX
  8
0
 10
126.632
 20
10.8204
 30
0.0
 40
0.48
 41
0.48
  0
VERTEX
  8
0
 10
126.708
 20
10.7694
 30
0.0
 40
0.48
 41
0.48
  0
VERTEX
  8
0
 10
126.778
 20
10.7501
 30
0.0
 40
0.48
 41
0.48
  0
VERTEX
  8
0
 10
126.802
 20
10.7501
 30
0.0
 40
0.48
 41
0.48
  0
VERTEX
  8
0
 10
137.802
 20
10.7501
 30
0.0
 40
0.48
 41
0.48
  0
VERTEX
  8
0
 10
161.364
 20
10.7501
 30
0.0
 40
0.48
 41
0.48
  0
VERTEX
  8
0
 10
172.364
 20
10.7501
 30
0.0
 40
0.48
 41
0.48
  0
VERTEX
  8
0
 10
172.386
 20
10.7501
 30
0.0
 40
0.48
 41
0.48
  0
VERTEX
  8
0
 10
172.456
 20
10.7694
 30
0.0
 40
0.48
 41
0.48
  0
VERTEX
  8
0
 10
172.533
 20
10.8204
 30
0.0
 40
0.48
 41
0.48
  0
VERTEX
  8
0
 10
172.584
 20
10.8975
 30
0.0
 40
0.48
 41
0.48
  0
VERTEX
  8
0
 10
172.604
 20
10.9678
 30
0.0
 40
0.48
 41
0.48
  0
VERTEX
  8
0
 10
172.604
 20
10.9898
 30
0.0
 40
0.48
 41
0.48
  0
VERTEX
  8
0
 10
172.604
 20
13.9899
 30
0.0
 40
0.48
 41
0.48
  0
VERTEX
  8
0
 10
172.604
 20
13.9678
 30
0.0
 40
0.48
 41
0.48
  0
VERTEX
  8
0
 10
172.584
 20
13.8975
 30
0.0
 40
0.48
 41
0.48
  0
VERTEX
  8
0
 10
172.533
 20
13.8204
 30
0.0
 40
0.48
 41
0.48
  0
VERTEX
  8
0
 10
172.456
 20
13.7694
 30
0.0
 40
0.48
 41
0.48
  0
VERTEX
  8
0
 10
172.386
 20
13.7501
 30
0.0
 40
0.48
 41
0.48
  0
VERTEX
  8
0
 10
172.364
 20
13.7501
 30
0.0
 40
0.48
 41
0.48
  0
VERTEX
  8
0
 10
178.364
 20
13.7501
 30
0.0
 40
0.48
 41
0.48
  0
VERTEX
  8
0
 10
178.34
 20
13.7501
 30
0.0
 40
0.48
 41
0.48
  0
VERTEX
  8
0
 10
178.27
 20
13.7694
 30
0.0
 40
0.48
 41
0.48
  0
VERTEX
  8
0
 10
178.194
 20
13.8204
 30
0.0
 40
0.48
 41
0.48
  0
VERTEX
  8
0
 10
178.142
 20
13.8975
 30
0.0
 40
0.48
 41
0.48
  0
VERTEX
  8
0
 10
178.124
 20
13.9678
 30
0.0
 40
0.48
 41
0.48
  0
VERTEX
  8
0
 10
178.124
 20
13.9899
 30
0.0
 40
0.48
 41
0.48
  0
VERTEX
  8
0
 10
178.124
 20
10.9898
 30
0.0
 40
0.48
 41
0.48
  0
VERTEX
  8
0
 10
178.124
 20
10.9678
 30
0.0
 40
0.48
 41
0.48
  0
VERTEX
  8
0
 10
178.142
 20
10.8975
 30
0.0
 40
0.48
 41
0.48
  0
VERTEX
  8
0
 10
178.194
 20
10.8204
 30
0.0
 40
0.48
 41
0.48
  0
VERTEX
  8
0
 10
178.27
 20
10.7694
 30
0.0
 40
0.48
 41
0.48
  0
VERTEX
  8
0
 10
178.34
 20
10.7501
 30
0.0
 40
0.48
 41
0.48
  0
VERTEX
  8
0
 10
178.364
 20
10.7501
 30
0.0
 40
0.48
 41
0.48
  0
VERTEX
  8
0
 10
184.363
 20
10.7501
 30
0.0
 40
0.48
 41
0.48
  0
VERTEX
  8
0
 10
184.386
 20
10.7501
 30
0.0
 40
0.48
 41
0.48
  0
VERTEX
  8
0
 10
184.456
 20
10.7694
 30
0.0
 40
0.48
 41
0.48
  0
VERTEX
  8
0
 10
184.533
 20
10.8204
 30
0.0
 40
0.48
 41
0.48
  0
VERTEX
  8
0
 10
184.584
 20
10.8975
 30
0.0
 40
0.48
 41
0.48
  0
VERTEX
  8
0
 10
184.603
 20
10.9678
 30
0.0
 40
0.48
 41
0.48
  0
VERTEX
  8
0
 10
184.603
 20
10.9898
 30
0.0
 40
0.48
 41
0.48
  0
VERTEX
  8
0
 10
184.603
 20
13.9899
 30
0.0
 40
0.48
 41
0.48
  0
VERTEX
  8
0
 10
184.603
 20
13.9678
 30
0.0
 40
0.48
 41
0.48
  0
VERTEX
  8
0
 10
184.584
 20
13.8975
 30
0.0
 40
0.48
 41
0.48
  0
VERTEX
  8
0
 10
184.533
 20
13.8204
 30
0.0
 40
0.48
 41
0.48
  0
VERTEX
  8
0
 10
184.456
 20
13.7694
 30
0.0
 40
0.48
 41
0.48
  0
VERTEX
  8
0
 10
184.386
 20
13.7501
 30
0.0
 40
0.48
 41
0.48
  0
VERTEX
  8
0
 10
184.363
 20
13.7501
 30
0.0
 40
0.48
 41
0.48
  0
VERTEX
  8
0
 10
190.363
 20
13.7501
 30
0.0
 40
0.48
 41
0.48
  0
VERTEX
  8
0
 10
190.34
 20
13.7501
 30
0.0
 40
0.48
 41
0.48
  0
VERTEX
  8
0
 10
190.27
 20
13.7694
 30
0.0
 40
0.48
 41
0.48
  0
VERTEX
  8
0
 10
190.194
 20
13.8204
 30
0.0
 40
0.48
 41
0.48
  0
VERTEX
  8
0
 10
190.142
 20
13.8975
 30
0.0
 40
0.48
 41
0.48
  0
VERTEX
  8
0
 10
190.124
 20
13.9678
 30
0.0
 40
0.48
 41
0.48
  0
VERTEX
  8
0
 10
190.124
 20
13.9899
 30
0.0
 40
0.48
 41
0.48
  0
VERTEX
  8
0
 10
190.124
 20
10.9898
 30
0.0
 40
0.48
 41
0.48
  0
VERTEX
  8
0
 10
190.124
 20
10.9678
 30
0.0
 40
0.48
 41
0.48
  0
VERTEX
  8
0
 10
190.142
 20
10.8975
 30
0.0
 40
0.48
 41
0.48
  0
VERTEX
  8
0
 10
190.194
 20
10.8204
 30
0.0
 40
0.48
 41
0.48
  0
VERTEX
  8
0
 10
190.27
 20
10.7694
 30
0.0
 40
0.48
 41
0.48
  0
VERTEX
  8
0
 10
190.34
 20
10.7501
 30
0.0
 40
0.48
 41
0.48
  0
VERTEX
  8
0
 10
190.363
 20
10.7501
 30
0.0
 40
0.48
 41
0.48
  0
VERTEX
  8
0
 10
196.364
 20
10.7501
 30
0.0
 40
0.48
 41
0.48
  0
VERTEX
  8
0
 10
196.386
 20
10.7501
 30
0.0
 40
0.48
 41
0.48
  0
VERTEX
  8
0
 10
196.456
 20
10.7694
 30
0.0
 40
0.48
 41
0.48
  0
VERTEX
  8
0
 10
196.533
 20
10.8204
 30
0.0
 40
0.48
 41
0.48
  0
VERTEX
  8
0
 10
196.584
 20
10.8975
 30
0.0
 40
0.48
 41
0.48
  0
VERTEX
  8
0
 10
196.603
 20
10.9678
 30
0.0
 40
0.48
 41
0.48
  0
VERTEX
  8
0
 10
196.603
 20
10.9898
 30
0.0
 40
0.48
 41
0.48
  0
VERTEX
  8
0
 10
196.603
 20
13.9899
 30
0.0
 40
0.48
 41
0.48
  0
VERTEX
  8
0
 10
196.603
 20
13.9678
 30
0.0
 40
0.48
 41
0.48
  0
VERTEX
  8
0
 10
196.584
 20
13.8975
 30
0.0
 40
0.48
 41
0.48
  0
VERTEX
  8
0
 10
196.533
 20
13.8204
 30
0.0
 40
0.48
 41
0.48
  0
VERTEX
  8
0
 10
196.456
 20
13.7694
 30
0.0
 40
0.48
 41
0.48
  0
VERTEX
  8
0
 10
196.386
 20
13.7501
 30
0.0
 40
0.48
 41
0.48
  0
VERTEX
  8
0
 10
196.364
 20
13.7501
 30
0.0
 40
0.48
 41
0.48
  0
VERTEX
  8
0
 10
202.364
 20
13.7501
 30
0.0
 40
0.48
 41
0.48
  0
VERTEX
  8
0
 10
202.34
 20
13.7501
 30
0.0
 40
0.48
 41
0.48
  0
VERTEX
  8
0
 10
202.27
 20
13.7694
 30
0.0
 40
0.48
 41
0.48
  0
VERTEX
  8
0
 10
202.194
 20
13.8204
 30
0.0
 40
0.48
 41
0.48
  0
VERTEX
  8
0
 10
202.142
 20
13.8975
 30
0.0
 40
0.48
 41
0.48
  0
VERTEX
  8
0
 10
202.124
 20
13.9678
 30
0.0
 40
0.48
 41
0.48
  0
VERTEX
  8
0
 10
202.124
 20
13.9899
 30
0.0
 40
0.48
 41
0.48
  0
VERTEX
  8
0
 10
202.124
 20
10.9898
 30
0.0
 40
0.48
 41
0.48
  0
VERTEX
  8
0
 10
202.124
 20
10.9678
 30
0.0
 40
0.48
 41
0.48
  0
VERTEX
  8
0
 10
202.142
 20
10.8975
 30
0.0
 40
0.48
 41
0.48
  0
VERTEX
  8
0
 10
202.194
 20
10.8204
 30
0.0
 40
0.48
 41
0.48
  0
VERTEX
  8
0
 10
202.27
 20
10.7694
 30
0.0
 40
0.48
 41
0.48
  0
VERTEX
  8
0
 10
202.34
 20
10.7501
 30
0.0
 40
0.48
 41
0.48
  0
VERTEX
  8
0
 10
202.364
 20
10.7501
 30
0.0
 40
0.48
 41
0.48
  0
VERTEX
  8
0
 10
208.364
 20
10.7501
 30
0.0
 40
0.48
 41
0.48
  0
VERTEX
  8
0
 10
208.387
 20
10.7501
 30
0.0
 40
0.48
 41
0.48
  0
VERTEX
  8
0
 10
208.457
 20
10.7694
 30
0.0
 40
0.48
 41
0.48
  0
VERTEX
  8
0
 10
208.533
 20
10.8204
 30
0.0
 40
0.48
 41
0.48
  0
VERTEX
  8
0
 10
208.584
 20
10.8975
 30
0.0
 40
0.48
 41
0.48
  0
VERTEX
  8
0
 10
208.603
 20
10.9678
 30
0.0
 40
0.48
 41
0.48
  0
VERTEX
  8
0
 10
208.603
 20
10.9898
 30
0.0
 40
0.48
 41
0.48
  0
VERTEX
  8
0
 10
208.603
 20
13.9899
 30
0.0
 40
0.48
 41
0.48
  0
VERTEX
  8
0
 10
208.603
 20
13.9678
 30
0.0
 40
0.48
 41
0.48
  0
VERTEX
  8
0
 10
208.584
 20
13.8975
 30
0.0
 40
0.48
 41
0.48
  0
VERTEX
  8
0
 10
208.533
 20
13.8204
 30
0.0
 40
0.48
 41
0.48
  0
VERTEX
  8
0
 10
208.457
 20
13.7694
 30
0.0
 40
0.48
 41
0.48
  0
VERTEX
  8
0
 10
208.387
 20
13.7501
 30
0.0
 40
0.48
 41
0.48
  0
VERTEX
  8
0
 10
208.364
 20
13.7501
 30
0.0
 40
0.48
 41
0.48
  0
VERTEX
  8
0
 10
214.364
 20
13.7501
 30
0.0
 40
0.48
 41
0.48
  0
VERTEX
  8
0
 10
214.34
 20
13.7501
 30
0.0
 40
0.48
 41
0.48
  0
VERTEX
  8
0
 10
214.27
 20
13.7694
 30
0.0
 40
0.48
 41
0.48
  0
VERTEX
  8
0
 10
214.194
 20
13.8204
 30
0.0
 40
0.48
 41
0.48
  0
VERTEX
  8
0
 10
214.142
 20
13.8975
 30
0.0
 40
0.48
 41
0.48
  0
VERTEX
  8
0
 10
214.124
 20
13.9678
 30
0.0
 40
0.48
 41
0.48
  0
VERTEX
  8
0
 10
214.124
 20
13.9899
 30
0.0
 40
0.48
 41
0.48
  0
VERTEX
  8
0
 10
214.124
 20
10.9898
 30
0.0
 40
0.48
 41
0.48
  0
VERTEX
  8
0
 10
214.124
 20
10.9678
 30
0.0
 40
0.48
 41
0.48
  0
VERTEX
  8
0
 10
214.142
 20
10.8975
 30
0.0
 40
0.48
 41
0.48
  0
VERTEX
  8
0
 10
214.194
 20
10.8204
 30
0.0
 40
0.48
 41
0.48
  0
VERTEX
  8
0
 10
214.27
 20
10.7694
 30
0.0
 40
0.48
 41
0.48
  0
VERTEX
  8
0
 10
214.34
 20
10.7501
 30
0.0
 40
0.48
 41
0.48
  0
VERTEX
  8
0
 10
214.364
 20
10.7501
 30
0.0
 40
0.48
 41
0.48
  0
VERTEX
  8
0
 10
225.364
 20
10.7501
 30
0.0
 40
0.48
 41
0.48
  0
VERTEX
  8
0
 10
248.926
 20
10.7501
 30
0.0
 40
0.48
 41
0.48
  0
VERTEX
  8
0
 10
312.926
 20
10.7501
 30
0.0
 40
0.48
 41
0.48
  0
VERTEX
  8
0
 10
336.488
 20
10.7501
 30
0.0
 40
0.48
 41
0.48
  0
VERTEX
  8
0
 10
336.51
 20
10.7501
 30
0.0
 40
0.48
 41
0.48
  0
VERTEX
  8
0
 10
336.58
 20
10.7694
 30
0.0
 40
0.48
 41
0.48
  0
VERTEX
  8
0
 10
336.658
 20
10.8204
 30
0.0
 40
0.48
 41
0.48
  0
VERTEX
  8
0
 10
336.708
 20
10.8975
 30
0.0
 40
0.48
 41
0.48
  0
VERTEX
  8
0
 10
336.728
 20
10.9678
 30
0.0
 40
0.48
 41
0.48
  0
VERTEX
  8
0
 10
336.728
 20
10.9898
 30
0.0
 40
0.48
 41
0.48
  0
VERTEX
  8
0
 10
336.728
 20
14.2903
 30
0.0
 40
0.48
 41
0.48
  0
VERTEX
  8
0
 10
336.728
 20
14.2682
 30
0.0
 40
0.48
 41
0.48
  0
VERTEX
  8
0
 10
336.708
 20
14.1979
 30
0.0
 40
0.48
 41
0.48
  0
VERTEX
  8
0
 10
336.658
 20
14.1207
 30
0.0
 40
0.48
 41
0.48
  0
VERTEX
  8
0
 10
336.58
 20
14.0698
 30
0.0
 40
0.48
 41
0.48
  0
VERTEX
  8
0
 10
336.51
 20
14.0505
 30
0.0
 40
0.48
 41
0.48
  0
VERTEX
  8
0
 10
336.488
 20
14.0505
 30
0.0
 40
0.48
 41
0.48
  0
VERTEX
  8
0
 10
349.087
 20
14.0505
 30
0.0
 40
0.48
 41
0.48
  0
VERTEX
  8
0
 10
349.064
 20
14.0505
 30
0.0
 40
0.48
 41
0.48
  0
VERTEX
  8
0
 10
348.994
 20
14.0698
 30
0.0
 40
0.48
 41
0.48
  0
VERTEX
  8
0
 10
348.918
 20
14.1207
 30
0.0
 40
0.48
 41
0.48
  0
VERTEX
  8
0
 10
348.865
 20
14.1979
 30
0.0
 40
0.48
 41
0.48
  0
VERTEX
  8
0
 10
348.847
 20
14.2682
 30
0.0
 40
0.48
 41
0.48
  0
VERTEX
  8
0
 10
348.847
 20
14.2903
 30
0.0
 40
0.48
 41
0.48
  0
VERTEX
  8
0
 10
348.847
 20
10.9898
 30
0.0
 40
0.48
 41
0.48
  0
VERTEX
  8
0
 10
348.847
 20
10.9265
 30
0.0
 40
0.48
 41
0.48
  0
VERTEX
  8
0
 10
348.881
 20
10.7349
 30
0.0
 40
0.48
 41
0.48
  0
VERTEX
  8
0
 10
348.958
 20
10.5337
 30
0.0
 40
0.48
 41
0.48
  0
VERTEX
  8
0
 10
348.98
 20
10.4951
 30
0.0
 40
0.48
 41
0.48
  0
VERTEX
  8
0
 10
349.001
 20
10.4579
 30
0.0
 40
0.48
 41
0.48
  0
VERTEX
  8
0
 10
349.137
 20
10.2912
 30
0.0
 40
0.48
 41
0.48
  0
VERTEX
  8
0
 10
349.304
 20
10.1548
 30
0.0
 40
0.48
 41
0.48
  0
VERTEX
  8
0
 10
349.342
 20
10.1327
 30
0.0
 40
0.48
 41
0.48
  0
VERTEX
  8
0
 10
349.379
 20
10.1121
 30
0.0
 40
0.48
 41
0.48
  0
VERTEX
  8
0
 10
349.582
 20
10.0349
 30
0.0
 40
0.48
 41
0.48
  0
VERTEX
  8
0
 10
349.774
 20
10.0004
 30
0.0
 40
0.48
 41
0.48
  0
VERTEX
  8
0
 10
349.838
 20
10.0004
 30
0.0
 40
0.48
 41
0.48
  0
VERTEX
  8
0
 10
349.893
 20
10.0004
 30
0.0
 40
0.48
 41
0.48
  0
VERTEX
  8
0
 10
350.059
 20
10.0294
 30
0.0
 40
0.48
 41
0.48
  0
VERTEX
  8
0
 10
350.234
 20
10.0969
 30
0.0
 40
0.48
 41
0.48
  0
VERTEX
  8
0
 10
350.267
 20
10.1148
 30
0.0
 40
0.48
 41
0.48
  0
VERTEX
  8
0
 10
350.299
 20
10.1341
 30
0.0
 40
0.48
 41
0.48
  0
VERTEX
  8
0
 10
350.445
 20
10.2526
 30
0.0
 40
0.48
 41
0.48
  0
VERTEX
  8
0
 10
350.562
 20
10.3973
 30
0.0
 40
0.48
 41
0.48
  0
VERTEX
  8
0
 10
350.581
 20
10.429
 30
0.0
 40
0.48
 41
0.48
  0
VERTEX
  8
0
 10
350.599
 20
10.4621
 30
0.0
 40
0.48
 41
0.48
  0
VERTEX
  8
0
 10
350.667
 20
10.6371
 30
0.0
 40
0.48
 41
0.48
  0
VERTEX
  8
0
 10
350.697
 20
10.8038
 30
0.0
 40
0.48
 41
0.48
  0
VERTEX
  8
0
 10
350.697
 20
10.859
 30
0.0
 40
0.48
 41
0.48
  0
VERTEX
  8
0
 10
350.697
 20
10.9072
 30
0.0
 40
0.48
 41
0.48
  0
VERTEX
  8
0
 10
350.738
 20
11.0339
 30
0.0
 40
0.48
 41
0.48
  0
VERTEX
  8
0
 10
350.746
 20
11.0477
 30
0.0
 40
0.48
 41
0.48
  0
VERTEX
  8
0
 10
350.755
 20
11.0629
 30
0.0
 40
0.48
 41
0.48
  0
VERTEX
  8
0
 10
350.871
 20
11.1786
 30
0.0
 40
0.48
 41
0.48
  0
VERTEX
  8
0
 10
350.886
 20
11.1869
 30
0.0
 40
0.48
 41
0.48
  0
VERTEX
  8
0
 10
350.9
 20
11.1952
 30
0.0
 40
0.48
 41
0.48
  0
VERTEX
  8
0
 10
351.032
 20
11.2379
 30
0.0
 40
0.48
 41
0.48
  0
VERTEX
  8
0
 10
351.076
 20
11.2379
 30
0.0
 40
0.48
 41
0.48
  0
VERTEX
  8
0
 10
351.123
 20
11.2379
 30
0.0
 40
0.48
 41
0.48
  0
VERTEX
  8
0
 10
351.25
 20
11.1952
 30
0.0
 40
0.48
 41
0.48
  0
VERTEX
  8
0
 10
351.265
 20
11.1869
 30
0.0
 40
0.48
 41
0.48
  0
VERTEX
  8
0
 10
351.278
 20
11.1786
 30
0.0
 40
0.48
 41
0.48
  0
VERTEX
  8
0
 10
351.396
 20
11.0629
 30
0.0
 40
0.48
 41
0.48
  0
VERTEX
  8
0
 10
351.404
 20
11.0477
 30
0.0
 40
0.48
 41
0.48
  0
VERTEX
  8
0
 10
351.412
 20
11.0339
 30
0.0
 40
0.48
 41
0.48
  0
VERTEX
  8
0
 10
351.453
 20
10.9031
 30
0.0
 40
0.48
 41
0.48
  0
VERTEX
  8
0
 10
351.453
 20
10.859
 30
0.0
 40
0.48
 41
0.48
  0
VERTEX
  8
0
 10
351.453
 20
10.8038
 30
0.0
 40
0.48
 41
0.48
  0
VERTEX
  8
0
 10
351.482
 20
10.6371
 30
0.0
 40
0.48
 41
0.48
  0
VERTEX
  8
0
 10
351.55
 20
10.4621
 30
0.0
 40
0.48
 41
0.48
  0
VERTEX
  8
0
 10
351.569
 20
10.429
 30
0.0
 40
0.48
 41
0.48
  0
VERTEX
  8
0
 10
351.587
 20
10.3973
 30
0.0
 40
0.48
 41
0.48
  0
VERTEX
  8
0
 10
351.704
 20
10.2526
 30
0.0
 40
0.48
 41
0.48
  0
VERTEX
  8
0
 10
351.85
 20
10.1341
 30
0.0
 40
0.48
 41
0.48
  0
VERTEX
  8
0
 10
351.883
 20
10.1148
 30
0.0
 40
0.48
 41
0.48
  0
VERTEX
  8
0
 10
351.915
 20
10.0969
 30
0.0
 40
0.48
 41
0.48
  0
VERTEX
  8
0
 10
352.09
 20
10.0294
 30
0.0
 40
0.48
 41
0.48
  0
VERTEX
  8
0
 10
352.257
 20
10.0004
 30
0.0
 40
0.48
 41
0.48
  0
VERTEX
  8
0
 10
352.314
 20
10.0004
 30
0.0
 40
0.48
 41
0.48
  0
VERTEX
  8
0
 10
352.369
 20
10.0004
 30
0.0
 40
0.48
 41
0.48
  0
VERTEX
  8
0
 10
352.534
 20
10.0294
 30
0.0
 40
0.48
 41
0.48
  0
VERTEX
  8
0
 10
352.709
 20
10.0969
 30
0.0
 40
0.48
 41
0.48
  0
VERTEX
  8
0
 10
352.742
 20
10.1148
 30
0.0
 40
0.48
 41
0.48
  0
VERTEX
  8
0
 10
352.774
 20
10.1341
 30
0.0
 40
0.48
 41
0.48
  0
VERTEX
  8
0
 10
352.919
 20
10.2526
 30
0.0
 40
0.48
 41
0.48
  0
VERTEX
  8
0
 10
353.035
 20
10.3973
 30
0.0
 40
0.48
 41
0.48
  0
VERTEX
  8
0
 10
353.056
 20
10.429
 30
0.0
 40
0.48
 41
0.48
  0
VERTEX
  8
0
 10
353.074
 20
10.4621
 30
0.0
 40
0.48
 41
0.48
  0
VERTEX
  8
0
 10
353.141
 20
10.6371
 30
0.0
 40
0.48
 41
0.48
  0
VERTEX
  8
0
 10
353.173
 20
10.8038
 30
0.0
 40
0.48
 41
0.48
  0
VERTEX
  8
0
 10
353.173
 20
10.859
 30
0.0
 40
0.48
 41
0.48
  0
VERTEX
  8
0
 10
353.173
 20
10.9072
 30
0.0
 40
0.48
 41
0.48
  0
VERTEX
  8
0
 10
353.215
 20
11.0339
 30
0.0
 40
0.48
 41
0.48
  0
VERTEX
  8
0
 10
353.222
 20
11.0477
 30
0.0
 40
0.48
 41
0.48
  0
VERTEX
  8
0
 10
353.233
 20
11.0629
 30
0.0
 40
0.48
 41
0.48
  0
VERTEX
  8
0
 10
353.346
 20
11.1786
 30
0.0
 40
0.48
 41
0.48
  0
VERTEX
  8
0
 10
353.36
 20
11.1869
 30
0.0
 40
0.48
 41
0.48
  0
VERTEX
  8
0
 10
353.374
 20
11.1952
 30
0.0
 40
0.48
 41
0.48
  0
VERTEX
  8
0
 10
353.508
 20
11.2379
 30
0.0
 40
0.48
 41
0.48
  0
VERTEX
  8
0
 10
353.55
 20
11.2379
 30
0.0
 40
0.48
 41
0.48
  0
VERTEX
  8
0
 10
353.596
 20
11.2379
 30
0.0
 40
0.48
 41
0.48
  0
VERTEX
  8
0
 10
353.723
 20
11.1952
 30
0.0
 40
0.48
 41
0.48
  0
VERTEX
  8
0
 10
353.741
 20
11.1869
 30
0.0
 40
0.48
 41
0.48
  0
VERTEX
  8
0
 10
353.755
 20
11.1786
 30
0.0
 40
0.48
 41
0.48
  0
VERTEX
  8
0
 10
353.868
 20
11.0629
 30
0.0
 40
0.48
 41
0.48
  0
VERTEX
  8
0
 10
353.878
 20
11.0477
 30
0.0
 40
0.48
 41
0.48
  0
VERTEX
  8
0
 10
353.886
 20
11.0339
 30
0.0
 40
0.48
 41
0.48
  0
VERTEX
  8
0
 10
353.928
 20
10.9031
 30
0.0
 40
0.48
 41
0.48
  0
VERTEX
  8
0
 10
353.928
 20
10.859
 30
0.0
 40
0.48
 41
0.48
  0
VERTEX
  8
0
 10
353.928
 20
10.8038
 30
0.0
 40
0.48
 41
0.48
  0
VERTEX
  8
0
 10
353.956
 20
10.6371
 30
0.0
 40
0.48
 41
0.48
  0
VERTEX
  8
0
 10
354.027
 20
10.4621
 30
0.0
 40
0.48
 41
0.48
  0
VERTEX
  8
0
 10
354.044
 20
10.429
 30
0.0
 40
0.48
 41
0.48
  0
VERTEX
  8
0
 10
354.062
 20
10.3973
 30
0.0
 40
0.48
 41
0.48
  0
VERTEX
  8
0
 10
354.182
 20
10.2526
 30
0.0
 40
0.48
 41
0.48
  0
VERTEX
  8
0
 10
354.326
 20
10.1341
 30
0.0
 40
0.48
 41
0.48
  0
VERTEX
  8
0
 10
354.358
 20
10.1148
 30
0.0
 40
0.48
 41
0.48
  0
VERTEX
  8
0
 10
354.39
 20
10.0969
 30
0.0
 40
0.48
 41
0.48
  0
VERTEX
  8
0
 10
354.566
 20
10.0294
 30
0.0
 40
0.48
 41
0.48
  0
VERTEX
  8
0
 10
354.732
 20
10.0004
 30
0.0
 40
0.48
 41
0.48
  0
VERTEX
  8
0
 10
354.789
 20
10.0004
 30
0.0
 40
0.48
 41
0.48
  0
VERTEX
  8
0
 10
354.845
 20
10.0004
 30
0.0
 40
0.48
 41
0.48
  0
VERTEX
  8
0
 10
355.011
 20
10.0294
 30
0.0
 40
0.48
 41
0.48
  0
VERTEX
  8
0
 10
355.184
 20
10.0969
 30
0.0
 40
0.48
 41
0.48
  0
VERTEX
  8
0
 10
355.215
 20
10.1148
 30
0.0
 40
0.48
 41
0.48
  0
VERTEX
  8
0
 10
355.247
 20
10.1341
 30
0.0
 40
0.48
 41
0.48
  0
VERTEX
  8
0
 10
355.395
 20
10.2526
 30
0.0
 40
0.48
 41
0.48
  0
VERTEX
  8
0
 10
355.512
 20
10.3973
 30
0.0
 40
0.48
 41
0.48
  0
VERTEX
  8
0
 10
355.529
 20
10.429
 30
0.0
 40
0.48
 41
0.48
  0
VERTEX
  8
0
 10
355.551
 20
10.4621
 30
0.0
 40
0.48
 41
0.48
  0
VERTEX
  8
0
 10
355.618
 20
10.6371
 30
0.0
 40
0.48
 41
0.48
  0
VERTEX
  8
0
 10
355.646
 20
10.8038
 30
0.0
 40
0.48
 41
0.48
  0
VERTEX
  8
0
 10
355.646
 20
10.859
 30
0.0
 40
0.48
 41
0.48
  0
VERTEX
  8
0
 10
355.646
 20
10.9072
 30
0.0
 40
0.48
 41
0.48
  0
VERTEX
  8
0
 10
355.688
 20
11.0339
 30
0.0
 40
0.48
 41
0.48
  0
VERTEX
  8
0
 10
355.699
 20
11.0477
 30
0.0
 40
0.48
 41
0.48
  0
VERTEX
  8
0
 10
355.706
 20
11.0629
 30
0.0
 40
0.48
 41
0.48
  0
VERTEX
  8
0
 10
355.822
 20
11.1786
 30
0.0
 40
0.48
 41
0.48
  0
VERTEX
  8
0
 10
355.836
 20
11.1869
 30
0.0
 40
0.48
 41
0.48
  0
VERTEX
  8
0
 10
355.85
 20
11.1952
 30
0.0
 40
0.48
 41
0.48
  0
VERTEX
  8
0
 10
355.981
 20
11.2379
 30
0.0
 40
0.48
 41
0.48
  0
VERTEX
  8
0
 10
356.027
 20
11.2379
 30
0.0
 40
0.48
 41
0.48
  0
VERTEX
  8
0
 10
356.073
 20
11.2379
 30
0.0
 40
0.48
 41
0.48
  0
VERTEX
  8
0
 10
356.2
 20
11.1952
 30
0.0
 40
0.48
 41
0.48
  0
VERTEX
  8
0
 10
356.214
 20
11.1869
 30
0.0
 40
0.48
 41
0.48
  0
VERTEX
  8
0
 10
356.228
 20
11.1786
 30
0.0
 40
0.48
 41
0.48
  0
VERTEX
  8
0
 10
356.344
 20
11.0629
 30
0.0
 40
0.48
 41
0.48
  0
VERTEX
  8
0
 10
356.355
 20
11.0477
 30
0.0
 40
0.48
 41
0.48
  0
VERTEX
  8
0
 10
356.362
 20
11.0339
 30
0.0
 40
0.48
 41
0.48
  0
VERTEX
  8
0
 10
356.404
 20
10.9031
 30
0.0
 40
0.48
 41
0.48
  0
VERTEX
  8
0
 10
356.404
 20
10.859
 30
0.0
 40
0.48
 41
0.48
  0
VERTEX
  8
0
 10
356.404
 20
10.8038
 30
0.0
 40
0.48
 41
0.48
  0
VERTEX
  8
0
 10
356.433
 20
10.6371
 30
0.0
 40
0.48
 41
0.48
  0
VERTEX
  8
0
 10
356.5
 20
10.4621
 30
0.0
 40
0.48
 41
0.48
  0
VERTEX
  8
0
 10
356.521
 20
10.429
 30
0.0
 40
0.48
 41
0.48
  0
VERTEX
  8
0
 10
356.538
 20
10.3973
 30
0.0
 40
0.48
 41
0.48
  0
VERTEX
  8
0
 10
356.655
 20
10.2526
 30
0.0
 40
0.48
 41
0.48
  0
VERTEX
  8
0
 10
356.799
 20
10.1341
 30
0.0
 40
0.48
 41
0.48
  0
VERTEX
  8
0
 10
356.835
 20
10.1148
 30
0.0
 40
0.48
 41
0.48
  0
VERTEX
  8
0
 10
356.866
 20
10.0969
 30
0.0
 40
0.48
 41
0.48
  0
VERTEX
  8
0
 10
357.039
 20
10.0294
 30
0.0
 40
0.48
 41
0.48
  0
VERTEX
  8
0
 10
357.205
 20
10.0004
 30
0.0
 40
0.48
 41
0.48
  0
VERTEX
  8
0
 10
357.262
 20
10.0004
 30
0.0
 40
0.48
 41
0.48
  0
VERTEX
  8
0
 10
357.318
 20
10.0004
 30
0.0
 40
0.48
 41
0.48
  0
VERTEX
  8
0
 10
357.484
 20
10.0294
 30
0.0
 40
0.48
 41
0.48
  0
VERTEX
  8
0
 10
357.66
 20
10.0969
 30
0.0
 40
0.48
 41
0.48
  0
VERTEX
  8
0
 10
357.692
 20
10.1148
 30
0.0
 40
0.48
 41
0.48
  0
VERTEX
  8
0
 10
357.724
 20
10.1341
 30
0.0
 40
0.48
 41
0.48
  0
VERTEX
  8
0
 10
357.868
 20
10.2526
 30
0.0
 40
0.48
 41
0.48
  0
VERTEX
  8
0
 10
357.988
 20
10.3973
 30
0.0
 40
0.48
 41
0.48
  0
VERTEX
  8
0
 10
358.006
 20
10.429
 30
0.0
 40
0.48
 41
0.48
  0
VERTEX
  8
0
 10
358.024
 20
10.4621
 30
0.0
 40
0.48
 41
0.48
  0
VERTEX
  8
0
 10
358.091
 20
10.6371
 30
0.0
 40
0.48
 41
0.48
  0
VERTEX
  8
0
 10
358.122
 20
10.8038
 30
0.0
 40
0.48
 41
0.48
  0
VERTEX
  8
0
 10
358.122
 20
10.859
 30
0.0
 40
0.48
 41
0.48
  0
VERTEX
  8
0
 10
358.122
 20
10.9072
 30
0.0
 40
0.48
 41
0.48
  0
VERTEX
  8
0
 10
358.165
 20
11.0339
 30
0.0
 40
0.48
 41
0.48
  0
VERTEX
  8
0
 10
358.172
 20
11.0477
 30
0.0
 40
0.48
 41
0.48
  0
VERTEX
  8
0
 10
358.182
 20
11.0629
 30
0.0
 40
0.48
 41
0.48
  0
VERTEX
  8
0
 10
358.295
 20
11.1786
 30
0.0
 40
0.48
 41
0.48
  0
VERTEX
  8
0
 10
358.309
 20
11.1869
 30
0.0
 40
0.48
 41
0.48
  0
VERTEX
  8
0
 10
358.323
 20
11.1952
 30
0.0
 40
0.48
 41
0.48
  0
VERTEX
  8
0
 10
358.457
 20
11.2379
 30
0.0
 40
0.48
 41
0.48
  0
VERTEX
  8
0
 10
358.5
 20
11.2379
 30
0.0
 40
0.48
 41
0.48
  0
VERTEX
  8
0
 10
358.549
 20
11.2379
 30
0.0
 40
0.48
 41
0.48
  0
VERTEX
  8
0
 10
358.673
 20
11.1952
 30
0.0
 40
0.48
 41
0.48
  0
VERTEX
  8
0
 10
358.69
 20
11.1869
 30
0.0
 40
0.48
 41
0.48
  0
VERTEX
  8
0
 10
358.704
 20
11.1786
 30
0.0
 40
0.48
 41
0.48
  0
VERTEX
  8
0
 10
358.821
 20
11.0629
 30
0.0
 40
0.48
 41
0.48
  0
VERTEX
  8
0
 10
358.828
 20
11.0477
 30
0.0
 40
0.48
 41
0.48
  0
VERTEX
  8
0
 10
358.838
 20
11.0339
 30
0.0
 40
0.48
 41
0.48
  0
VERTEX
  8
0
 10
358.881
 20
10.9031
 30
0.0
 40
0.48
 41
0.48
  0
VERTEX
  8
0
 10
358.881
 20
10.859
 30
0.0
 40
0.48
 41
0.48
  0
VERTEX
  8
0
 10
358.881
 20
10.8038
 30
0.0
 40
0.48
 41
0.48
  0
VERTEX
  8
0
 10
358.909
 20
10.6371
 30
0.0
 40
0.48
 41
0.48
  0
VERTEX
  8
0
 10
358.976
 20
10.4621
 30
0.0
 40
0.48
 41
0.48
  0
VERTEX
  8
0
 10
358.994
 20
10.429
 30
0.0
 40
0.48
 41
0.48
  0
VERTEX
  8
0
 10
359.011
 20
10.3973
 30
0.0
 40
0.48
 41
0.48
  0
VERTEX
  8
0
 10
359.131
 20
10.2526
 30
0.0
 40
0.48
 41
0.48
  0
VERTEX
  8
0
 10
359.276
 20
10.1341
 30
0.0
 40
0.48
 41
0.48
  0
VERTEX
  8
0
 10
359.308
 20
10.1148
 30
0.0
 40
0.48
 41
0.48
  0
VERTEX
  8
0
 10
359.339
 20
10.0969
 30
0.0
 40
0.48
 41
0.48
  0
VERTEX
  8
0
 10
359.516
 20
10.0294
 30
0.0
 40
0.48
 41
0.48
  0
VERTEX
  8
0
 10
359.682
 20
10.0004
 30
0.0
 40
0.48
 41
0.48
  0
VERTEX
  8
0
 10
359.738
 20
10.0004
 30
0.0
 40
0.48
 41
0.48
  0
VERTEX
  8
0
 10
359.802
 20
10.0004
 30
0.0
 40
0.48
 41
0.48
  0
VERTEX
  8
0
 10
359.992
 20
10.0349
 30
0.0
 40
0.48
 41
0.48
  0
VERTEX
  8
0
 10
360.193
 20
10.1121
 30
0.0
 40
0.48
 41
0.48
  0
VERTEX
  8
0
 10
360.232
 20
10.1327
 30
0.0
 40
0.48
 41
0.48
  0
VERTEX
  8
0
 10
360.271
 20
10.1548
 30
0.0
 40
0.48
 41
0.48
  0
VERTEX
  8
0
 10
360.437
 20
10.2912
 30
0.0
 40
0.48
 41
0.48
  0
VERTEX
  8
0
 10
360.574
 20
10.4579
 30
0.0
 40
0.48
 41
0.48
  0
VERTEX
  8
0
 10
360.595
 20
10.4951
 30
0.0
 40
0.48
 41
0.48
  0
VERTEX
  8
0
 10
360.616
 20
10.5337
 30
0.0
 40
0.48
 41
0.48
  0
VERTEX
  8
0
 10
360.694
 20
10.7349
 30
0.0
 40
0.48
 41
0.48
  0
VERTEX
  8
0
 10
360.729
 20
10.9265
 30
0.0
 40
0.48
 41
0.48
  0
VERTEX
  8
0
 10
360.729
 20
10.9898
 30
0.0
 40
0.48
 41
0.48
  0
VERTEX
  8
0
 10
360.729
 20
110.99
 30
0.0
 40
0.48
 41
0.48
  0
VERTEX
  8
0
 10
360.729
 20
111.055
 30
0.0
 40
0.48
 41
0.48
  0
VERTEX
  8
0
 10
360.694
 20
111.246
 30
0.0
 40
0.48
 41
0.48
  0
VERTEX
  8
0
 10
360.616
 20
111.447
 30
0.0
 40
0.48
 41
0.48
  0
VERTEX
  8
0
 10
360.595
 20
111.485
 30
0.0
 40
0.48
 41
0.48
  0
VERTEX
  8
0
 10
360.574
 20
111.523
 30
0.0
 40
0.48
 41
0.48
  0
VERTEX
  8
0
 10
360.437
 20
111.69
 30
0.0
 40
0.48
 41
0.48
  0
VERTEX
  8
0
 10
360.271
 20
111.826
 30
0.0
 40
0.48
 41
0.48
  0
VERTEX
  8
0
 10
360.232
 20
111.847
 30
0.0
 40
0.48
 41
0.48
  0
VERTEX
  8
0
 10
360.193
 20
111.869
 30
0.0
 40
0.48
 41
0.48
  0
VERTEX
  8
0
 10
359.992
 20
111.948
 30
0.0
 40
0.48
 41
0.48
  0
VERTEX
  8
0
 10
359.802
 20
111.981
 30
0.0
 40
0.48
 41
0.48
  0
VERTEX
  8
0
 10
359.738
 20
111.981
 30
0.0
 40
0.48
 41
0.48
  0
VERTEX
  8
0
 10
359.682
 20
111.981
 30
0.0
 40
0.48
 41
0.48
  0
VERTEX
  8
0
 10
359.516
 20
111.952
 30
0.0
 40
0.48
 41
0.48
  0
VERTEX
  8
0
 10
359.339
 20
111.884
 30
0.0
 40
0.48
 41
0.48
  0
VERTEX
  8
0
 10
359.308
 20
111.865
 30
0.0
 40
0.48
 41
0.48
  0
VERTEX
  8
0
 10
359.276
 20
111.847
 30
0.0
 40
0.48
 41
0.48
  0
VERTEX
  8
0
 10
359.131
 20
111.729
 30
0.0
 40
0.48
 41
0.48
  0
VERTEX
  8
0
 10
359.011
 20
111.584
 30
0.0
 40
0.48
 41
0.48
  0
VERTEX
  8
0
 10
358.994
 20
111.551
 30
0.0
 40
0.48
 41
0.48
  0
VERTEX
  8
0
 10
358.976
 20
111.519
 30
0.0
 40
0.48
 41
0.48
  0
VERTEX
  8
0
 10
358.909
 20
111.344
 30
0.0
 40
0.48
 41
0.48
  0
VERTEX
  8
0
 10
358.881
 20
111.177
 30
0.0
 40
0.48
 41
0.48
  0
VERTEX
  8
0
 10
358.881
 20
111.121
 30
0.0
 40
0.48
 41
0.48
  0
VERTEX
  8
0
 10
358.881
 20
111.074
 30
0.0
 40
0.48
 41
0.48
  0
VERTEX
  8
0
 10
358.838
 20
110.947
 30
0.0
 40
0.48
 41
0.48
  0
VERTEX
  8
0
 10
358.828
 20
110.932
 30
0.0
 40
0.48
 41
0.48
  0
VERTEX
  8
0
 10
358.821
 20
110.918
 30
0.0
 40
0.48
 41
0.48
  0
VERTEX
  8
0
 10
358.704
 20
110.801
 30
0.0
 40
0.48
 41
0.48
  0
VERTEX
  8
0
 10
358.69
 20
110.793
 30
0.0
 40
0.48
 41
0.48
  0
VERTEX
  8
0
 10
358.673
 20
110.785
 30
0.0
 40
0.48
 41
0.48
  0
VERTEX
  8
0
 10
358.542
 20
110.742
 30
0.0
 40
0.48
 41
0.48
  0
VERTEX
  8
0
 10
358.5
 20
110.742
 30
0.0
 40
0.48
 41
0.48
  0
VERTEX
  8
0
 10
358.454
 20
110.742
 30
0.0
 40
0.48
 41
0.48
  0
VERTEX
  8
0
 10
358.323
 20
110.785
 30
0.0
 40
0.48
 41
0.48
  0
VERTEX
  8
0
 10
358.309
 20
110.793
 30
0.0
 40
0.48
 41
0.48
  0
VERTEX
  8
0
 10
358.295
 20
110.801
 30
0.0
 40
0.48
 41
0.48
  0
VERTEX
  8
0
 10
358.182
 20
110.918
 30
0.0
 40
0.48
 41
0.48
  0
VERTEX
  8
0
 10
358.172
 20
110.932
 30
0.0
 40
0.48
 41
0.48
  0
VERTEX
  8
0
 10
358.165
 20
110.947
 30
0.0
 40
0.48
 41
0.48
  0
VERTEX
  8
0
 10
358.122
 20
111.078
 30
0.0
 40
0.48
 41
0.48
  0
VERTEX
  8
0
 10
358.122
 20
111.121
 30
0.0
 40
0.48
 41
0.48
  0
VERTEX
  8
0
 10
358.122
 20
111.177
 30
0.0
 40
0.48
 41
0.48
  0
VERTEX
  8
0
 10
358.091
 20
111.344
 30
0.0
 40
0.48
 41
0.48
  0
VERTEX
  8
0
 10
358.024
 20
111.519
 30
0.0
 40
0.48
 41
0.48
  0
VERTEX
  8
0
 10
358.006
 20
111.551
 30
0.0
 40
0.48
 41
0.48
  0
VERTEX
  8
0
 10
357.988
 20
111.584
 30
0.0
 40
0.48
 41
0.48
  0
VERTEX
  8
0
 10
357.868
 20
111.729
 30
0.0
 40
0.48
 41
0.48
  0
VERTEX
  8
0
 10
357.724
 20
111.847
 30
0.0
 40
0.48
 41
0.48
  0
VERTEX
  8
0
 10
357.692
 20
111.865
 30
0.0
 40
0.48
 41
0.48
  0
VERTEX
  8
0
 10
357.66
 20
111.884
 30
0.0
 40
0.48
 41
0.48
  0
VERTEX
  8
0
 10
357.484
 20
111.952
 30
0.0
 40
0.48
 41
0.48
  0
VERTEX
  8
0
 10
357.318
 20
111.981
 30
0.0
 40
0.48
 41
0.48
  0
VERTEX
  8
0
 10
357.262
 20
111.981
 30
0.0
 40
0.48
 41
0.48
  0
VERTEX
  8
0
 10
357.205
 20
111.981
 30
0.0
 40
0.48
 41
0.48
  0
VERTEX
  8
0
 10
357.039
 20
111.952
 30
0.0
 40
0.48
 41
0.48
  0
VERTEX
  8
0
 10
356.866
 20
111.884
 30
0.0
 40
0.48
 41
0.48
  0
VERTEX
  8
0
 10
356.835
 20
111.865
 30
0.0
 40
0.48
 41
0.48
  0
VERTEX
  8
0
 10
356.799
 20
111.847
 30
0.0
 40
0.48
 41
0.48
  0
VERTEX
  8
0
 10
356.655
 20
111.729
 30
0.0
 40
0.48
 41
0.48
  0
VERTEX
  8
0
 10
356.538
 20
111.584
 30
0.0
 40
0.48
 41
0.48
  0
VERTEX
  8
0
 10
356.521
 20
111.551
 30
0.0
 40
0.48
 41
0.48
  0
VERTEX
  8
0
 10
356.5
 20
111.519
 30
0.0
 40
0.48
 41
0.48
  0
VERTEX
  8
0
 10
356.433
 20
111.344
 30
0.0
 40
0.48
 41
0.48
  0
VERTEX
  8
0
 10
356.404
 20
111.177
 30
0.0
 40
0.48
 41
0.48
  0
VERTEX
  8
0
 10
356.404
 20
111.121
 30
0.0
 40
0.48
 41
0.48
  0
VERTEX
  8
0
 10
356.404
 20
111.074
 30
0.0
 40
0.48
 41
0.48
  0
VERTEX
  8
0
 10
356.362
 20
110.947
 30
0.0
 40
0.48
 41
0.48
  0
VERTEX
  8
0
 10
356.355
 20
110.932
 30
0.0
 40
0.48
 41
0.48
  0
VERTEX
  8
0
 10
356.344
 20
110.918
 30
0.0
 40
0.48
 41
0.48
  0
VERTEX
  8
0
 10
356.228
 20
110.801
 30
0.0
 40
0.48
 41
0.48
  0
VERTEX
  8
0
 10
356.214
 20
110.793
 30
0.0
 40
0.48
 41
0.48
  0
VERTEX
  8
0
 10
356.2
 20
110.785
 30
0.0
 40
0.48
 41
0.48
  0
VERTEX
  8
0
 10
356.069
 20
110.742
 30
0.0
 40
0.48
 41
0.48
  0
VERTEX
  8
0
 10
356.027
 20
110.742
 30
0.0
 40
0.48
 41
0.48
  0
VERTEX
  8
0
 10
355.977
 20
110.742
 30
0.0
 40
0.48
 41
0.48
  0
VERTEX
  8
0
 10
355.85
 20
110.785
 30
0.0
 40
0.48
 41
0.48
  0
VERTEX
  8
0
 10
355.836
 20
110.793
 30
0.0
 40
0.48
 41
0.48
  0
VERTEX
  8
0
 10
355.822
 20
110.801
 30
0.0
 40
0.48
 41
0.48
  0
VERTEX
  8
0
 10
355.706
 20
110.918
 30
0.0
 40
0.48
 41
0.48
  0
VERTEX
  8
0
 10
355.699
 20
110.932
 30
0.0
 40
0.48
 41
0.48
  0
VERTEX
  8
0
 10
355.688
 20
110.947
 30
0.0
 40
0.48
 41
0.48
  0
VERTEX
  8
0
 10
355.646
 20
111.078
 30
0.0
 40
0.48
 41
0.48
  0
VERTEX
  8
0
 10
355.646
 20
111.121
 30
0.0
 40
0.48
 41
0.48
  0
VERTEX
  8
0
 10
355.646
 20
111.177
 30
0.0
 40
0.48
 41
0.48
  0
VERTEX
  8
0
 10
355.618
 20
111.344
 30
0.0
 40
0.48
 41
0.48
  0
VERTEX
  8
0
 10
355.551
 20
111.519
 30
0.0
 40
0.48
 41
0.48
  0
VERTEX
  8
0
 10
355.529
 20
111.551
 30
0.0
 40
0.48
 41
0.48
  0
VERTEX
  8
0
 10
355.512
 20
111.584
 30
0.0
 40
0.48
 41
0.48
  0
VERTEX
  8
0
 10
355.395
 20
111.729
 30
0.0
 40
0.48
 41
0.48
  0
VERTEX
  8
0
 10
355.247
 20
111.847
 30
0.0
 40
0.48
 41
0.48
  0
VERTEX
  8
0
 10
355.215
 20
111.865
 30
0.0
 40
0.48
 41
0.48
  0
VERTEX
  8
0
 10
355.184
 20
111.884
 30
0.0
 40
0.48
 41
0.48
  0
VERTEX
  8
0
 10
355.011
 20
111.952
 30
0.0
 40
0.48
 41
0.48
  0
VERTEX
  8
0
 10
354.845
 20
111.981
 30
0.0
 40
0.48
 41
0.48
  0
VERTEX
  8
0
 10
354.789
 20
111.981
 30
0.0
 40
0.48
 41
0.48
  0
VERTEX
  8
0
 10
354.732
 20
111.981
 30
0.0
 40
0.48
 41
0.48
  0
VERTEX
  8
0
 10
354.566
 20
111.952
 30
0.0
 40
0.48
 41
0.48
  0
VERTEX
  8
0
 10
354.39
 20
111.884
 30
0.0
 40
0.48
 41
0.48
  0
VERTEX
  8
0
 10
354.358
 20
111.865
 30
0.0
 40
0.48
 41
0.48
  0
VERTEX
  8
0
 10
354.326
 20
111.847
 30
0.0
 40
0.48
 41
0.48
  0
VERTEX
  8
0
 10
354.182
 20
111.729
 30
0.0
 40
0.48
 41
0.48
  0
VERTEX
  8
0
 10
354.062
 20
111.584
 30
0.0
 40
0.48
 41
0.48
  0
VERTEX
  8
0
 10
354.044
 20
111.551
 30
0.0
 40
0.48
 41
0.48
  0
VERTEX
  8
0
 10
354.027
 20
111.519
 30
0.0
 40
0.48
 41
0.48
  0
VERTEX
  8
0
 10
353.956
 20
111.344
 30
0.0
 40
0.48
 41
0.48
  0
VERTEX
  8
0
 10
353.928
 20
111.177
 30
0.0
 40
0.48
 41
0.48
  0
VERTEX
  8
0
 10
353.928
 20
111.121
 30
0.0
 40
0.48
 41
0.48
  0
VERTEX
  8
0
 10
353.928
 20
111.074
 30
0.0
 40
0.48
 41
0.48
  0
VERTEX
  8
0
 10
353.886
 20
110.947
 30
0.0
 40
0.48
 41
0.48
  0
VERTEX
  8
0
 10
353.878
 20
110.932
 30
0.0
 40
0.48
 41
0.48
  0
VERTEX
  8
0
 10
353.868
 20
110.918
 30
0.0
 40
0.48
 41
0.48
  0
VERTEX
  8
0
 10
353.755
 20
110.801
 30
0.0
 40
0.48
 41
0.48
  0
VERTEX
  8
0
 10
353.741
 20
110.793
 30
0.0
 40
0.48
 41
0.48
  0
VERTEX
  8
0
 10
353.723
 20
110.785
 30
0.0
 40
0.48
 41
0.48
  0
VERTEX
  8
0
 10
353.593
 20
110.742
 30
0.0
 40
0.48
 41
0.48
  0
VERTEX
  8
0
 10
353.55
 20
110.742
 30
0.0
 40
0.48
 41
0.48
  0
VERTEX
  8
0
 10
353.501
 20
110.742
 30
0.0
 40
0.48
 41
0.48
  0
VERTEX
  8
0
 10
353.374
 20
110.785
 30
0.0
 40
0.48
 41
0.48
  0
VERTEX
  8
0
 10
353.36
 20
110.793
 30
0.0
 40
0.48
 41
0.48
  0
VERTEX
  8
0
 10
353.346
 20
110.801
 30
0.0
 40
0.48
 41
0.48
  0
VERTEX
  8
0
 10
353.233
 20
110.918
 30
0.0
 40
0.48
 41
0.48
  0
VERTEX
  8
0
 10
353.222
 20
110.932
 30
0.0
 40
0.48
 41
0.48
  0
VERTEX
  8
0
 10
353.215
 20
110.947
 30
0.0
 40
0.48
 41
0.48
  0
VERTEX
  8
0
 10
353.173
 20
111.078
 30
0.0
 40
0.48
 41
0.48
  0
VERTEX
  8
0
 10
353.173
 20
111.121
 30
0.0
 40
0.48
 41
0.48
  0
VERTEX
  8
0
 10
353.173
 20
111.177
 30
0.0
 40
0.48
 41
0.48
  0
VERTEX
  8
0
 10
353.141
 20
111.344
 30
0.0
 40
0.48
 41
0.48
  0
VERTEX
  8
0
 10
353.074
 20
111.519
 30
0.0
 40
0.48
 41
0.48
  0
VERTEX
  8
0
 10
353.056
 20
111.551
 30
0.0
 40
0.48
 41
0.48
  0
VERTEX
  8
0
 10
353.035
 20
111.584
 30
0.0
 40
0.48
 41
0.48
  0
VERTEX
  8
0
 10
352.919
 20
111.729
 30
0.0
 40
0.48
 41
0.48
  0
VERTEX
  8
0
 10
352.774
 20
111.847
 30
0.0
 40
0.48
 41
0.48
  0
VERTEX
  8
0
 10
352.742
 20
111.865
 30
0.0
 40
0.48
 41
0.48
  0
VERTEX
  8
0
 10
352.709
 20
111.884
 30
0.0
 40
0.48
 41
0.48
  0
VERTEX
  8
0
 10
352.534
 20
111.952
 30
0.0
 40
0.48
 41
0.48
  0
VERTEX
  8
0
 10
352.369
 20
111.981
 30
0.0
 40
0.48
 41
0.48
  0
VERTEX
  8
0
 10
352.314
 20
111.981
 30
0.0
 40
0.48
 41
0.48
  0
VERTEX
  8
0
 10
352.257
 20
111.981
 30
0.0
 40
0.48
 41
0.48
  0
VERTEX
  8
0
 10
352.09
 20
111.952
 30
0.0
 40
0.48
 41
0.48
  0
VERTEX
  8
0
 10
351.915
 20
111.884
 30
0.0
 40
0.48
 41
0.48
  0
VERTEX
  8
0
 10
351.883
 20
111.865
 30
0.0
 40
0.48
 41
0.48
  0
VERTEX
  8
0
 10
351.85
 20
111.847
 30
0.0
 40
0.48
 41
0.48
  0
VERTEX
  8
0
 10
351.704
 20
111.729
 30
0.0
 40
0.48
 41
0.48
  0
VERTEX
  8
0
 10
351.587
 20
111.584
 30
0.0
 40
0.48
 41
0.48
  0
VERTEX
  8
0
 10
351.569
 20
111.551
 30
0.0
 40
0.48
 41
0.48
  0
VERTEX
  8
0
 10
351.55
 20
111.519
 30
0.0
 40
0.48
 41
0.48
  0
VERTEX
  8
0
 10
351.482
 20
111.344
 30
0.0
 40
0.48
 41
0.48
  0
VERTEX
  8
0
 10
351.453
 20
111.177
 30
0.0
 40
0.48
 41
0.48
  0
VERTEX
  8
0
 10
351.453
 20
111.121
 30
0.0
 40
0.48
 41
0.48
  0
VERTEX
  8
0
 10
351.453
 20
111.074
 30
0.0
 40
0.48
 41
0.48
  0
VERTEX
  8
0
 10
351.412
 20
110.947
 30
0.0
 40
0.48
 41
0.48
  0
VERTEX
  8
0
 10
351.404
 20
110.932
 30
0.0
 40
0.48
 41
0.48
  0
VERTEX
  8
0
 10
351.396
 20
110.918
 30
0.0
 40
0.48
 41
0.48
  0
VERTEX
  8
0
 10
351.278
 20
110.801
 30
0.0
 40
0.48
 41
0.48
  0
VERTEX
  8
0
 10
351.265
 20
110.793
 30
0.0
 40
0.48
 41
0.48
  0
VERTEX
  8
0
 10
351.25
 20
110.785
 30
0.0
 40
0.48
 41
0.48
  0
VERTEX
  8
0
 10
351.119
 20
110.742
 30
0.0
 40
0.48
 41
0.48
  0
VERTEX
  8
0
 10
351.076
 20
110.742
 30
0.0
 40
0.48
 41
0.48
  0
VERTEX
  8
0
 10
351.028
 20
110.742
 30
0.0
 40
0.48
 41
0.48
  0
VERTEX
  8
0
 10
350.9
 20
110.785
 30
0.0
 40
0.48
 41
0.48
  0
VERTEX
  8
0
 10
350.886
 20
110.793
 30
0.0
 40
0.48
 41
0.48
  0
VERTEX
  8
0
 10
350.871
 20
110.801
 30
0.0
 40
0.48
 41
0.48
  0
VERTEX
  8
0
 10
350.755
 20
110.918
 30
0.0
 40
0.48
 41
0.48
  0
VERTEX
  8
0
 10
350.746
 20
110.932
 30
0.0
 40
0.48
 41
0.48
  0
VERTEX
  8
0
 10
350.738
 20
110.947
 30
0.0
 40
0.48
 41
0.48
  0
VERTEX
  8
0
 10
350.697
 20
111.078
 30
0.0
 40
0.48
 41
0.48
  0
VERTEX
  8
0
 10
350.697
 20
111.121
 30
0.0
 40
0.48
 41
0.48
  0
VERTEX
  8
0
 10
350.697
 20
111.177
 30
0.0
 40
0.48
 41
0.48
  0
VERTEX
  8
0
 10
350.667
 20
111.344
 30
0.0
 40
0.48
 41
0.48
  0
VERTEX
  8
0
 10
350.599
 20
111.519
 30
0.0
 40
0.48
 41
0.48
  0
VERTEX
  8
0
 10
350.581
 20
111.551
 30
0.0
 40
0.48
 41
0.48
  0
VERTEX
  8
0
 10
350.562
 20
111.584
 30
0.0
 40
0.48
 41
0.48
  0
VERTEX
  8
0
 10
350.445
 20
111.729
 30
0.0
 40
0.48
 41
0.48
  0
VERTEX
  8
0
 10
350.299
 20
111.847
 30
0.0
 40
0.48
 41
0.48
  0
VERTEX
  8
0
 10
350.267
 20
111.865
 30
0.0
 40
0.48
 41
0.48
  0
VERTEX
  8
0
 10
350.234
 20
111.884
 30
0.0
 40
0.48
 41
0.48
  0
VERTEX
  8
0
 10
350.059
 20
111.952
 30
0.0
 40
0.48
 41
0.48
  0
VERTEX
  8
0
 10
349.893
 20
111.981
 30
0.0
 40
0.48
 41
0.48
  0
VERTEX
  8
0
 10
349.838
 20
111.981
 30
0.0
 40
0.48
 41
0.48
  0
VERTEX
  8
0
 10
349.774
 20
111.981
 30
0.0
 40
0.48
 41
0.48
  0
VERTEX
  8
0
 10
349.582
 20
111.948
 30
0.0
 40
0.48
 41
0.48
  0
VERTEX
  8
0
 10
349.379
 20
111.869
 30
0.0
 40
0.48
 41
0.48
  0
VERTEX
  8
0
 10
349.342
 20
111.847
 30
0.0
 40
0.48
 41
0.48
  0
VERTEX
  8
0
 10
349.304
 20
111.826
 30
0.0
 40
0.48
 41
0.48
  0
VERTEX
  8
0
 10
349.137
 20
111.69
 30
0.0
 40
0.48
 41
0.48
  0
VERTEX
  8
0
 10
349.001
 20
111.523
 30
0.0
 40
0.48
 41
0.48
  0
VERTEX
  8
0
 10
348.98
 20
111.485
 30
0.0
 40
0.48
 41
0.48
  0
VERTEX
  8
0
 10
348.958
 20
111.447
 30
0.0
 40
0.48
 41
0.48
  0
VERTEX
  8
0
 10
348.881
 20
111.246
 30
0.0
 40
0.48
 41
0.48
  0
VERTEX
  8
0
 10
348.847
 20
111.055
 30
0.0
 40
0.48
 41
0.48
  0
VERTEX
  8
0
 10
348.847
 20
110.99
 30
0.0
 40
0.48
 41
0.48
  0
VERTEX
  8
0
 10
348.847
 20
107.69
 30
0.0
 40
0.48
 41
0.48
  0
VERTEX
  8
0
 10
348.847
 20
107.714
 30
0.0
 40
0.48
 41
0.48
  0
VERTEX
  8
0
 10
348.865
 20
107.785
 30
0.0
 40
0.48
 41
0.48
  0
VERTEX
  8
0
 10
348.918
 20
107.86
 30
0.0
 40
0.48
 41
0.48
  0
VERTEX
  8
0
 10
348.994
 20
107.912
 30
0.0
 40
0.48
 41
0.48
  0
VERTEX
  8
0
 10
349.064
 20
107.929
 30
0.0
 40
0.48
 41
0.48
  0
VERTEX
  8
0
 10
349.087
 20
107.929
 30
0.0
 40
0.48
 41
0.48
  0
VERTEX
  8
0
 10
336.488
 20
107.929
 30
0.0
 40
0.48
 41
0.48
  0
VERTEX
  8
0
 10
336.51
 20
107.929
 30
0.0
 40
0.48
 41
0.48
  0
VERTEX
  8
0
 10
336.58
 20
107.912
 30
0.0
 40
0.48
 41
0.48
  0
VERTEX
  8
0
 10
336.658
 20
107.86
 30
0.0
 40
0.48
 41
0.48
  0
VERTEX
  8
0
 10
336.708
 20
107.785
 30
0.0
 40
0.48
 41
0.48
  0
VERTEX
  8
0
 10
336.728
 20
107.714
 30
0.0
 40
0.48
 41
0.48
  0
VERTEX
  8
0
 10
336.728
 20
107.69
 30
0.0
 40
0.48
 41
0.48
  0
VERTEX
  8
0
 10
336.728
 20
110.99
 30
0.0
 40
0.48
 41
0.48
  0
VERTEX
  8
0
 10
336.728
 20
111.014
 30
0.0
 40
0.48
 41
0.48
  0
VERTEX
  8
0
 10
336.708
 20
111.084
 30
0.0
 40
0.48
 41
0.48
  0
VERTEX
  8
0
 10
336.658
 20
111.16
 30
0.0
 40
0.48
 41
0.48
  0
VERTEX
  8
0
 10
336.58
 20
111.212
 30
0.0
 40
0.48
 41
0.48
  0
VERTEX
  8
0
 10
336.51
 20
111.23
 30
0.0
 40
0.48
 41
0.48
  0
VERTEX
  8
0
 10
336.488
 20
111.23
 30
0.0
 40
0.48
 41
0.48
  0
VERTEX
  8
0
 10
312.926
 20
111.23
 30
0.0
 40
0.48
 41
0.48
  0
VERTEX
  8
0
 10
248.926
 20
111.23
 30
0.0
 40
0.48
 41
0.48
  0
VERTEX
  8
0
 10
225.364
 20
111.23
 30
0.0
 40
0.48
 41
0.48
  0
VERTEX
  8
0
 10
214.364
 20
111.23
 30
0.0
 40
0.48
 41
0.48
  0
VERTEX
  8
0
 10
214.34
 20
111.23
 30
0.0
 40
0.48
 41
0.48
  0
VERTEX
  8
0
 10
214.27
 20
111.212
 30
0.0
 40
0.48
 41
0.48
  0
VERTEX
  8
0
 10
214.194
 20
111.16
 30
0.0
 40
0.48
 41
0.48
  0
VERTEX
  8
0
 10
214.142
 20
111.084
 30
0.0
 40
0.48
 41
0.48
  0
VERTEX
  8
0
 10
214.124
 20
111.014
 30
0.0
 40
0.48
 41
0.48
  0
VERTEX
  8
0
 10
214.124
 20
110.99
 30
0.0
 40
0.48
 41
0.48
  0
VERTEX
  8
0
 10
214.124
 20
107.99
 30
0.0
 40
0.48
 41
0.48
  0
VERTEX
  8
0
 10
214.124
 20
108.013
 30
0.0
 40
0.48
 41
0.48
  0
VERTEX
  8
0
 10
214.142
 20
108.084
 30
0.0
 40
0.48
 41
0.48
  0
VERTEX
  8
0
 10
214.194
 20
108.16
 30
0.0
 40
0.48
 41
0.48
  0
VERTEX
  8
0
 10
214.27
 20
108.212
 30
0.0
 40
0.48
 41
0.48
  0
VERTEX
  8
0
 10
214.34
 20
108.23
 30
0.0
 40
0.48
 41
0.48
  0
VERTEX
  8
0
 10
214.364
 20
108.23
 30
0.0
 40
0.48
 41
0.48
  0
VERTEX
  8
0
 10
208.364
 20
108.23
 30
0.0
 40
0.48
 41
0.48
  0
VERTEX
  8
0
 10
208.387
 20
108.23
 30
0.0
 40
0.48
 41
0.48
  0
VERTEX
  8
0
 10
208.457
 20
108.212
 30
0.0
 40
0.48
 41
0.48
  0
VERTEX
  8
0
 10
208.533
 20
108.16
 30
0.0
 40
0.48
 41
0.48
  0
VERTEX
  8
0
 10
208.584
 20
108.084
 30
0.0
 40
0.48
 41
0.48
  0
VERTEX
  8
0
 10
208.603
 20
108.013
 30
0.0
 40
0.48
 41
0.48
  0
VERTEX
  8
0
 10
208.603
 20
107.99
 30
0.0
 40
0.48
 41
0.48
  0
VERTEX
  8
0
 10
208.603
 20
110.99
 30
0.0
 40
0.48
 41
0.48
  0
VERTEX
  8
0
 10
208.603
 20
111.014
 30
0.0
 40
0.48
 41
0.48
  0
VERTEX
  8
0
 10
208.584
 20
111.084
 30
0.0
 40
0.48
 41
0.48
  0
VERTEX
  8
0
 10
208.533
 20
111.16
 30
0.0
 40
0.48
 41
0.48
  0
VERTEX
  8
0
 10
208.457
 20
111.212
 30
0.0
 40
0.48
 41
0.48
  0
VERTEX
  8
0
 10
208.387
 20
111.23
 30
0.0
 40
0.48
 41
0.48
  0
VERTEX
  8
0
 10
208.364
 20
111.23
 30
0.0
 40
0.48
 41
0.48
  0
VERTEX
  8
0
 10
202.364
 20
111.23
 30
0.0
 40
0.48
 41
0.48
  0
VERTEX
  8
0
 10
202.34
 20
111.23
 30
0.0
 40
0.48
 41
0.48
  0
VERTEX
  8
0
 10
202.27
 20
111.212
 30
0.0
 40
0.48
 41
0.48
  0
VERTEX
  8
0
 10
202.194
 20
111.16
 30
0.0
 40
0.48
 41
0.48
  0
VERTEX
  8
0
 10
202.142
 20
111.084
 30
0.0
 40
0.48
 41
0.48
  0
VERTEX
  8
0
 10
202.124
 20
111.014
 30
0.0
 40
0.48
 41
0.48
  0
VERTEX
  8
0
 10
202.124
 20
110.99
 30
0.0
 40
0.48
 41
0.48
  0
VERTEX
  8
0
 10
202.124
 20
107.99
 30
0.0
 40
0.48
 41
0.48
  0
VERTEX
  8
0
 10
202.124
 20
108.013
 30
0.0
 40
0.48
 41
0.48
  0
VERTEX
  8
0
 10
202.142
 20
108.084
 30
0.0
 40
0.48
 41
0.48
  0
VERTEX
  8
0
 10
202.194
 20
108.16
 30
0.0
 40
0.48
 41
0.48
  0
VERTEX
  8
0
 10
202.27
 20
108.212
 30
0.0
 40
0.48
 41
0.48
  0
VERTEX
  8
0
 10
202.34
 20
108.23
 30
0.0
 40
0.48
 41
0.48
  0
VERTEX
  8
0
 10
202.364
 20
108.23
 30
0.0
 40
0.48
 41
0.48
  0
VERTEX
  8
0
 10
196.364
 20
108.23
 30
0.0
 40
0.48
 41
0.48
  0
VERTEX
  8
0
 10
196.386
 20
108.23
 30
0.0
 40
0.48
 41
0.48
  0
VERTEX
  8
0
 10
196.456
 20
108.212
 30
0.0
 40
0.48
 41
0.48
  0
VERTEX
  8
0
 10
196.533
 20
108.16
 30
0.0
 40
0.48
 41
0.48
  0
VERTEX
  8
0
 10
196.584
 20
108.084
 30
0.0
 40
0.48
 41
0.48
  0
VERTEX
  8
0
 10
196.603
 20
108.013
 30
0.0
 40
0.48
 41
0.48
  0
VERTEX
  8
0
 10
196.603
 20
107.99
 30
0.0
 40
0.48
 41
0.48
  0
VERTEX
  8
0
 10
196.603
 20
110.99
 30
0.0
 40
0.48
 41
0.48
  0
VERTEX
  8
0
 10
196.603
 20
111.014
 30
0.0
 40
0.48
 41
0.48
  0
VERTEX
  8
0
 10
196.584
 20
111.084
 30
0.0
 40
0.48
 41
0.48
  0
VERTEX
  8
0
 10
196.533
 20
111.16
 30
0.0
 40
0.48
 41
0.48
  0
VERTEX
  8
0
 10
196.456
 20
111.212
 30
0.0
 40
0.48
 41
0.48
  0
VERTEX
  8
0
 10
196.386
 20
111.23
 30
0.0
 40
0.48
 41
0.48
  0
VERTEX
  8
0
 10
196.364
 20
111.23
 30
0.0
 40
0.48
 41
0.48
  0
VERTEX
  8
0
 10
190.363
 20
111.23
 30
0.0
 40
0.48
 41
0.48
  0
VERTEX
  8
0
 10
190.34
 20
111.23
 30
0.0
 40
0.48
 41
0.48
  0
VERTEX
  8
0
 10
190.27
 20
111.212
 30
0.0
 40
0.48
 41
0.48
  0
VERTEX
  8
0
 10
190.194
 20
111.16
 30
0.0
 40
0.48
 41
0.48
  0
VERTEX
  8
0
 10
190.142
 20
111.084
 30
0.0
 40
0.48
 41
0.48
  0
VERTEX
  8
0
 10
190.124
 20
111.014
 30
0.0
 40
0.48
 41
0.48
  0
VERTEX
  8
0
 10
190.124
 20
110.99
 30
0.0
 40
0.48
 41
0.48
  0
VERTEX
  8
0
 10
190.124
 20
107.99
 30
0.0
 40
0.48
 41
0.48
  0
VERTEX
  8
0
 10
190.124
 20
108.013
 30
0.0
 40
0.48
 41
0.48
  0
VERTEX
  8
0
 10
190.142
 20
108.084
 30
0.0
 40
0.48
 41
0.48
  0
VERTEX
  8
0
 10
190.194
 20
108.16
 30
0.0
 40
0.48
 41
0.48
  0
VERTEX
  8
0
 10
190.27
 20
108.212
 30
0.0
 40
0.48
 41
0.48
  0
VERTEX
  8
0
 10
190.34
 20
108.23
 30
0.0
 40
0.48
 41
0.48
  0
VERTEX
  8
0
 10
190.363
 20
108.23
 30
0.0
 40
0.48
 41
0.48
  0
VERTEX
  8
0
 10
184.363
 20
108.23
 30
0.0
 40
0.48
 41
0.48
  0
VERTEX
  8
0
 10
184.386
 20
108.23
 30
0.0
 40
0.48
 41
0.48
  0
VERTEX
  8
0
 10
184.456
 20
108.212
 30
0.0
 40
0.48
 41
0.48
  0
VERTEX
  8
0
 10
184.533
 20
108.16
 30
0.0
 40
0.48
 41
0.48
  0
VERTEX
  8
0
 10
184.584
 20
108.084
 30
0.0
 40
0.48
 41
0.48
  0
VERTEX
  8
0
 10
184.603
 20
108.013
 30
0.0
 40
0.48
 41
0.48
  0
VERTEX
  8
0
 10
184.603
 20
107.99
 30
0.0
 40
0.48
 41
0.48
  0
VERTEX
  8
0
 10
184.603
 20
110.99
 30
0.0
 40
0.48
 41
0.48
  0
VERTEX
  8
0
 10
184.603
 20
111.014
 30
0.0
 40
0.48
 41
0.48
  0
VERTEX
  8
0
 10
184.584
 20
111.084
 30
0.0
 40
0.48
 41
0.48
  0
VERTEX
  8
0
 10
184.533
 20
111.16
 30
0.0
 40
0.48
 41
0.48
  0
VERTEX
  8
0
 10
184.456
 20
111.212
 30
0.0
 40
0.48
 41
0.48
  0
VERTEX
  8
0
 10
184.386
 20
111.23
 30
0.0
 40
0.48
 41
0.48
  0
VERTEX
  8
0
 10
184.363
 20
111.23
 30
0.0
 40
0.48
 41
0.48
  0
VERTEX
  8
0
 10
178.364
 20
111.23
 30
0.0
 40
0.48
 41
0.48
  0
VERTEX
  8
0
 10
178.34
 20
111.23
 30
0.0
 40
0.48
 41
0.48
  0
VERTEX
  8
0
 10
178.27
 20
111.212
 30
0.0
 40
0.48
 41
0.48
  0
VERTEX
  8
0
 10
178.194
 20
111.16
 30
0.0
 40
0.48
 41
0.48
  0
VERTEX
  8
0
 10
178.142
 20
111.084
 30
0.0
 40
0.48
 41
0.48
  0
VERTEX
  8
0
 10
178.124
 20
111.014
 30
0.0
 40
0.48
 41
0.48
  0
VERTEX
  8
0
 10
178.124
 20
110.99
 30
0.0
 40
0.48
 41
0.48
  0
VERTEX
  8
0
 10
178.124
 20
107.99
 30
0.0
 40
0.48
 41
0.48
  0
VERTEX
  8
0
 10
178.124
 20
108.013
 30
0.0
 40
0.48
 41
0.48
  0
VERTEX
  8
0
 10
178.142
 20
108.084
 30
0.0
 40
0.48
 41
0.48
  0
VERTEX
  8
0
 10
178.194
 20
108.16
 30
0.0
 40
0.48
 41
0.48
  0
VERTEX
  8
0
 10
178.27
 20
108.212
 30
0.0
 40
0.48
 41
0.48
  0
VERTEX
  8
0
 10
178.34
 20
108.23
 30
0.0
 40
0.48
 41
0.48
  0
VERTEX
  8
0
 10
178.364
 20
108.23
 30
0.0
 40
0.48
 41
0.48
  0
VERTEX
  8
0
 10
172.364
 20
108.23
 30
0.0
 40
0.48
 41
0.48
  0
VERTEX
  8
0
 10
172.386
 20
108.23
 30
0.0
 40
0.48
 41
0.48
  0
VERTEX
  8
0
 10
172.456
 20
108.212
 30
0.0
 40
0.48
 41
0.48
  0
VERTEX
  8
0
 10
172.533
 20
108.16
 30
0.0
 40
0.48
 41
0.48
  0
VERTEX
  8
0
 10
172.584
 20
108.084
 30
0.0
 40
0.48
 41
0.48
  0
VERTEX
  8
0
 10
172.604
 20
108.013
 30
0.0
 40
0.48
 41
0.48
  0
VERTEX
  8
0
 10
172.604
 20
107.99
 30
0.0
 40
0.48
 41
0.48
  0
VERTEX
  8
0
 10
172.604
 20
110.99
 30
0.0
 40
0.48
 41
0.48
  0
VERTEX
  8
0
 10
172.604
 20
111.014
 30
0.0
 40
0.48
 41
0.48
  0
VERTEX
  8
0
 10
172.584
 20
111.084
 30
0.0
 40
0.48
 41
0.48
  0
VERTEX
  8
0
 10
172.533
 20
111.16
 30
0.0
 40
0.48
 41
0.48
  0
VERTEX
  8
0
 10
172.456
 20
111.212
 30
0.0
 40
0.48
 41
0.48
  0
VERTEX
  8
0
 10
172.386
 20
111.23
 30
0.0
 40
0.48
 41
0.48
  0
VERTEX
  8
0
 10
172.364
 20
111.23
 30
0.0
 40
0.48
 41
0.48
  0
VERTEX
  8
0
 10
161.364
 20
111.23
 30
0.0
 40
0.48
 41
0.48
  0
VERTEX
  8
0
 10
137.802
 20
111.23
 30
0.0
 40
0.48
 41
0.48
  0
VERTEX
  8
0
 10
126.802
 20
111.23
 30
0.0
 40
0.48
 41
0.48
  0
VERTEX
  8
0
 10
126.778
 20
111.23
 30
0.0
 40
0.48
 41
0.48
  0
VERTEX
  8
0
 10
126.708
 20
111.212
 30
0.0
 40
0.48
 41
0.48
  0
VERTEX
  8
0
 10
126.632
 20
111.16
 30
0.0
 40
0.48
 41
0.48
  0
VERTEX
  8
0
 10
126.58
 20
111.084
 30
0.0
 40
0.48
 41
0.48
  0
VERTEX
  8
0
 10
126.562
 20
111.014
 30
0.0
 40
0.48
 41
0.48
  0
VERTEX
  8
0
 10
126.562
 20
110.99
 30
0.0
 40
0.48
 41
0.48
  0
VERTEX
  8
0
 10
126.562
 20
107.99
 30
0.0
 40
0.48
 41
0.48
  0
VERTEX
  8
0
 10
126.562
 20
108.013
 30
0.0
 40
0.48
 41
0.48
  0
VERTEX
  8
0
 10
126.58
 20
108.084
 30
0.0
 40
0.48
 41
0.48
  0
VERTEX
  8
0
 10
126.632
 20
108.16
 30
0.0
 40
0.48
 41
0.48
  0
VERTEX
  8
0
 10
126.708
 20
108.212
 30
0.0
 40
0.48
 41
0.48
  0
VERTEX
  8
0
 10
126.778
 20
108.23
 30
0.0
 40
0.48
 41
0.48
  0
VERTEX
  8
0
 10
126.802
 20
108.23
 30
0.0
 40
0.48
 41
0.48
  0
VERTEX
  8
0
 10
120.802
 20
108.23
 30
0.0
 40
0.48
 41
0.48
  0
VERTEX
  8
0
 10
120.824
 20
108.23
 30
0.0
 40
0.48
 41
0.48
  0
VERTEX
  8
0
 10
120.894
 20
108.212
 30
0.0
 40
0.48
 41
0.48
  0
VERTEX
  8
0
 10
120.971
 20
108.16
 30
0.0
 40
0.48
 41
0.48
  0
VERTEX
  8
0
 10
121.022
 20
108.084
 30
0.0
 40
0.48
 41
0.48
  0
VERTEX
  8
0
 10
121.041
 20
108.013
 30
0.0
 40
0.48
 41
0.48
  0
VERTEX
  8
0
 10
121.041
 20
107.99
 30
0.0
 40
0.48
 41
0.48
  0
VERTEX
  8
0
 10
121.041
 20
110.99
 30
0.0
 40
0.48
 41
0.48
  0
VERTEX
  8
0
 10
121.041
 20
111.014
 30
0.0
 40
0.48
 41
0.48
  0
VERTEX
  8
0
 10
121.022
 20
111.084
 30
0.0
 40
0.48
 41
0.48
  0
VERTEX
  8
0
 10
120.971
 20
111.16
 30
0.0
 40
0.48
 41
0.48
  0
VERTEX
  8
0
 10
120.894
 20
111.212
 30
0.0
 40
0.48
 41
0.48
  0
VERTEX
  8
0
 10
120.824
 20
111.23
 30
0.0
 40
0.48
 41
0.48
  0
VERTEX
  8
0
 10
120.802
 20
111.23
 30
0.0
 40
0.48
 41
0.48
  0
VERTEX
  8
0
 10
114.802
 20
111.23
 30
0.0
 40
0.48
 41
0.48
  0
VERTEX
  8
0
 10
114.778
 20
111.23
 30
0.0
 40
0.48
 41
0.48
  0
VERTEX
  8
0
 10
114.708
 20
111.212
 30
0.0
 40
0.48
 41
0.48
  0
VERTEX
  8
0
 10
114.632
 20
111.16
 30
0.0
 40
0.48
 41
0.48
  0
VERTEX
  8
0
 10
114.58
 20
111.084
 30
0.0
 40
0.48
 41
0.48
  0
VERTEX
  8
0
 10
114.562
 20
111.014
 30
0.0
 40
0.48
 41
0.48
  0
VERTEX
  8
0
 10
114.562
 20
110.99
 30
0.0
 40
0.48
 41
0.48
  0
VERTEX
  8
0
 10
114.562
 20
107.99
 30
0.0
 40
0.48
 41
0.48
  0
VERTEX
  8
0
 10
114.562
 20
108.013
 30
0.0
 40
0.48
 41
0.48
  0
VERTEX
  8
0
 10
114.58
 20
108.084
 30
0.0
 40
0.48
 41
0.48
  0
VERTEX
  8
0
 10
114.632
 20
108.16
 30
0.0
 40
0.48
 41
0.48
  0
VERTEX
  8
0
 10
114.708
 20
108.212
 30
0.0
 40
0.48
 41
0.48
  0
VERTEX
  8
0
 10
114.778
 20
108.23
 30
0.0
 40
0.48
 41
0.48
  0
VERTEX
  8
0
 10
114.802
 20
108.23
 30
0.0
 40
0.48
 41
0.48
  0
VERTEX
  8
0
 10
108.802
 20
108.23
 30
0.0
 40
0.48
 41
0.48
  0
VERTEX
  8
0
 10
108.824
 20
108.23
 30
0.0
 40
0.48
 41
0.48
  0
VERTEX
  8
0
 10
108.894
 20
108.212
 30
0.0
 40
0.48
 41
0.48
  0
VERTEX
  8
0
 10
108.971
 20
108.16
 30
0.0
 40
0.48
 41
0.48
  0
VERTEX
  8
0
 10
109.022
 20
108.084
 30
0.0
 40
0.48
 41
0.48
  0
VERTEX
  8
0
 10
109.041
 20
108.013
 30
0.0
 40
0.48
 41
0.48
  0
VERTEX
  8
0
 10
109.041
 20
107.99
 30
0.0
 40
0.48
 41
0.48
  0
VERTEX
  8
0
 10
109.041
 20
110.99
 30
0.0
 40
0.48
 41
0.48
  0
VERTEX
  8
0
 10
109.041
 20
111.014
 30
0.0
 40
0.48
 41
0.48
  0
VERTEX
  8
0
 10
109.022
 20
111.084
 30
0.0
 40
0.48
 41
0.48
  0
VERTEX
  8
0
 10
108.971
 20
111.16
 30
0.0
 40
0.48
 41
0.48
  0
VERTEX
  8
0
 10
108.894
 20
111.212
 30
0.0
 40
0.48
 41
0.48
  0
VERTEX
  8
0
 10
108.824
 20
111.23
 30
0.0
 40
0.48
 41
0.48
  0
VERTEX
  8
0
 10
108.802
 20
111.23
 30
0.0
 40
0.48
 41
0.48
  0
VERTEX
  8
0
 10
102.802
 20
111.23
 30
0.0
 40
0.48
 41
0.48
  0
VERTEX
  8
0
 10
102.778
 20
111.23
 30
0.0
 40
0.48
 41
0.48
  0
VERTEX
  8
0
 10
102.708
 20
111.212
 30
0.0
 40
0.48
 41
0.48
  0
VERTEX
  8
0
 10
102.632
 20
111.16
 30
0.0
 40
0.48
 41
0.48
  0
VERTEX
  8
0
 10
102.58
 20
111.084
 30
0.0
 40
0.48
 41
0.48
  0
VERTEX
  8
0
 10
102.562
 20
111.014
 30
0.0
 40
0.48
 41
0.48
  0
VERTEX
  8
0
 10
102.562
 20
110.99
 30
0.0
 40
0.48
 41
0.48
  0
VERTEX
  8
0
 10
102.562
 20
107.99
 30
0.0
 40
0.48
 41
0.48
  0
VERTEX
  8
0
 10
102.562
 20
108.013
 30
0.0
 40
0.48
 41
0.48
  0
VERTEX
  8
0
 10
102.58
 20
108.084
 30
0.0
 40
0.48
 41
0.48
  0
VERTEX
  8
0
 10
102.632
 20
108.16
 30
0.0
 40
0.48
 41
0.48
  0
VERTEX
  8
0
 10
102.708
 20
108.212
 30
0.0
 40
0.48
 41
0.48
  0
VERTEX
  8
0
 10
102.778
 20
108.23
 30
0.0
 40
0.48
 41
0.48
  0
VERTEX
  8
0
 10
102.802
 20
108.23
 30
0.0
 40
0.48
 41
0.48
  0
VERTEX
  8
0
 10
96.8015
 20
108.23
 30
0.0
 40
0.48
 41
0.48
  0
VERTEX
  8
0
 10
96.8237
 20
108.23
 30
0.0
 40
0.48
 41
0.48
  0
VERTEX
  8
0
 10
96.8939
 20
108.212
 30
0.0
 40
0.48
 41
0.48
  0
VERTEX
  8
0
 10
96.9712
 20
108.16
 30
0.0
 40
0.48
 41
0.48
  0
VERTEX
  8
0
 10
97.022
 20
108.084
 30
0.0
 40
0.48
 41
0.48
  0
VERTEX
  8
0
 10
97.0414
 20
108.013
 30
0.0
 40
0.48
 41
0.48
  0
VERTEX
  8
0
 10
97.0414
 20
107.99
 30
0.0
 40
0.48
 41
0.48
  0
VERTEX
  8
0
 10
97.0414
 20
110.99
 30
0.0
 40
0.48
 41
0.48
  0
VERTEX
  8
0
 10
97.0414
 20
111.014
 30
0.0
 40
0.48
 41
0.48
  0
VERTEX
  8
0
 10
97.022
 20
111.084
 30
0.0
 40
0.48
 41
0.48
  0
VERTEX
  8
0
 10
96.9712
 20
111.16
 30
0.0
 40
0.48
 41
0.48
  0
VERTEX
  8
0
 10
96.8939
 20
111.212
 30
0.0
 40
0.48
 41
0.48
  0
VERTEX
  8
0
 10
96.8237
 20
111.23
 30
0.0
 40
0.48
 41
0.48
  0
VERTEX
  8
0
 10
96.8015
 20
111.23
 30
0.0
 40
0.48
 41
0.48
  0
VERTEX
  8
0
 10
90.8018
 20
111.23
 30
0.0
 40
0.48
 41
0.48
  0
VERTEX
  8
0
 10
90.7782
 20
111.23
 30
0.0
 40
0.48
 41
0.48
  0
VERTEX
  8
0
 10
90.708
 20
111.212
 30
0.0
 40
0.48
 41
0.48
  0
VERTEX
  8
0
 10
90.6321
 20
111.16
 30
0.0
 40
0.48
 41
0.48
  0
VERTEX
  8
0
 10
90.5799
 20
111.084
 30
0.0
 40
0.48
 41
0.48
  0
VERTEX
  8
0
 10
90.5619
 20
111.014
 30
0.0
 40
0.48
 41
0.48
  0
VERTEX
  8
0
 10
90.5619
 20
110.99
 30
0.0
 40
0.48
 41
0.48
  0
VERTEX
  8
0
 10
90.5619
 20
107.99
 30
0.0
 40
0.48
 41
0.48
  0
VERTEX
  8
0
 10
90.5619
 20
108.013
 30
0.0
 40
0.48
 41
0.48
  0
VERTEX
  8
0
 10
90.5799
 20
108.084
 30
0.0
 40
0.48
 41
0.48
  0
VERTEX
  8
0
 10
90.6321
 20
108.16
 30
0.0
 40
0.48
 41
0.48
  0
VERTEX
  8
0
 10
90.708
 20
108.212
 30
0.0
 40
0.48
 41
0.48
  0
VERTEX
  8
0
 10
90.7782
 20
108.23
 30
0.0
 40
0.48
 41
0.48
  0
VERTEX
  8
0
 10
90.8018
 20
108.23
 30
0.0
 40
0.48
 41
0.48
  0
VERTEX
  8
0
 10
84.8018
 20
108.23
 30
0.0
 40
0.48
 41
0.48
  0
VERTEX
  8
0
 10
84.8237
 20
108.23
 30
0.0
 40
0.48
 41
0.48
  0
VERTEX
  8
0
 10
84.8942
 20
108.212
 30
0.0
 40
0.48
 41
0.48
  0
VERTEX
  8
0
 10
84.9711
 20
108.16
 30
0.0
 40
0.48
 41
0.48
  0
VERTEX
  8
0
 10
85.0223
 20
108.084
 30
0.0
 40
0.48
 41
0.48
  0
VERTEX
  8
0
 10
85.0417
 20
108.013
 30
0.0
 40
0.48
 41
0.48
  0
VERTEX
  8
0
 10
85.0417
 20
107.99
 30
0.0
 40
0.48
 41
0.48
  0
VERTEX
  8
0
 10
85.0417
 20
110.99
 30
0.0
 40
0.48
 41
0.48
  0
VERTEX
  8
0
 10
85.0417
 20
111.014
 30
0.0
 40
0.48
 41
0.48
  0
VERTEX
  8
0
 10
85.0223
 20
111.084
 30
0.0
 40
0.48
 41
0.48
  0
VERTEX
  8
0
 10
84.9711
 20
111.16
 30
0.0
 40
0.48
 41
0.48
  0
VERTEX
  8
0
 10
84.8942
 20
111.212
 30
0.0
 40
0.48
 41
0.48
  0
VERTEX
  8
0
 10
84.8237
 20
111.23
 30
0.0
 40
0.48
 41
0.48
  0
VERTEX
  8
0
 10
84.8018
 20
111.23
 30
0.0
 40
0.48
 41
0.48
  0
VERTEX
  8
0
 10
73.8022
 20
111.23
 30
0.0
 40
0.48
 41
0.48
  0
VERTEX
  8
0
 10
50.2405
 20
111.23
 30
0.0
 40
0.48
 41
0.48
  0
VERTEX
  8
0
 10
39.2395
 20
111.23
 30
0.0
 40
0.48
 41
0.48
  0
VERTEX
  8
0
 10
39.2162
 20
111.23
 30
0.0
 40
0.48
 41
0.48
  0
VERTEX
  8
0
 10
39.146
 20
111.212
 30
0.0
 40
0.48
 41
0.48
  0
VERTEX
  8
0
 10
39.0701
 20
111.16
 30
0.0
 40
0.48
 41
0.48
  0
VERTEX
  8
0
 10
39.0179
 20
111.084
 30
0.0
 40
0.48
 41
0.48
  0
VERTEX
  8
0
 10
38.9999
 20
111.014
 30
0.0
 40
0.48
 41
0.48
  0
VERTEX
  8
0
 10
38.9999
 20
110.99
 30
0.0
 40
0.48
 41
0.48
  0
VERTEX
  8
0
 10
38.9999
 20
107.99
 30
0.0
 40
0.48
 41
0.48
  0
VERTEX
  8
0
 10
38.9999
 20
108.013
 30
0.0
 40
0.48
 41
0.48
  0
VERTEX
  8
0
 10
39.0179
 20
108.084
 30
0.0
 40
0.48
 41
0.48
  0
VERTEX
  8
0
 10
39.0701
 20
108.16
 30
0.0
 40
0.48
 41
0.48
  0
VERTEX
  8
0
 10
39.146
 20
108.212
 30
0.0
 40
0.48
 41
0.48
  0
VERTEX
  8
0
 10
39.2162
 20
108.23
 30
0.0
 40
0.48
 41
0.48
  0
VERTEX
  8
0
 10
39.2395
 20
108.23
 30
0.0
 40
0.48
 41
0.48
  0
VERTEX
  8
0
 10
33.2397
 20
108.23
 30
0.0
 40
0.48
 41
0.48
  0
VERTEX
  8
0
 10
33.2617
 20
108.23
 30
0.0
 40
0.48
 41
0.48
  0
VERTEX
  8
0
 10
33.332
 20
108.212
 30
0.0
 40
0.48
 41
0.48
  0
VERTEX
  8
0
 10
33.4092
 20
108.16
 30
0.0
 40
0.48
 41
0.48
  0
VERTEX
  8
0
 10
33.4602
 20
108.084
 30
0.0
 40
0.48
 41
0.48
  0
VERTEX
  8
0
 10
33.4794
 20
108.013
 30
0.0
 40
0.48
 41
0.48
  0
VERTEX
  8
0
 10
33.4794
 20
107.99
 30
0.0
 40
0.48
 41
0.48
  0
VERTEX
  8
0
 10
33.4794
 20
110.99
 30
0.0
 40
0.48
 41
0.48
  0
VERTEX
  8
0
 10
33.4794
 20
111.014
 30
0.0
 40
0.48
 41
0.48
  0
VERTEX
  8
0
 10
33.4602
 20
111.084
 30
0.0
 40
0.48
 41
0.48
  0
VERTEX
  8
0
 10
33.4092
 20
111.16
 30
0.0
 40
0.48
 41
0.48
  0
VERTEX
  8
0
 10
33.332
 20
111.212
 30
0.0
 40
0.48
 41
0.48
  0
VERTEX
  8
0
 10
33.2617
 20
111.23
 30
0.0
 40
0.48
 41
0.48
  0
VERTEX
  8
0
 10
33.2397
 20
111.23
 30
0.0
 40
0.48
 41
0.48
  0
VERTEX
  8
0
 10
27.2397
 20
111.23
 30
0.0
 40
0.48
 41
0.48
  0
VERTEX
  8
0
 10
27.2162
 20
111.23
 30
0.0
 40
0.48
 41
0.48
  0
VERTEX
  8
0
 10
27.146
 20
111.212
 30
0.0
 40
0.48
 41
0.48
  0
VERTEX
  8
0
 10
27.0702
 20
111.16
 30
0.0
 40
0.48
 41
0.48
  0
VERTEX
  8
0
 10
27.0178
 20
111.084
 30
0.0
 40
0.48
 41
0.48
  0
VERTEX
  8
0
 10
26.9999
 20
111.014
 30
0.0
 40
0.48
 41
0.48
  0
VERTEX
  8
0
 10
26.9999
 20
110.99
 30
0.0
 40
0.48
 41
0.48
  0
VERTEX
  8
0
 10
26.9999
 20
107.99
 30
0.0
 40
0.48
 41
0.48
  0
VERTEX
  8
0
 10
26.9999
 20
108.013
 30
0.0
 40
0.48
 41
0.48
  0
VERTEX
  8
0
 10
27.0178
 20
108.084
 30
0.0
 40
0.48
 41
0.48
  0
VERTEX
  8
0
 10
27.0702
 20
108.16
 30
0.0
 40
0.48
 41
0.48
  0
VERTEX
  8
0
 10
27.146
 20
108.212
 30
0.0
 40
0.48
 41
0.48
  0
VERTEX
  8
0
 10
27.2162
 20
108.23
 30
0.0
 40
0.48
 41
0.48
  0
VERTEX
  8
0
 10
27.2397
 20
108.23
 30
0.0
 40
0.48
 41
0.48
  0
VERTEX
  8
0
 10
21.2397
 20
108.23
 30
0.0
 40
0.48
 41
0.48
  0
VERTEX
  8
0
 10
21.2631
 20
108.23
 30
0.0
 40
0.48
 41
0.48
  0
VERTEX
  8
0
 10
21.3334
 20
108.212
 30
0.0
 40
0.48
 41
0.48
  0
VERTEX
  8
0
 10
21.4092
 20
108.16
 30
0.0
 40
0.48
 41
0.48
  0
VERTEX
  8
0
 10
21.4602
 20
108.084
 30
0.0
 40
0.48
 41
0.48
  0
VERTEX
  8
0
 10
21.4795
 20
108.013
 30
0.0
 40
0.48
 41
0.48
  0
VERTEX
  8
0
 10
21.4795
 20
107.99
 30
0.0
 40
0.48
 41
0.48
  0
VERTEX
  8
0
 10
21.4795
 20
110.99
 30
0.0
 40
0.48
 41
0.48
  0
VERTEX
  8
0
 10
21.4795
 20
111.014
 30
0.0
 40
0.48
 41
0.48
  0
VERTEX
  8
0
 10
21.4602
 20
111.084
 30
0.0
 40
0.48
 41
0.48
  0
VERTEX
  8
0
 10
21.4092
 20
111.16
 30
0.0
 40
0.48
 41
0.48
  0
VERTEX
  8
0
 10
21.3334
 20
111.212
 30
0.0
 40
0.48
 41
0.48
  0
VERTEX
  8
0
 10
21.2631
 20
111.23
 30
0.0
 40
0.48
 41
0.48
  0
VERTEX
  8
0
 10
21.2397
 20
111.23
 30
0.0
 40
0.48
 41
0.48
  0
VERTEX
  8
0
 10
10.2402
 20
111.23
 30
0.0
 40
0.48
 41
0.48
  0
VERTEX
  8
0
 10
10.2168
 20
111.23
 30
0.0
 40
0.48
 41
0.48
  0
VERTEX
  8
0
 10
10.1465
 20
111.212
 30
0.0
 40
0.48
 41
0.48
  0
VERTEX
  8
0
 10
10.0707
 20
111.16
 30
0.0
 40
0.48
 41
0.48
  0
VERTEX
  8
0
 10
10.0183
 20
111.084
 30
0.0
 40
0.48
 41
0.48
  0
VERTEX
  8
0
 10
10.0004
 20
111.014
 30
0.0
 40
0.48
 41
0.48
  0
VERTEX
  8
0
 10
10.0004
 20
110.99
 30
0.0
 40
0.48
 41
0.48
  0
VERTEX
  8
0
 10
10.0004
 20
10.9898
 30
0.0
 40
0.48
 41
0.48
  0
VERTEX
  8
0
 10
10.0004
 20
10.9678
 30
0.0
 40
0.48
 41
0.48
  0
VERTEX
  8
0
 10
10.0183
 20
10.8975
 30
0.0
 40
0.48
 41
0.48
  0
VERTEX
  8
0
 10
10.0707
 20
10.8204
 30
0.0
 40
0.48
 41
0.48
  0
VERTEX
  8
0
 10
10.1465
 20
10.7694
 30
0.0
 40
0.48
 41
0.48
  0
VERTEX
  8
0
 10
10.2168
 20
10.7501
 30
0.0
 40
0.48
 41
0.48
  0
VERTEX
  8
0
 10
10.2402
 20
10.7501
 30
0.0
 40
0.48
 41
0.48
  0
SEQEND
 8
0
  0
POLYLINE
  8
0
 62
     0
 66
     1
 10
0
 20
0
 30
0.0
 40
1.36063
 41
1.36063
  0
VERTEX
  8
0
 10
52.2718
 20
10.7501
 30
0.0
 40
0.48
 41
0.48
  0
VERTEX
  8
0
 10
52.2718
 20
26.9971
 30
0.0
 40
0.48
 41
0.48
  0
SEQEND
 8
0
  0
POLYLINE
  8
0
 62
     0
 66
     1
 10
0
 20
0
 30
0.0
 40
1.36063
 41
1.36063
  0
VERTEX
  8
0
 10
52.2718
 20
29.9972
 30
0.0
 40
0.48
 41
0.48
  0
VERTEX
  8
0
 10
52.2718
 20
59.49
 30
0.0
 40
0.48
 41
0.48
  0
SEQEND
 8
0
  0
POLYLINE
  8
0
 62
     0
 66
     1
 10
0
 20
0
 30
0.0
 40
1.36063
 41
1.36063
  0
VERTEX
  8
0
 10
52.2718
 20
62.49
 30
0.0
 40
0.48
 41
0.48
  0
VERTEX
  8
0
 10
52.2718
 20
91.9826
 30
0.0
 40
0.48
 41
0.48
  0
SEQEND
 8
0
  0
POLYLINE
  8
0
 62
     0
 66
     1
 10
0
 20
0
 30
0.0
 40
1.36063
 41
1.36063
  0
VERTEX
  8
0
 10
52.2718
 20
94.9826
 30
0.0
 40
0.48
 41
0.48
  0
VERTEX
  8
0
 10
52.2718
 20
111.23
 30
0.0
 40
0.48
 41
0.48
  0
SEQEND
 8
0
  0
POLYLINE
  8
0
 62
     0
 66
     1
 10
0
 20
0
 30
0.0
 40
1.36063
 41
1.36063
  0
VERTEX
  8
0
 10
53.7711
 20
108.23
 30
0.0
 40
0.48
 41
0.48
  0
VERTEX
  8
0
 10
53.7711
 20
78.7368
 30
0.0
 40
0.48
 41
0.48
  0
SEQEND
 8
0
  0
POLYLINE
  8
0
 62
     0
 66
     1
 10
0
 20
0
 30
0.0
 40
1.36063
 41
1.36063
  0
VERTEX
  8
0
 10
53.7711
 20
75.7372
 30
0.0
 40
0.48
 41
0.48
  0
VERTEX
  8
0
 10
53.7711
 20
46.2428
 30
0.0
 40
0.48
 41
0.48
  0
SEQEND
 8
0
  0
POLYLINE
  8
0
 62
     0
 66
     1
 10
0
 20
0
 30
0.0
 40
1.36063
 41
1.36063
  0
VERTEX
  8
0
 10
53.7711
 20
43.2428
 30
0.0
 40
0.48
 41
0.48
  0
VERTEX
  8
0
 10
53.7711
 20
13.7501
 30
0.0
 40
0.48
 41
0.48
  0
SEQEND
 8
0
  0
POLYLINE
  8
0
 62
     0
 66
     1
 10
0
 20
0
 30
0.0
 40
1.36063
 41
1.36063
  0
VERTEX
  8
0
 10
55.2718
 20
10.7501
 30
0.0
 40
0.48
 41
0.48
  0
VERTEX
  8
0
 10
55.2718
 20
26.9971
 30
0.0
 40
0.48
 41
0.48
  0
SEQEND
 8
0
  0
POLYLINE
  8
0
 62
     0
 66
     1
 10
0
 20
0
 30
0.0
 40
1.36063
 41
1.36063
  0
VERTEX
  8
0
 10
55.2718
 20
29.9972
 30
0.0
 40
0.48
 41
0.48
  0
VERTEX
  8
0
 10
55.2718
 20
59.49
 30
0.0
 40
0.48
 41
0.48
  0
SEQEND
 8
0
  0
POLYLINE
  8
0
 62
     0
 66
     1
 10
0
 20
0
 30
0.0
 40
1.36063
 41
1.36063
  0
VERTEX
  8
0
 10
55.2718
 20
62.49
 30
0.0
 40
0.48
 41
0.48
  0
VERTEX
  8
0
 10
55.2718
 20
91.9826
 30
0.0
 40
0.48
 41
0.48
  0
SEQEND
 8
0
  0
POLYLINE
  8
0
 62
     0
 66
     1
 10
0
 20
0
 30
0.0
 40
1.36063
 41
1.36063
  0
VERTEX
  8
0
 10
55.2718
 20
94.9826
 30
0.0
 40
0.48
 41
0.48
  0
VERTEX
  8
0
 10
55.2718
 20
111.23
 30
0.0
 40
0.48
 41
0.48
  0
SEQEND
 8
0
  0
POLYLINE
  8
0
 62
     0
 66
     1
 10
0
 20
0
 30
0.0
 40
1.36063
 41
1.36063
  0
VERTEX
  8
0
 10
56.7711
 20
108.23
 30
0.0
 40
0.48
 41
0.48
  0
VERTEX
  8
0
 10
56.7711
 20
78.7368
 30
0.0
 40
0.48
 41
0.48
  0
SEQEND
 8
0
  0
POLYLINE
  8
0
 62
     0
 66
     1
 10
0
 20
0
 30
0.0
 40
1.36063
 41
1.36063
  0
VERTEX
  8
0
 10
56.7711
 20
75.7372
 30
0.0
 40
0.48
 41
0.48
  0
VERTEX
  8
0
 10
56.7711
 20
46.2428
 30
0.0
 40
0.48
 41
0.48
  0
SEQEND
 8
0
  0
POLYLINE
  8
0
 62
     0
 66
     1
 10
0
 20
0
 30
0.0
 40
1.36063
 41
1.36063
  0
VERTEX
  8
0
 10
56.7711
 20
43.2428
 30
0.0
 40
0.48
 41
0.48
  0
VERTEX
  8
0
 10
56.7711
 20
13.7501
 30
0.0
 40
0.48
 41
0.48
  0
SEQEND
 8
0
  0
POLYLINE
  8
0
 62
     0
 66
     1
 10
0
 20
0
 30
0.0
 40
1.36063
 41
1.36063
  0
VERTEX
  8
0
 10
58.2718
 20
10.7501
 30
0.0
 40
0.48
 41
0.48
  0
VERTEX
  8
0
 10
58.2718
 20
26.9971
 30
0.0
 40
0.48
 41
0.48
  0
SEQEND
 8
0
  0
POLYLINE
  8
0
 62
     0
 66
     1
 10
0
 20
0
 30
0.0
 40
1.36063
 41
1.36063
  0
VERTEX
  8
0
 10
58.2718
 20
29.9972
 30
0.0
 40
0.48
 41
0.48
  0
VERTEX
  8
0
 10
58.2718
 20
59.49
 30
0.0
 40
0.48
 41
0.48
  0
SEQEND
 8
0
  0
POLYLINE
  8
0
 62
     0
 66
     1
 10
0
 20
0
 30
0.0
 40
1.36063
 41
1.36063
  0
VERTEX
  8
0
 10
58.2718
 20
62.49
 30
0.0
 40
0.48
 41
0.48
  0
VERTEX
  8
0
 10
58.2718
 20
91.9826
 30
0.0
 40
0.48
 41
0.48
  0
SEQEND
 8
0
  0
POLYLINE
  8
0
 62
     0
 66
     1
 10
0
 20
0
 30
0.0
 40
1.36063
 41
1.36063
  0
VERTEX
  8
0
 10
58.2718
 20
94.9826
 30
0.0
 40
0.48
 41
0.48
  0
VERTEX
  8
0
 10
58.2718
 20
111.23
 30
0.0
 40
0.48
 41
0.48
  0
SEQEND
 8
0
  0
POLYLINE
  8
0
 62
     0
 66
     1
 10
0
 20
0
 30
0.0
 40
1.36063
 41
1.36063
  0
VERTEX
  8
0
 10
59.7711
 20
108.23
 30
0.0
 40
0.48
 41
0.48
  0
VERTEX
  8
0
 10
59.7711
 20
78.7368
 30
0.0
 40
0.48
 41
0.48
  0
SEQEND
 8
0
  0
POLYLINE
  8
0
 62
     0
 66
     1
 10
0
 20
0
 30
0.0
 40
1.36063
 41
1.36063
  0
VERTEX
  8
0
 10
59.7711
 20
75.7372
 30
0.0
 40
0.48
 41
0.48
  0
VERTEX
  8
0
 10
59.7711
 20
46.2428
 30
0.0
 40
0.48
 41
0.48
  0
SEQEND
 8
0
  0
POLYLINE
  8
0
 62
     0
 66
     1
 10
0
 20
0
 30
0.0
 40
1.36063
 41
1.36063
  0
VERTEX
  8
0
 10
59.7711
 20
43.2428
 30
0.0
 40
0.48
 41
0.48
  0
VERTEX
  8
0
 10
59.7711
 20
13.7501
 30
0.0
 40
0.48
 41
0.48
  0
SEQEND
 8
0
  0
POLYLINE
  8
0
 62
     0
 66
     1
 10
0
 20
0
 30
0.0
 40
1.36063
 41
1.36063
  0
VERTEX
  8
0
 10
61.2704
 20
10.7501
 30
0.0
 40
0.48
 41
0.48
  0
VERTEX
  8
0
 10
61.2704
 20
26.9971
 30
0.0
 40
0.48
 41
0.48
  0
SEQEND
 8
0
  0
POLYLINE
  8
0
 62
     0
 66
     1
 10
0
 20
0
 30
0.0
 40
1.36063
 41
1.36063
  0
VERTEX
  8
0
 10
61.2704
 20
29.9972
 30
0.0
 40
0.48
 41
0.48
  0
VERTEX
  8
0
 10
61.2704
 20
59.49
 30
0.0
 40
0.48
 41
0.48
  0
SEQEND
 8
0
  0
POLYLINE
  8
0
 62
     0
 66
     1
 10
0
 20
0
 30
0.0
 40
1.36063
 41
1.36063
  0
VERTEX
  8
0
 10
61.2704
 20
62.49
 30
0.0
 40
0.48
 41
0.48
  0
VERTEX
  8
0
 10
61.2704
 20
91.9826
 30
0.0
 40
0.48
 41
0.48
  0
SEQEND
 8
0
  0
POLYLINE
  8
0
 62
     0
 66
     1
 10
0
 20
0
 30
0.0
 40
1.36063
 41
1.36063
  0
VERTEX
  8
0
 10
61.2704
 20
94.9826
 30
0.0
 40
0.48
 41
0.48
  0
VERTEX
  8
0
 10
61.2704
 20
111.23
 30
0.0
 40
0.48
 41
0.48
  0
SEQEND
 8
0
  0
POLYLINE
  8
0
 62
     0
 66
     1
 10
0
 20
0
 30
0.0
 40
1.36063
 41
1.36063
  0
VERTEX
  8
0
 10
62.7712
 20
108.23
 30
0.0
 40
0.48
 41
0.48
  0
VERTEX
  8
0
 10
62.7712
 20
78.7368
 30
0.0
 40
0.48
 41
0.48
  0
SEQEND
 8
0
  0
POLYLINE
  8
0
 62
     0
 66
     1
 10
0
 20
0
 30
0.0
 40
1.36063
 41
1.36063
  0
VERTEX
  8
0
 10
62.7712
 20
75.7372
 30
0.0
 40
0.48
 41
0.48
  0
VERTEX
  8
0
 10
62.7712
 20
46.2428
 30
0.0
 40
0.48
 41
0.48
  0
SEQEND
 8
0
  0
POLYLINE
  8
0
 62
     0
 66
     1
 10
0
 20
0
 30
0.0
 40
1.36063
 41
1.36063
  0
VERTEX
  8
0
 10
62.7712
 20
43.2428
 30
0.0
 40
0.48
 41
0.48
  0
VERTEX
  8
0
 10
62.7712
 20
13.7501
 30
0.0
 40
0.48
 41
0.48
  0
SEQEND
 8
0
  0
POLYLINE
  8
0
 62
     0
 66
     1
 10
0
 20
0
 30
0.0
 40
1.36063
 41
1.36063
  0
VERTEX
  8
0
 10
64.2705
 20
10.7501
 30
0.0
 40
0.48
 41
0.48
  0
VERTEX
  8
0
 10
64.2705
 20
26.9971
 30
0.0
 40
0.48
 41
0.48
  0
SEQEND
 8
0
  0
POLYLINE
  8
0
 62
     0
 66
     1
 10
0
 20
0
 30
0.0
 40
1.36063
 41
1.36063
  0
VERTEX
  8
0
 10
64.2705
 20
29.9972
 30
0.0
 40
0.48
 41
0.48
  0
VERTEX
  8
0
 10
64.2705
 20
59.49
 30
0.0
 40
0.48
 41
0.48
  0
SEQEND
 8
0
  0
POLYLINE
  8
0
 62
     0
 66
     1
 10
0
 20
0
 30
0.0
 40
1.36063
 41
1.36063
  0
VERTEX
  8
0
 10
64.2705
 20
62.49
 30
0.0
 40
0.48
 41
0.48
  0
VERTEX
  8
0
 10
64.2705
 20
91.9826
 30
0.0
 40
0.48
 41
0.48
  0
SEQEND
 8
0
  0
POLYLINE
  8
0
 62
     0
 66
     1
 10
0
 20
0
 30
0.0
 40
1.36063
 41
1.36063
  0
VERTEX
  8
0
 10
64.2705
 20
94.9826
 30
0.0
 40
0.48
 41
0.48
  0
VERTEX
  8
0
 10
64.2705
 20
111.23
 30
0.0
 40
0.48
 41
0.48
  0
SEQEND
 8
0
  0
POLYLINE
  8
0
 62
     0
 66
     1
 10
0
 20
0
 30
0.0
 40
1.36063
 41
1.36063
  0
VERTEX
  8
0
 10
65.7712
 20
108.23
 30
0.0
 40
0.48
 41
0.48
  0
VERTEX
  8
0
 10
65.7712
 20
78.7368
 30
0.0
 40
0.48
 41
0.48
  0
SEQEND
 8
0
  0
POLYLINE
  8
0
 62
     0
 66
     1
 10
0
 20
0
 30
0.0
 40
1.36063
 41
1.36063
  0
VERTEX
  8
0
 10
65.7712
 20
75.7372
 30
0.0
 40
0.48
 41
0.48
  0
VERTEX
  8
0
 10
65.7712
 20
46.2428
 30
0.0
 40
0.48
 41
0.48
  0
SEQEND
 8
0
  0
POLYLINE
  8
0
 62
     0
 66
     1
 10
0
 20
0
 30
0.0
 40
1.36063
 41
1.36063
  0
VERTEX
  8
0
 10
65.7712
 20
43.2428
 30
0.0
 40
0.48
 41
0.48
  0
VERTEX
  8
0
 10
65.7712
 20
13.7501
 30
0.0
 40
0.48
 41
0.48
  0
SEQEND
 8
0
  0
POLYLINE
  8
0
 62
     0
 66
     1
 10
0
 20
0
 30
0.0
 40
1.36063
 41
1.36063
  0
VERTEX
  8
0
 10
67.2705
 20
10.7501
 30
0.0
 40
0.48
 41
0.48
  0
VERTEX
  8
0
 10
67.2705
 20
26.9971
 30
0.0
 40
0.48
 41
0.48
  0
SEQEND
 8
0
  0
POLYLINE
  8
0
 62
     0
 66
     1
 10
0
 20
0
 30
0.0
 40
1.36063
 41
1.36063
  0
VERTEX
  8
0
 10
67.2705
 20
29.9972
 30
0.0
 40
0.48
 41
0.48
  0
VERTEX
  8
0
 10
67.2705
 20
59.49
 30
0.0
 40
0.48
 41
0.48
  0
SEQEND
 8
0
  0
POLYLINE
  8
0
 62
     0
 66
     1
 10
0
 20
0
 30
0.0
 40
1.36063
 41
1.36063
  0
VERTEX
  8
0
 10
67.2705
 20
62.49
 30
0.0
 40
0.48
 41
0.48
  0
VERTEX
  8
0
 10
67.2705
 20
91.9826
 30
0.0
 40
0.48
 41
0.48
  0
SEQEND
 8
0
  0
POLYLINE
  8
0
 62
     0
 66
     1
 10
0
 20
0
 30
0.0
 40
1.36063
 41
1.36063
  0
VERTEX
  8
0
 10
67.2705
 20
94.9826
 30
0.0
 40
0.48
 41
0.48
  0
VERTEX
  8
0
 10
67.2705
 20
111.23
 30
0.0
 40
0.48
 41
0.48
  0
SEQEND
 8
0
  0
POLYLINE
  8
0
 62
     0
 66
     1
 10
0
 20
0
 30
0.0
 40
1.36063
 41
1.36063
  0
VERTEX
  8
0
 10
68.7709
 20
108.23
 30
0.0
 40
0.48
 41
0.48
  0
VERTEX
  8
0
 10
68.7709
 20
78.7368
 30
0.0
 40
0.48
 41
0.48
  0
SEQEND
 8
0
  0
POLYLINE
  8
0
 62
     0
 66
     1
 10
0
 20
0
 30
0.0
 40
1.36063
 41
1.36063
  0
VERTEX
  8
0
 10
68.7709
 20
75.7372
 30
0.0
 40
0.48
 41
0.48
  0
VERTEX
  8
0
 10
68.7709
 20
46.2428
 30
0.0
 40
0.48
 41
0.48
  0
SEQEND
 8
0
  0
POLYLINE
  8
0
 62
     0
 66
     1
 10
0
 20
0
 30
0.0
 40
1.36063
 41
1.36063
  0
VERTEX
  8
0
 10
68.7709
 20
43.2428
 30
0.0
 40
0.48
 41
0.48
  0
VERTEX
  8
0
 10
68.7709
 20
13.7501
 30
0.0
 40
0.48
 41
0.48
  0
SEQEND
 8
0
  0
POLYLINE
  8
0
 62
     0
 66
     1
 10
0
 20
0
 30
0.0
 40
1.36063
 41
1.36063
  0
VERTEX
  8
0
 10
70.2702
 20
10.7501
 30
0.0
 40
0.48
 41
0.48
  0
VERTEX
  8
0
 10
70.2702
 20
26.9971
 30
0.0
 40
0.48
 41
0.48
  0
SEQEND
 8
0
  0
POLYLINE
  8
0
 62
     0
 66
     1
 10
0
 20
0
 30
0.0
 40
1.36063
 41
1.36063
  0
VERTEX
  8
0
 10
70.2702
 20
29.9972
 30
0.0
 40
0.48
 41
0.48
  0
VERTEX
  8
0
 10
70.2702
 20
59.49
 30
0.0
 40
0.48
 41
0.48
  0
SEQEND
 8
0
  0
POLYLINE
  8
0
 62
     0
 66
     1
 10
0
 20
0
 30
0.0
 40
1.36063
 41
1.36063
  0
VERTEX
  8
0
 10
70.2702
 20
62.49
 30
0.0
 40
0.48
 41
0.48
  0
VERTEX
  8
0
 10
70.2702
 20
91.9826
 30
0.0
 40
0.48
 41
0.48
  0
SEQEND
 8
0
  0
POLYLINE
  8
0
 62
     0
 66
     1
 10
0
 20
0
 30
0.0
 40
1.36063
 41
1.36063
  0
VERTEX
  8
0
 10
70.2702
 20
94.9826
 30
0.0
 40
0.48
 41
0.48
  0
VERTEX
  8
0
 10
70.2702
 20
111.23
 30
0.0
 40
0.48
 41
0.48
  0
SEQEND
 8
0
  0
POLYLINE
  8
0
 62
     0
 66
     1
 10
0
 20
0
 30
0.0
 40
1.36063
 41
1.36063
  0
VERTEX
  8
0
 10
71.7709
 20
108.23
 30
0.0
 40
0.48
 41
0.48
  0
VERTEX
  8
0
 10
71.7709
 20
78.7368
 30
0.0
 40
0.48
 41
0.48
  0
SEQEND
 8
0
  0
POLYLINE
  8
0
 62
     0
 66
     1
 10
0
 20
0
 30
0.0
 40
1.36063
 41
1.36063
  0
VERTEX
  8
0
 10
71.7709
 20
75.7372
 30
0.0
 40
0.48
 41
0.48
  0
VERTEX
  8
0
 10
71.7709
 20
46.2428
 30
0.0
 40
0.48
 41
0.48
  0
SEQEND
 8
0
  0
POLYLINE
  8
0
 62
     0
 66
     1
 10
0
 20
0
 30
0.0
 40
1.36063
 41
1.36063
  0
VERTEX
  8
0
 10
71.7709
 20
43.2428
 30
0.0
 40
0.48
 41
0.48
  0
VERTEX
  8
0
 10
71.7709
 20
13.7501
 30
0.0
 40
0.48
 41
0.48
  0
SEQEND
 8
0
  0
POLYLINE
  8
0
 62
     0
 66
     1
 10
0
 20
0
 30
0.0
 40
1.36063
 41
1.36063
  0
VERTEX
  8
0
 10
139.834
 20
10.7501
 30
0.0
 40
0.48
 41
0.48
  0
VERTEX
  8
0
 10
139.834
 20
26.9971
 30
0.0
 40
0.48
 41
0.48
  0
SEQEND
 8
0
  0
POLYLINE
  8
0
 62
     0
 66
     1
 10
0
 20
0
 30
0.0
 40
1.36063
 41
1.36063
  0
VERTEX
  8
0
 10
139.834
 20
29.9972
 30
0.0
 40
0.48
 41
0.48
  0
VERTEX
  8
0
 10
139.834
 20
59.49
 30
0.0
 40
0.48
 41
0.48
  0
SEQEND
 8
0
  0
POLYLINE
  8
0
 62
     0
 66
     1
 10
0
 20
0
 30
0.0
 40
1.36063
 41
1.36063
  0
VERTEX
  8
0
 10
139.834
 20
62.49
 30
0.0
 40
0.48
 41
0.48
  0
VERTEX
  8
0
 10
139.834
 20
91.9826
 30
0.0
 40
0.48
 41
0.48
  0
SEQEND
 8
0
  0
POLYLINE
  8
0
 62
     0
 66
     1
 10
0
 20
0
 30
0.0
 40
1.36063
 41
1.36063
  0
VERTEX
  8
0
 10
139.834
 20
94.9826
 30
0.0
 40
0.48
 41
0.48
  0
VERTEX
  8
0
 10
139.834
 20
111.23
 30
0.0
 40
0.48
 41
0.48
  0
SEQEND
 8
0
  0
POLYLINE
  8
0
 62
     0
 66
     1
 10
0
 20
0
 30
0.0
 40
1.36063
 41
1.36063
  0
VERTEX
  8
0
 10
141.333
 20
108.23
 30
0.0
 40
0.48
 41
0.48
  0
VERTEX
  8
0
 10
141.333
 20
78.7368
 30
0.0
 40
0.48
 41
0.48
  0
SEQEND
 8
0
  0
POLYLINE
  8
0
 62
     0
 66
     1
 10
0
 20
0
 30
0.0
 40
1.36063
 41
1.36063
  0
VERTEX
  8
0
 10
141.333
 20
75.7372
 30
0.0
 40
0.48
 41
0.48
  0
VERTEX
  8
0
 10
141.333
 20
46.2428
 30
0.0
 40
0.48
 41
0.48
  0
SEQEND
 8
0
  0
POLYLINE
  8
0
 62
     0
 66
     1
 10
0
 20
0
 30
0.0
 40
1.36063
 41
1.36063
  0
VERTEX
  8
0
 10
141.333
 20
43.2428
 30
0.0
 40
0.48
 41
0.48
  0
VERTEX
  8
0
 10
141.333
 20
13.7501
 30
0.0
 40
0.48
 41
0.48
  0
SEQEND
 8
0
  0
POLYLINE
  8
0
 62
     0
 66
     1
 10
0
 20
0
 30
0.0
 40
1.36063
 41
1.36063
  0
VERTEX
  8
0
 10
142.834
 20
10.7501
 30
0.0
 40
0.48
 41
0.48
  0
VERTEX
  8
0
 10
142.834
 20
26.9971
 30
0.0
 40
0.48
 41
0.48
  0
SEQEND
 8
0
  0
POLYLINE
  8
0
 62
     0
 66
     1
 10
0
 20
0
 30
0.0
 40
1.36063
 41
1.36063
  0
VERTEX
  8
0
 10
142.834
 20
29.9972
 30
0.0
 40
0.48
 41
0.48
  0
VERTEX
  8
0
 10
142.834
 20
59.49
 30
0.0
 40
0.48
 41
0.48
  0
SEQEND
 8
0
  0
POLYLINE
  8
0
 62
     0
 66
     1
 10
0
 20
0
 30
0.0
 40
1.36063
 41
1.36063
  0
VERTEX
  8
0
 10
142.834
 20
62.49
 30
0.0
 40
0.48
 41
0.48
  0
VERTEX
  8
0
 10
142.834
 20
91.9826
 30
0.0
 40
0.48
 41
0.48
  0
SEQEND
 8
0
  0
POLYLINE
  8
0
 62
     0
 66
     1
 10
0
 20
0
 30
0.0
 40
1.36063
 41
1.36063
  0
VERTEX
  8
0
 10
142.834
 20
94.9826
 30
0.0
 40
0.48
 41
0.48
  0
VERTEX
  8
0
 10
142.834
 20
111.23
 30
0.0
 40
0.48
 41
0.48
  0
SEQEND
 8
0
  0
POLYLINE
  8
0
 62
     0
 66
     1
 10
0
 20
0
 30
0.0
 40
1.36063
 41
1.36063
  0
VERTEX
  8
0
 10
144.333
 20
108.23
 30
0.0
 40
0.48
 41
0.48
  0
VERTEX
  8
0
 10
144.333
 20
78.7368
 30
0.0
 40
0.48
 41
0.48
  0
SEQEND
 8
0
  0
POLYLINE
  8
0
 62
     0
 66
     1
 10
0
 20
0
 30
0.0
 40
1.36063
 41
1.36063
  0
VERTEX
  8
0
 10
144.333
 20
75.7372
 30
0.0
 40
0.48
 41
0.48
  0
VERTEX
  8
0
 10
144.333
 20
46.2428
 30
0.0
 40
0.48
 41
0.48
  0
SEQEND
 8
0
  0
POLYLINE
  8
0
 62
     0
 66
     1
 10
0
 20
0
 30
0.0
 40
1.36063
 41
1.36063
  0
VERTEX
  8
0
 10
144.333
 20
43.2428
 30
0.0
 40
0.48
 41
0.48
  0
VERTEX
  8
0
 10
144.333
 20
13.7501
 30
0.0
 40
0.48
 41
0.48
  0
SEQEND
 8
0
  0
POLYLINE
  8
0
 62
     0
 66
     1
 10
0
 20
0
 30
0.0
 40
1.36063
 41
1.36063
  0
VERTEX
  8
0
 10
145.834
 20
10.7501
 30
0.0
 40
0.48
 41
0.48
  0
VERTEX
  8
0
 10
145.834
 20
26.9971
 30
0.0
 40
0.48
 41
0.48
  0
SEQEND
 8
0
  0
POLYLINE
  8
0
 62
     0
 66
     1
 10
0
 20
0
 30
0.0
 40
1.36063
 41
1.36063
  0
VERTEX
  8
0
 10
145.834
 20
29.9972
 30
0.0
 40
0.48
 41
0.48
  0
VERTEX
  8
0
 10
145.834
 20
59.49
 30
0.0
 40
0.48
 41
0.48
  0
SEQEND
 8
0
  0
POLYLINE
  8
0
 62
     0
 66
     1
 10
0
 20
0
 30
0.0
 40
1.36063
 41
1.36063
  0
VERTEX
  8
0
 10
145.834
 20
62.49
 30
0.0
 40
0.48
 41
0.48
  0
VERTEX
  8
0
 10
145.834
 20
91.9826
 30
0.0
 40
0.48
 41
0.48
  0
SEQEND
 8
0
  0
POLYLINE
  8
0
 62
     0
 66
     1
 10
0
 20
0
 30
0.0
 40
1.36063
 41
1.36063
  0
VERTEX
  8
0
 10
145.834
 20
94.9826
 30
0.0
 40
0.48
 41
0.48
  0
VERTEX
  8
0
 10
145.834
 20
111.23
 30
0.0
 40
0.48
 41
0.48
  0
SEQEND
 8
0
  0
POLYLINE
  8
0
 62
     0
 66
     1
 10
0
 20
0
 30
0.0
 40
1.36063
 41
1.36063
  0
VERTEX
  8
0
 10
147.333
 20
108.23
 30
0.0
 40
0.48
 41
0.48
  0
VERTEX
  8
0
 10
147.333
 20
78.7368
 30
0.0
 40
0.48
 41
0.48
  0
SEQEND
 8
0
  0
POLYLINE
  8
0
 62
     0
 66
     1
 10
0
 20
0
 30
0.0
 40
1.36063
 41
1.36063
  0
VERTEX
  8
0
 10
147.333
 20
75.7372
 30
0.0
 40
0.48
 41
0.48
  0
VERTEX
  8
0
 10
147.333
 20
46.2428
 30
0.0
 40
0.48
 41
0.48
  0
SEQEND
 8
0
  0
POLYLINE
  8
0
 62
     0
 66
     1
 10
0
 20
0
 30
0.0
 40
1.36063
 41
1.36063
  0
VERTEX
  8
0
 10
147.333
 20
43.2428
 30
0.0
 40
0.48
 41
0.48
  0
VERTEX
  8
0
 10
147.333
 20
13.7501
 30
0.0
 40
0.48
 41
0.48
  0
SEQEND
 8
0
  0
POLYLINE
  8
0
 62
     0
 66
     1
 10
0
 20
0
 30
0.0
 40
1.36063
 41
1.36063
  0
VERTEX
  8
0
 10
148.834
 20
10.7501
 30
0.0
 40
0.48
 41
0.48
  0
VERTEX
  8
0
 10
148.834
 20
26.9971
 30
0.0
 40
0.48
 41
0.48
  0
SEQEND
 8
0
  0
POLYLINE
  8
0
 62
     0
 66
     1
 10
0
 20
0
 30
0.0
 40
1.36063
 41
1.36063
  0
VERTEX
  8
0
 10
148.834
 20
29.9972
 30
0.0
 40
0.48
 41
0.48
  0
VERTEX
  8
0
 10
148.834
 20
59.49
 30
0.0
 40
0.48
 41
0.48
  0
SEQEND
 8
0
  0
POLYLINE
  8
0
 62
     0
 66
     1
 10
0
 20
0
 30
0.0
 40
1.36063
 41
1.36063
  0
VERTEX
  8
0
 10
148.834
 20
62.49
 30
0.0
 40
0.48
 41
0.48
  0
VERTEX
  8
0
 10
148.834
 20
91.9826
 30
0.0
 40
0.48
 41
0.48
  0
SEQEND
 8
0
  0
POLYLINE
  8
0
 62
     0
 66
     1
 10
0
 20
0
 30
0.0
 40
1.36063
 41
1.36063
  0
VERTEX
  8
0
 10
148.834
 20
94.9826
 30
0.0
 40
0.48
 41
0.48
  0
VERTEX
  8
0
 10
148.834
 20
111.23
 30
0.0
 40
0.48
 41
0.48
  0
SEQEND
 8
0
  0
POLYLINE
  8
0
 62
     0
 66
     1
 10
0
 20
0
 30
0.0
 40
1.36063
 41
1.36063
  0
VERTEX
  8
0
 10
150.333
 20
108.23
 30
0.0
 40
0.48
 41
0.48
  0
VERTEX
  8
0
 10
150.333
 20
78.7368
 30
0.0
 40
0.48
 41
0.48
  0
SEQEND
 8
0
  0
POLYLINE
  8
0
 62
     0
 66
     1
 10
0
 20
0
 30
0.0
 40
1.36063
 41
1.36063
  0
VERTEX
  8
0
 10
150.333
 20
75.7372
 30
0.0
 40
0.48
 41
0.48
  0
VERTEX
  8
0
 10
150.333
 20
46.2428
 30
0.0
 40
0.48
 41
0.48
  0
SEQEND
 8
0
  0
POLYLINE
  8
0
 62
     0
 66
     1
 10
0
 20
0
 30
0.0
 40
1.36063
 41
1.36063
  0
VERTEX
  8
0
 10
150.333
 20
43.2428
 30
0.0
 40
0.48
 41
0.48
  0
VERTEX
  8
0
 10
150.333
 20
13.7501
 30
0.0
 40
0.48
 41
0.48
  0
SEQEND
 8
0
  0
POLYLINE
  8
0
 62
     0
 66
     1
 10
0
 20
0
 30
0.0
 40
1.36063
 41
1.36063
  0
VERTEX
  8
0
 10
151.834
 20
10.7501
 30
0.0
 40
0.48
 41
0.48
  0
VERTEX
  8
0
 10
151.834
 20
26.9971
 30
0.0
 40
0.48
 41
0.48
  0
SEQEND
 8
0
  0
POLYLINE
  8
0
 62
     0
 66
     1
 10
0
 20
0
 30
0.0
 40
1.36063
 41
1.36063
  0
VERTEX
  8
0
 10
151.834
 20
29.9972
 30
0.0
 40
0.48
 41
0.48
  0
VERTEX
  8
0
 10
151.834
 20
59.49
 30
0.0
 40
0.48
 41
0.48
  0
SEQEND
 8
0
  0
POLYLINE
  8
0
 62
     0
 66
     1
 10
0
 20
0
 30
0.0
 40
1.36063
 41
1.36063
  0
VERTEX
  8
0
 10
151.834
 20
62.49
 30
0.0
 40
0.48
 41
0.48
  0
VERTEX
  8
0
 10
151.834
 20
91.9826
 30
0.0
 40
0.48
 41
0.48
  0
SEQEND
 8
0
  0
POLYLINE
  8
0
 62
     0
 66
     1
 10
0
 20
0
 30
0.0
 40
1.36063
 41
1.36063
  0
VERTEX
  8
0
 10
151.834
 20
94.9826
 30
0.0
 40
0.48
 41
0.48
  0
VERTEX
  8
0
 10
151.834
 20
111.23
 30
0.0
 40
0.48
 41
0.48
  0
SEQEND
 8
0
  0
POLYLINE
  8
0
 62
     0
 66
     1
 10
0
 20
0
 30
0.0
 40
1.36063
 41
1.36063
  0
VERTEX
  8
0
 10
153.333
 20
108.23
 30
0.0
 40
0.48
 41
0.48
  0
VERTEX
  8
0
 10
153.333
 20
78.7368
 30
0.0
 40
0.48
 41
0.48
  0
SEQEND
 8
0
  0
POLYLINE
  8
0
 62
     0
 66
     1
 10
0
 20
0
 30
0.0
 40
1.36063
 41
1.36063
  0
VERTEX
  8
0
 10
153.333
 20
75.7372
 30
0.0
 40
0.48
 41
0.48
  0
VERTEX
  8
0
 10
153.333
 20
46.2428
 30
0.0
 40
0.48
 41
0.48
  0
SEQEND
 8
0
  0
POLYLINE
  8
0
 62
     0
 66
     1
 10
0
 20
0
 30
0.0
 40
1.36063
 41
1.36063
  0
VERTEX
  8
0
 10
153.333
 20
43.2428
 30
0.0
 40
0.48
 41
0.48
  0
VERTEX
  8
0
 10
153.333
 20
13.7501
 30
0.0
 40
0.48
 41
0.48
  0
SEQEND
 8
0
  0
POLYLINE
  8
0
 62
     0
 66
     1
 10
0
 20
0
 30
0.0
 40
1.36063
 41
1.36063
  0
VERTEX
  8
0
 10
154.832
 20
10.7501
 30
0.0
 40
0.48
 41
0.48
  0
VERTEX
  8
0
 10
154.832
 20
26.9971
 30
0.0
 40
0.48
 41
0.48
  0
SEQEND
 8
0
  0
POLYLINE
  8
0
 62
     0
 66
     1
 10
0
 20
0
 30
0.0
 40
1.36063
 41
1.36063
  0
VERTEX
  8
0
 10
154.832
 20
29.9972
 30
0.0
 40
0.48
 41
0.48
  0
VERTEX
  8
0
 10
154.832
 20
59.49
 30
0.0
 40
0.48
 41
0.48
  0
SEQEND
 8
0
  0
POLYLINE
  8
0
 62
     0
 66
     1
 10
0
 20
0
 30
0.0
 40
1.36063
 41
1.36063
  0
VERTEX
  8
0
 10
154.832
 20
62.49
 30
0.0
 40
0.48
 41
0.48
  0
VERTEX
  8
0
 10
154.832
 20
91.9826
 30
0.0
 40
0.48
 41
0.48
  0
SEQEND
 8
0
  0
POLYLINE
  8
0
 62
     0
 66
     1
 10
0
 20
0
 30
0.0
 40
1.36063
 41
1.36063
  0
VERTEX
  8
0
 10
154.832
 20
94.9826
 30
0.0
 40
0.48
 41
0.48
  0
VERTEX
  8
0
 10
154.832
 20
111.23
 30
0.0
 40
0.48
 41
0.48
  0
SEQEND
 8
0
  0
POLYLINE
  8
0
 62
     0
 66
     1
 10
0
 20
0
 30
0.0
 40
1.36063
 41
1.36063
  0
VERTEX
  8
0
 10
156.333
 20
108.23
 30
0.0
 40
0.48
 41
0.48
  0
VERTEX
  8
0
 10
156.333
 20
78.7368
 30
0.0
 40
0.48
 41
0.48
  0
SEQEND
 8
0
  0
POLYLINE
  8
0
 62
     0
 66
     1
 10
0
 20
0
 30
0.0
 40
1.36063
 41
1.36063
  0
VERTEX
  8
0
 10
156.333
 20
75.7372
 30
0.0
 40
0.48
 41
0.48
  0
VERTEX
  8
0
 10
156.333
 20
46.2428
 30
0.0
 40
0.48
 41
0.48
  0
SEQEND
 8
0
  0
POLYLINE
  8
0
 62
     0
 66
     1
 10
0
 20
0
 30
0.0
 40
1.36063
 41
1.36063
  0
VERTEX
  8
0
 10
156.333
 20
43.2428
 30
0.0
 40
0.48
 41
0.48
  0
VERTEX
  8
0
 10
156.333
 20
13.7501
 30
0.0
 40
0.48
 41
0.48
  0
SEQEND
 8
0
  0
POLYLINE
  8
0
 62
     0
 66
     1
 10
0
 20
0
 30
0.0
 40
1.36063
 41
1.36063
  0
VERTEX
  8
0
 10
157.832
 20
10.7501
 30
0.0
 40
0.48
 41
0.48
  0
VERTEX
  8
0
 10
157.832
 20
26.9971
 30
0.0
 40
0.48
 41
0.48
  0
SEQEND
 8
0
  0
POLYLINE
  8
0
 62
     0
 66
     1
 10
0
 20
0
 30
0.0
 40
1.36063
 41
1.36063
  0
VERTEX
  8
0
 10
157.832
 20
29.9972
 30
0.0
 40
0.48
 41
0.48
  0
VERTEX
  8
0
 10
157.832
 20
59.49
 30
0.0
 40
0.48
 41
0.48
  0
SEQEND
 8
0
  0
POLYLINE
  8
0
 62
     0
 66
     1
 10
0
 20
0
 30
0.0
 40
1.36063
 41
1.36063
  0
VERTEX
  8
0
 10
157.832
 20
62.49
 30
0.0
 40
0.48
 41
0.48
  0
VERTEX
  8
0
 10
157.832
 20
91.9826
 30
0.0
 40
0.48
 41
0.48
  0
SEQEND
 8
0
  0
POLYLINE
  8
0
 62
     0
 66
     1
 10
0
 20
0
 30
0.0
 40
1.36063
 41
1.36063
  0
VERTEX
  8
0
 10
157.832
 20
94.9826
 30
0.0
 40
0.48
 41
0.48
  0
VERTEX
  8
0
 10
157.832
 20
111.23
 30
0.0
 40
0.48
 41
0.48
  0
SEQEND
 8
0
  0
POLYLINE
  8
0
 62
     0
 66
     1
 10
0
 20
0
 30
0.0
 40
1.36063
 41
1.36063
  0
VERTEX
  8
0
 10
159.333
 20
108.23
 30
0.0
 40
0.48
 41
0.48
  0
VERTEX
  8
0
 10
159.333
 20
78.7368
 30
0.0
 40
0.48
 41
0.48
  0
SEQEND
 8
0
  0
POLYLINE
  8
0
 62
     0
 66
     1
 10
0
 20
0
 30
0.0
 40
1.36063
 41
1.36063
  0
VERTEX
  8
0
 10
159.333
 20
75.7372
 30
0.0
 40
0.48
 41
0.48
  0
VERTEX
  8
0
 10
159.333
 20
46.2428
 30
0.0
 40
0.48
 41
0.48
  0
SEQEND
 8
0
  0
POLYLINE
  8
0
 62
     0
 66
     1
 10
0
 20
0
 30
0.0
 40
1.36063
 41
1.36063
  0
VERTEX
  8
0
 10
159.333
 20
43.2428
 30
0.0
 40
0.48
 41
0.48
  0
VERTEX
  8
0
 10
159.333
 20
13.7501
 30
0.0
 40
0.48
 41
0.48
  0
SEQEND
 8
0
  0
POLYLINE
  8
0
 62
     0
 66
     1
 10
0
 20
0
 30
0.0
 40
1.36063
 41
1.36063
  0
VERTEX
  8
0
 10
227.396
 20
10.7501
 30
0.0
 40
0.48
 41
0.48
  0
VERTEX
  8
0
 10
227.396
 20
26.9971
 30
0.0
 40
0.48
 41
0.48
  0
SEQEND
 8
0
  0
POLYLINE
  8
0
 62
     0
 66
     1
 10
0
 20
0
 30
0.0
 40
1.36063
 41
1.36063
  0
VERTEX
  8
0
 10
227.396
 20
29.9972
 30
0.0
 40
0.48
 41
0.48
  0
VERTEX
  8
0
 10
227.396
 20
59.49
 30
0.0
 40
0.48
 41
0.48
  0
SEQEND
 8
0
  0
POLYLINE
  8
0
 62
     0
 66
     1
 10
0
 20
0
 30
0.0
 40
1.36063
 41
1.36063
  0
VERTEX
  8
0
 10
227.396
 20
62.49
 30
0.0
 40
0.48
 41
0.48
  0
VERTEX
  8
0
 10
227.396
 20
91.9826
 30
0.0
 40
0.48
 41
0.48
  0
SEQEND
 8
0
  0
POLYLINE
  8
0
 62
     0
 66
     1
 10
0
 20
0
 30
0.0
 40
1.36063
 41
1.36063
  0
VERTEX
  8
0
 10
227.396
 20
94.9826
 30
0.0
 40
0.48
 41
0.48
  0
VERTEX
  8
0
 10
227.396
 20
111.23
 30
0.0
 40
0.48
 41
0.48
  0
SEQEND
 8
0
  0
POLYLINE
  8
0
 62
     0
 66
     1
 10
0
 20
0
 30
0.0
 40
1.36063
 41
1.36063
  0
VERTEX
  8
0
 10
228.895
 20
108.23
 30
0.0
 40
0.48
 41
0.48
  0
VERTEX
  8
0
 10
228.895
 20
78.7368
 30
0.0
 40
0.48
 41
0.48
  0
SEQEND
 8
0
  0
POLYLINE
  8
0
 62
     0
 66
     1
 10
0
 20
0
 30
0.0
 40
1.36063
 41
1.36063
  0
VERTEX
  8
0
 10
228.895
 20
75.7372
 30
0.0
 40
0.48
 41
0.48
  0
VERTEX
  8
0
 10
228.895
 20
46.2428
 30
0.0
 40
0.48
 41
0.48
  0
SEQEND
 8
0
  0
POLYLINE
  8
0
 62
     0
 66
     1
 10
0
 20
0
 30
0.0
 40
1.36063
 41
1.36063
  0
VERTEX
  8
0
 10
228.895
 20
43.2428
 30
0.0
 40
0.48
 41
0.48
  0
VERTEX
  8
0
 10
228.895
 20
13.7501
 30
0.0
 40
0.48
 41
0.48
  0
SEQEND
 8
0
  0
POLYLINE
  8
0
 62
     0
 66
     1
 10
0
 20
0
 30
0.0
 40
1.36063
 41
1.36063
  0
VERTEX
  8
0
 10
230.396
 20
10.7501
 30
0.0
 40
0.48
 41
0.48
  0
VERTEX
  8
0
 10
230.396
 20
26.9971
 30
0.0
 40
0.48
 41
0.48
  0
SEQEND
 8
0
  0
POLYLINE
  8
0
 62
     0
 66
     1
 10
0
 20
0
 30
0.0
 40
1.36063
 41
1.36063
  0
VERTEX
  8
0
 10
230.396
 20
29.9972
 30
0.0
 40
0.48
 41
0.48
  0
VERTEX
  8
0
 10
230.396
 20
59.49
 30
0.0
 40
0.48
 41
0.48
  0
SEQEND
 8
0
  0
POLYLINE
  8
0
 62
     0
 66
     1
 10
0
 20
0
 30
0.0
 40
1.36063
 41
1.36063
  0
VERTEX
  8
0
 10
230.396
 20
62.49
 30
0.0
 40
0.48
 41
0.48
  0
VERTEX
  8
0
 10
230.396
 20
91.9826
 30
0.0
 40
0.48
 41
0.48
  0
SEQEND
 8
0
  0
POLYLINE
  8
0
 62
     0
 66
     1
 10
0
 20
0
 30
0.0
 40
1.36063
 41
1.36063
  0
VERTEX
  8
0
 10
230.396
 20
94.9826
 30
0.0
 40
0.48
 41
0.48
  0
VERTEX
  8
0
 10
230.396
 20
111.23
 30
0.0
 40
0.48
 41
0.48
  0
SEQEND
 8
0
  0
POLYLINE
  8
0
 62
     0
 66
     1
 10
0
 20
0
 30
0.0
 40
1.36063
 41
1.36063
  0
VERTEX
  8
0
 10
231.895
 20
108.23
 30
0.0
 40
0.48
 41
0.48
  0
VERTEX
  8
0
 10
231.895
 20
78.7368
 30
0.0
 40
0.48
 41
0.48
  0
SEQEND
 8
0
  0
POLYLINE
  8
0
 62
     0
 66
     1
 10
0
 20
0
 30
0.0
 40
1.36063
 41
1.36063
  0
VERTEX
  8
0
 10
231.895
 20
75.7372
 30
0.0
 40
0.48
 41
0.48
  0
VERTEX
  8
0
 10
231.895
 20
46.2428
 30
0.0
 40
0.48
 41
0.48
  0
SEQEND
 8
0
  0
POLYLINE
  8
0
 62
     0
 66
     1
 10
0
 20
0
 30
0.0
 40
1.36063
 41
1.36063
  0
VERTEX
  8
0
 10
231.895
 20
43.2428
 30
0.0
 40
0.48
 41
0.48
  0
VERTEX
  8
0
 10
231.895
 20
13.7501
 30
0.0
 40
0.48
 41
0.48
  0
SEQEND
 8
0
  0
POLYLINE
  8
0
 62
     0
 66
     1
 10
0
 20
0
 30
0.0
 40
1.36063
 41
1.36063
  0
VERTEX
  8
0
 10
233.396
 20
10.7501
 30
0.0
 40
0.48
 41
0.48
  0
VERTEX
  8
0
 10
233.396
 20
26.9971
 30
0.0
 40
0.48
 41
0.48
  0
SEQEND
 8
0
  0
POLYLINE
  8
0
 62
     0
 66
     1
 10
0
 20
0
 30
0.0
 40
1.36063
 41
1.36063
  0
VERTEX
  8
0
 10
233.396
 20
29.9972
 30
0.0
 40
0.48
 41
0.48
  0
VERTEX
  8
0
 10
233.396
 20
59.49
 30
0.0
 40
0.48
 41
0.48
  0
SEQEND
 8
0
  0
POLYLINE
  8
0
 62
     0
 66
     1
 10
0
 20
0
 30
0.0
 40
1.36063
 41
1.36063
  0
VERTEX
  8
0
 10
233.396
 20
62.49
 30
0.0
 40
0.48
 41
0.48
  0
VERTEX
  8
0
 10
233.396
 20
91.9826
 30
0.0
 40
0.48
 41
0.48
  0
SEQEND
 8
0
  0
POLYLINE
  8
0
 62
     0
 66
     1
 10
0
 20
0
 30
0.0
 40
1.36063
 41
1.36063
  0
VERTEX
  8
0
 10
233.396
 20
94.9826
 30
0.0
 40
0.48
 41
0.48
  0
VERTEX
  8
0
 10
233.396
 20
111.23
 30
0.0
 40
0.48
 41
0.48
  0
SEQEND
 8
0
  0
POLYLINE
  8
0
 62
     0
 66
     1
 10
0
 20
0
 30
0.0
 40
1.36063
 41
1.36063
  0
VERTEX
  8
0
 10
234.895
 20
108.23
 30
0.0
 40
0.48
 41
0.48
  0
VERTEX
  8
0
 10
234.895
 20
78.7368
 30
0.0
 40
0.48
 41
0.48
  0
SEQEND
 8
0
  0
POLYLINE
  8
0
 62
     0
 66
     1
 10
0
 20
0
 30
0.0
 40
1.36063
 41
1.36063
  0
VERTEX
  8
0
 10
234.895
 20
75.7372
 30
0.0
 40
0.48
 41
0.48
  0
VERTEX
  8
0
 10
234.895
 20
46.2428
 30
0.0
 40
0.48
 41
0.48
  0
SEQEND
 8
0
  0
POLYLINE
  8
0
 62
     0
 66
     1
 10
0
 20
0
 30
0.0
 40
1.36063
 41
1.36063
  0
VERTEX
  8
0
 10
234.895
 20
43.2428
 30
0.0
 40
0.48
 41
0.48
  0
VERTEX
  8
0
 10
234.895
 20
13.7501
 30
0.0
 40
0.48
 41
0.48
  0
SEQEND
 8
0
  0
POLYLINE
  8
0
 62
     0
 66
     1
 10
0
 20
0
 30
0.0
 40
1.36063
 41
1.36063
  0
VERTEX
  8
0
 10
236.396
 20
10.7501
 30
0.0
 40
0.48
 41
0.48
  0
VERTEX
  8
0
 10
236.396
 20
26.9971
 30
0.0
 40
0.48
 41
0.48
  0
SEQEND
 8
0
  0
POLYLINE
  8
0
 62
     0
 66
     1
 10
0
 20
0
 30
0.0
 40
1.36063
 41
1.36063
  0
VERTEX
  8
0
 10
236.396
 20
29.9972
 30
0.0
 40
0.48
 41
0.48
  0
VERTEX
  8
0
 10
236.396
 20
59.49
 30
0.0
 40
0.48
 41
0.48
  0
SEQEND
 8
0
  0
POLYLINE
  8
0
 62
     0
 66
     1
 10
0
 20
0
 30
0.0
 40
1.36063
 41
1.36063
  0
VERTEX
  8
0
 10
236.396
 20
62.49
 30
0.0
 40
0.48
 41
0.48
  0
VERTEX
  8
0
 10
236.396
 20
91.9826
 30
0.0
 40
0.48
 41
0.48
  0
SEQEND
 8
0
  0
POLYLINE
  8
0
 62
     0
 66
     1
 10
0
 20
0
 30
0.0
 40
1.36063
 41
1.36063
  0
VERTEX
  8
0
 10
236.396
 20
94.9826
 30
0.0
 40
0.48
 41
0.48
  0
VERTEX
  8
0
 10
236.396
 20
111.23
 30
0.0
 40
0.48
 41
0.48
  0
SEQEND
 8
0
  0
POLYLINE
  8
0
 62
     0
 66
     1
 10
0
 20
0
 30
0.0
 40
1.36063
 41
1.36063
  0
VERTEX
  8
0
 10
237.895
 20
108.23
 30
0.0
 40
0.48
 41
0.48
  0
VERTEX
  8
0
 10
237.895
 20
78.7368
 30
0.0
 40
0.48
 41
0.48
  0
SEQEND
 8
0
  0
POLYLINE
  8
0
 62
     0
 66
     1
 10
0
 20
0
 30
0.0
 40
1.36063
 41
1.36063
  0
VERTEX
  8
0
 10
237.895
 20
75.7372
 30
0.0
 40
0.48
 41
0.48
  0
VERTEX
  8
0
 10
237.895
 20
46.2428
 30
0.0
 40
0.48
 41
0.48
  0
SEQEND
 8
0
  0
POLYLINE
  8
0
 62
     0
 66
     1
 10
0
 20
0
 30
0.0
 40
1.36063
 41
1.36063
  0
VERTEX
  8
0
 10
237.895
 20
43.2428
 30
0.0
 40
0.48
 41
0.48
  0
VERTEX
  8
0
 10
237.895
 20
13.7501
 30
0.0
 40
0.48
 41
0.48
  0
SEQEND
 8
0
  0
POLYLINE
  8
0
 62
     0
 66
     1
 10
0
 20
0
 30
0.0
 40
1.36063
 41
1.36063
  0
VERTEX
  8
0
 10
239.396
 20
10.7501
 30
0.0
 40
0.48
 41
0.48
  0
VERTEX
  8
0
 10
239.396
 20
26.9971
 30
0.0
 40
0.48
 41
0.48
  0
SEQEND
 8
0
  0
POLYLINE
  8
0
 62
     0
 66
     1
 10
0
 20
0
 30
0.0
 40
1.36063
 41
1.36063
  0
VERTEX
  8
0
 10
239.396
 20
29.9972
 30
0.0
 40
0.48
 41
0.48
  0
VERTEX
  8
0
 10
239.396
 20
59.49
 30
0.0
 40
0.48
 41
0.48
  0
SEQEND
 8
0
  0
POLYLINE
  8
0
 62
     0
 66
     1
 10
0
 20
0
 30
0.0
 40
1.36063
 41
1.36063
  0
VERTEX
  8
0
 10
239.396
 20
62.49
 30
0.0
 40
0.48
 41
0.48
  0
VERTEX
  8
0
 10
239.396
 20
91.9826
 30
0.0
 40
0.48
 41
0.48
  0
SEQEND
 8
0
  0
POLYLINE
  8
0
 62
     0
 66
     1
 10
0
 20
0
 30
0.0
 40
1.36063
 41
1.36063
  0
VERTEX
  8
0
 10
239.396
 20
94.9826
 30
0.0
 40
0.48
 41
0.48
  0
VERTEX
  8
0
 10
239.396
 20
111.23
 30
0.0
 40
0.48
 41
0.48
  0
SEQEND
 8
0
  0
POLYLINE
  8
0
 62
     0
 66
     1
 10
0
 20
0
 30
0.0
 40
1.36063
 41
1.36063
  0
VERTEX
  8
0
 10
240.895
 20
108.23
 30
0.0
 40
0.48
 41
0.48
  0
VERTEX
  8
0
 10
240.895
 20
78.7368
 30
0.0
 40
0.48
 41
0.48
  0
SEQEND
 8
0
  0
POLYLINE
  8
0
 62
     0
 66
     1
 10
0
 20
0
 30
0.0
 40
1.36063
 41
1.36063
  0
VERTEX
  8
0
 10
240.895
 20
75.7372
 30
0.0
 40
0.48
 41
0.48
  0
VERTEX
  8
0
 10
240.895
 20
46.2428
 30
0.0
 40
0.48
 41
0.48
  0
SEQEND
 8
0
  0
POLYLINE
  8
0
 62
     0
 66
     1
 10
0
 20
0
 30
0.0
 40
1.36063
 41
1.36063
  0
VERTEX
  8
0
 10
240.895
 20
43.2428
 30
0.0
 40
0.48
 41
0.48
  0
VERTEX
  8
0
 10
240.895
 20
13.7501
 30
0.0
 40
0.48
 41
0.48
  0
SEQEND
 8
0
  0
POLYLINE
  8
0
 62
     0
 66
     1
 10
0
 20
0
 30
0.0
 40
1.36063
 41
1.36063
  0
VERTEX
  8
0
 10
242.395
 20
10.7501
 30
0.0
 40
0.48
 41
0.48
  0
VERTEX
  8
0
 10
242.395
 20
26.9971
 30
0.0
 40
0.48
 41
0.48
  0
SEQEND
 8
0
  0
POLYLINE
  8
0
 62
     0
 66
     1
 10
0
 20
0
 30
0.0
 40
1.36063
 41
1.36063
  0
VERTEX
  8
0
 10
242.395
 20
29.9972
 30
0.0
 40
0.48
 41
0.48
  0
VERTEX
  8
0
 10
242.395
 20
59.49
 30
0.0
 40
0.48
 41
0.48
  0
SEQEND
 8
0
  0
POLYLINE
  8
0
 62
     0
 66
     1
 10
0
 20
0
 30
0.0
 40
1.36063
 41
1.36063
  0
VERTEX
  8
0
 10
242.395
 20
62.49
 30
0.0
 40
0.48
 41
0.48
  0
VERTEX
  8
0
 10
242.395
 20
91.9826
 30
0.0
 40
0.48
 41
0.48
  0
SEQEND
 8
0
  0
POLYLINE
  8
0
 62
     0
 66
     1
 10
0
 20
0
 30
0.0
 40
1.36063
 41
1.36063
  0
VERTEX
  8
0
 10
242.395
 20
94.9826
 30
0.0
 40
0.48
 41
0.48
  0
VERTEX
  8
0
 10
242.395
 20
111.23
 30
0.0
 40
0.48
 41
0.48
  0
SEQEND
 8
0
  0
POLYLINE
  8
0
 62
     0
 66
     1
 10
0
 20
0
 30
0.0
 40
1.36063
 41
1.36063
  0
VERTEX
  8
0
 10
243.895
 20
108.23
 30
0.0
 40
0.48
 41
0.48
  0
VERTEX
  8
0
 10
243.895
 20
78.7368
 30
0.0
 40
0.48
 41
0.48
  0
SEQEND
 8
0
  0
POLYLINE
  8
0
 62
     0
 66
     1
 10
0
 20
0
 30
0.0
 40
1.36063
 41
1.36063
  0
VERTEX
  8
0
 10
243.895
 20
75.7372
 30
0.0
 40
0.48
 41
0.48
  0
VERTEX
  8
0
 10
243.895
 20
46.2428
 30
0.0
 40
0.48
 41
0.48
  0
SEQEND
 8
0
  0
POLYLINE
  8
0
 62
     0
 66
     1
 10
0
 20
0
 30
0.0
 40
1.36063
 41
1.36063
  0
VERTEX
  8
0
 10
243.895
 20
43.2428
 30
0.0
 40
0.48
 41
0.48
  0
VERTEX
  8
0
 10
243.895
 20
13.7501
 30
0.0
 40
0.48
 41
0.48
  0
SEQEND
 8
0
  0
POLYLINE
  8
0
 62
     0
 66
     1
 10
0
 20
0
 30
0.0
 40
1.36063
 41
1.36063
  0
VERTEX
  8
0
 10
245.394
 20
10.7501
 30
0.0
 40
0.48
 41
0.48
  0
VERTEX
  8
0
 10
245.394
 20
26.9971
 30
0.0
 40
0.48
 41
0.48
  0
SEQEND
 8
0
  0
POLYLINE
  8
0
 62
     0
 66
     1
 10
0
 20
0
 30
0.0
 40
1.36063
 41
1.36063
  0
VERTEX
  8
0
 10
245.394
 20
29.9972
 30
0.0
 40
0.48
 41
0.48
  0
VERTEX
  8
0
 10
245.394
 20
59.49
 30
0.0
 40
0.48
 41
0.48
  0
SEQEND
 8
0
  0
POLYLINE
  8
0
 62
     0
 66
     1
 10
0
 20
0
 30
0.0
 40
1.36063
 41
1.36063
  0
VERTEX
  8
0
 10
245.394
 20
62.49
 30
0.0
 40
0.48
 41
0.48
  0
VERTEX
  8
0
 10
245.394
 20
91.9826
 30
0.0
 40
0.48
 41
0.48
  0
SEQEND
 8
0
  0
POLYLINE
  8
0
 62
     0
 66
     1
 10
0
 20
0
 30
0.0
 40
1.36063
 41
1.36063
  0
VERTEX
  8
0
 10
245.394
 20
94.9826
 30
0.0
 40
0.48
 41
0.48
  0
VERTEX
  8
0
 10
245.394
 20
111.23
 30
0.0
 40
0.48
 41
0.48
  0
SEQEND
 8
0
  0
POLYLINE
  8
0
 62
     0
 66
     1
 10
0
 20
0
 30
0.0
 40
1.36063
 41
1.36063
  0
VERTEX
  8
0
 10
246.895
 20
108.23
 30
0.0
 40
0.48
 41
0.48
  0
VERTEX
  8
0
 10
246.895
 20
78.7368
 30
0.0
 40
0.48
 41
0.48
  0
SEQEND
 8
0
  0
POLYLINE
  8
0
 62
     0
 66
     1
 10
0
 20
0
 30
0.0
 40
1.36063
 41
1.36063
  0
VERTEX
  8
0
 10
246.895
 20
75.7372
 30
0.0
 40
0.48
 41
0.48
  0
VERTEX
  8
0
 10
246.895
 20
46.2428
 30
0.0
 40
0.48
 41
0.48
  0
SEQEND
 8
0
  0
POLYLINE
  8
0
 62
     0
 66
     1
 10
0
 20
0
 30
0.0
 40
1.36063
 41
1.36063
  0
VERTEX
  8
0
 10
246.895
 20
43.2428
 30
0.0
 40
0.48
 41
0.48
  0
VERTEX
  8
0
 10
246.895
 20
13.7501
 30
0.0
 40
0.48
 41
0.48
  0
SEQEND
 8
0
  0
POLYLINE
  8
0
 62
     0
 66
     1
 10
0
 20
0
 30
0.0
 40
1.36063
 41
1.36063
  0
VERTEX
  8
0
 10
314.958
 20
10.7501
 30
0.0
 40
0.48
 41
0.48
  0
VERTEX
  8
0
 10
314.958
 20
26.9971
 30
0.0
 40
0.48
 41
0.48
  0
SEQEND
 8
0
  0
POLYLINE
  8
0
 62
     0
 66
     1
 10
0
 20
0
 30
0.0
 40
1.36063
 41
1.36063
  0
VERTEX
  8
0
 10
314.958
 20
29.9972
 30
0.0
 40
0.48
 41
0.48
  0
VERTEX
  8
0
 10
314.958
 20
59.49
 30
0.0
 40
0.48
 41
0.48
  0
SEQEND
 8
0
  0
POLYLINE
  8
0
 62
     0
 66
     1
 10
0
 20
0
 30
0.0
 40
1.36063
 41
1.36063
  0
VERTEX
  8
0
 10
314.958
 20
62.49
 30
0.0
 40
0.48
 41
0.48
  0
VERTEX
  8
0
 10
314.958
 20
91.9826
 30
0.0
 40
0.48
 41
0.48
  0
SEQEND
 8
0
  0
POLYLINE
  8
0
 62
     0
 66
     1
 10
0
 20
0
 30
0.0
 40
1.36063
 41
1.36063
  0
VERTEX
  8
0
 10
314.958
 20
94.9826
 30
0.0
 40
0.48
 41
0.48
  0
VERTEX
  8
0
 10
314.958
 20
111.23
 30
0.0
 40
0.48
 41
0.48
  0
SEQEND
 8
0
  0
POLYLINE
  8
0
 62
     0
 66
     1
 10
0
 20
0
 30
0.0
 40
1.36063
 41
1.36063
  0
VERTEX
  8
0
 10
316.457
 20
108.23
 30
0.0
 40
0.48
 41
0.48
  0
VERTEX
  8
0
 10
316.457
 20
78.7368
 30
0.0
 40
0.48
 41
0.48
  0
SEQEND
 8
0
  0
POLYLINE
  8
0
 62
     0
 66
     1
 10
0
 20
0
 30
0.0
 40
1.36063
 41
1.36063
  0
VERTEX
  8
0
 10
316.457
 20
75.7372
 30
0.0
 40
0.48
 41
0.48
  0
VERTEX
  8
0
 10
316.457
 20
46.2428
 30
0.0
 40
0.48
 41
0.48
  0
SEQEND
 8
0
  0
POLYLINE
  8
0
 62
     0
 66
     1
 10
0
 20
0
 30
0.0
 40
1.36063
 41
1.36063
  0
VERTEX
  8
0
 10
316.457
 20
43.2428
 30
0.0
 40
0.48
 41
0.48
  0
VERTEX
  8
0
 10
316.457
 20
13.7501
 30
0.0
 40
0.48
 41
0.48
  0
SEQEND
 8
0
  0
POLYLINE
  8
0
 62
     0
 66
     1
 10
0
 20
0
 30
0.0
 40
1.36063
 41
1.36063
  0
VERTEX
  8
0
 10
317.958
 20
10.7501
 30
0.0
 40
0.48
 41
0.48
  0
VERTEX
  8
0
 10
317.958
 20
26.9971
 30
0.0
 40
0.48
 41
0.48
  0
SEQEND
 8
0
  0
POLYLINE
  8
0
 62
     0
 66
     1
 10
0
 20
0
 30
0.0
 40
1.36063
 41
1.36063
  0
VERTEX
  8
0
 10
317.958
 20
29.9972
 30
0.0
 40
0.48
 41
0.48
  0
VERTEX
  8
0
 10
317.958
 20
59.49
 30
0.0
 40
0.48
 41
0.48
  0
SEQEND
 8
0
  0
POLYLINE
  8
0
 62
     0
 66
     1
 10
0
 20
0
 30
0.0
 40
1.36063
 41
1.36063
  0
VERTEX
  8
0
 10
317.958
 20
62.49
 30
0.0
 40
0.48
 41
0.48
  0
VERTEX
  8
0
 10
317.958
 20
91.9826
 30
0.0
 40
0.48
 41
0.48
  0
SEQEND
 8
0
  0
POLYLINE
  8
0
 62
     0
 66
     1
 10
0
 20
0
 30
0.0
 40
1.36063
 41
1.36063
  0
VERTEX
  8
0
 10
317.958
 20
94.9826
 30
0.0
 40
0.48
 41
0.48
  0
VERTEX
  8
0
 10
317.958
 20
111.23
 30
0.0
 40
0.48
 41
0.48
  0
SEQEND
 8
0
  0
POLYLINE
  8
0
 62
     0
 66
     1
 10
0
 20
0
 30
0.0
 40
1.36063
 41
1.36063
  0
VERTEX
  8
0
 10
319.457
 20
108.23
 30
0.0
 40
0.48
 41
0.48
  0
VERTEX
  8
0
 10
319.457
 20
78.7368
 30
0.0
 40
0.48
 41
0.48
  0
SEQEND
 8
0
  0
POLYLINE
  8
0
 62
     0
 66
     1
 10
0
 20
0
 30
0.0
 40
1.36063
 41
1.36063
  0
VERTEX
  8
0
 10
319.457
 20
75.7372
 30
0.0
 40
0.48
 41
0.48
  0
VERTEX
  8
0
 10
319.457
 20
46.2428
 30
0.0
 40
0.48
 41
0.48
  0
SEQEND
 8
0
  0
POLYLINE
  8
0
 62
     0
 66
     1
 10
0
 20
0
 30
0.0
 40
1.36063
 41
1.36063
  0
VERTEX
  8
0
 10
319.457
 20
43.2428
 30
0.0
 40
0.48
 41
0.48
  0
VERTEX
  8
0
 10
319.457
 20
13.7501
 30
0.0
 40
0.48
 41
0.48
  0
SEQEND
 8
0
  0
POLYLINE
  8
0
 62
     0
 66
     1
 10
0
 20
0
 30
0.0
 40
1.36063
 41
1.36063
  0
VERTEX
  8
0
 10
320.958
 20
10.7501
 30
0.0
 40
0.48
 41
0.48
  0
VERTEX
  8
0
 10
320.958
 20
26.9971
 30
0.0
 40
0.48
 41
0.48
  0
SEQEND
 8
0
  0
POLYLINE
  8
0
 62
     0
 66
     1
 10
0
 20
0
 30
0.0
 40
1.36063
 41
1.36063
  0
VERTEX
  8
0
 10
320.958
 20
29.9972
 30
0.0
 40
0.48
 41
0.48
  0
VERTEX
  8
0
 10
320.958
 20
59.49
 30
0.0
 40
0.48
 41
0.48
  0
SEQEND
 8
0
  0
POLYLINE
  8
0
 62
     0
 66
     1
 10
0
 20
0
 30
0.0
 40
1.36063
 41
1.36063
  0
VERTEX
  8
0
 10
320.958
 20
62.49
 30
0.0
 40
0.48
 41
0.48
  0
VERTEX
  8
0
 10
320.958
 20
91.9826
 30
0.0
 40
0.48
 41
0.48
  0
SEQEND
 8
0
  0
POLYLINE
  8
0
 62
     0
 66
     1
 10
0
 20
0
 30
0.0
 40
1.36063
 41
1.36063
  0
VERTEX
  8
0
 10
320.958
 20
94.9826
 30
0.0
 40
0.48
 41
0.48
  0
VERTEX
  8
0
 10
320.958
 20
111.23
 30
0.0
 40
0.48
 41
0.48
  0
SEQEND
 8
0
  0
POLYLINE
  8
0
 62
     0
 66
     1
 10
0
 20
0
 30
0.0
 40
1.36063
 41
1.36063
  0
VERTEX
  8
0
 10
322.457
 20
108.23
 30
0.0
 40
0.48
 41
0.48
  0
VERTEX
  8
0
 10
322.457
 20
78.7368
 30
0.0
 40
0.48
 41
0.48
  0
SEQEND
 8
0
  0
POLYLINE
  8
0
 62
     0
 66
     1
 10
0
 20
0
 30
0.0
 40
1.36063
 41
1.36063
  0
VERTEX
  8
0
 10
322.457
 20
75.7372
 30
0.0
 40
0.48
 41
0.48
  0
VERTEX
  8
0
 10
322.457
 20
46.2428
 30
0.0
 40
0.48
 41
0.48
  0
SEQEND
 8
0
  0
POLYLINE
  8
0
 62
     0
 66
     1
 10
0
 20
0
 30
0.0
 40
1.36063
 41
1.36063
  0
VERTEX
  8
0
 10
322.457
 20
43.2428
 30
0.0
 40
0.48
 41
0.48
  0
VERTEX
  8
0
 10
322.457
 20
13.7501
 30
0.0
 40
0.48
 41
0.48
  0
SEQEND
 8
0
  0
POLYLINE
  8
0
 62
     0
 66
     1
 10
0
 20
0
 30
0.0
 40
1.36063
 41
1.36063
  0
VERTEX
  8
0
 10
323.958
 20
10.7501
 30
0.0
 40
0.48
 41
0.48
  0
VERTEX
  8
0
 10
323.958
 20
26.9971
 30
0.0
 40
0.48
 41
0.48
  0
SEQEND
 8
0
  0
POLYLINE
  8
0
 62
     0
 66
     1
 10
0
 20
0
 30
0.0
 40
1.36063
 41
1.36063
  0
VERTEX
  8
0
 10
323.958
 20
29.9972
 30
0.0
 40
0.48
 41
0.48
  0
VERTEX
  8
0
 10
323.958
 20
59.49
 30
0.0
 40
0.48
 41
0.48
  0
SEQEND
 8
0
  0
POLYLINE
  8
0
 62
     0
 66
     1
 10
0
 20
0
 30
0.0
 40
1.36063
 41
1.36063
  0
VERTEX
  8
0
 10
323.958
 20
62.49
 30
0.0
 40
0.48
 41
0.48
  0
VERTEX
  8
0
 10
323.958
 20
91.9826
 30
0.0
 40
0.48
 41
0.48
  0
SEQEND
 8
0
  0
POLYLINE
  8
0
 62
     0
 66
     1
 10
0
 20
0
 30
0.0
 40
1.36063
 41
1.36063
  0
VERTEX
  8
0
 10
323.958
 20
94.9826
 30
0.0
 40
0.48
 41
0.48
  0
VERTEX
  8
0
 10
323.958
 20
111.23
 30
0.0
 40
0.48
 41
0.48
  0
SEQEND
 8
0
  0
POLYLINE
  8
0
 62
     0
 66
     1
 10
0
 20
0
 30
0.0
 40
1.36063
 41
1.36063
  0
VERTEX
  8
0
 10
325.457
 20
108.23
 30
0.0
 40
0.48
 41
0.48
  0
VERTEX
  8
0
 10
325.457
 20
78.7368
 30
0.0
 40
0.48
 41
0.48
  0
SEQEND
 8
0
  0
POLYLINE
  8
0
 62
     0
 66
     1
 10
0
 20
0
 30
0.0
 40
1.36063
 41
1.36063
  0
VERTEX
  8
0
 10
325.457
 20
75.7372
 30
0.0
 40
0.48
 41
0.48
  0
VERTEX
  8
0
 10
325.457
 20
46.2428
 30
0.0
 40
0.48
 41
0.48
  0
SEQEND
 8
0
  0
POLYLINE
  8
0
 62
     0
 66
     1
 10
0
 20
0
 30
0.0
 40
1.36063
 41
1.36063
  0
VERTEX
  8
0
 10
325.457
 20
43.2428
 30
0.0
 40
0.48
 41
0.48
  0
VERTEX
  8
0
 10
325.457
 20
13.7501
 30
0.0
 40
0.48
 41
0.48
  0
SEQEND
 8
0
  0
POLYLINE
  8
0
 62
     0
 66
     1
 10
0
 20
0
 30
0.0
 40
1.36063
 41
1.36063
  0
VERTEX
  8
0
 10
326.958
 20
10.7501
 30
0.0
 40
0.48
 41
0.48
  0
VERTEX
  8
0
 10
326.958
 20
26.9971
 30
0.0
 40
0.48
 41
0.48
  0
SEQEND
 8
0
  0
POLYLINE
  8
0
 62
     0
 66
     1
 10
0
 20
0
 30
0.0
 40
1.36063
 41
1.36063
  0
VERTEX
  8
0
 10
326.958
 20
29.9972
 30
0.0
 40
0.48
 41
0.48
  0
VERTEX
  8
0
 10
326.958
 20
59.49
 30
0.0
 40
0.48
 41
0.48
  0
SEQEND
 8
0
  0
POLYLINE
  8
0
 62
     0
 66
     1
 10
0
 20
0
 30
0.0
 40
1.36063
 41
1.36063
  0
VERTEX
  8
0
 10
326.958
 20
62.49
 30
0.0
 40
0.48
 41
0.48
  0
VERTEX
  8
0
 10
326.958
 20
91.9826
 30
0.0
 40
0.48
 41
0.48
  0
SEQEND
 8
0
  0
POLYLINE
  8
0
 62
     0
 66
     1
 10
0
 20
0
 30
0.0
 40
1.36063
 41
1.36063
  0
VERTEX
  8
0
 10
326.958
 20
94.9826
 30
0.0
 40
0.48
 41
0.48
  0
VERTEX
  8
0
 10
326.958
 20
111.23
 30
0.0
 40
0.48
 41
0.48
  0
SEQEND
 8
0
  0
POLYLINE
  8
0
 62
     0
 66
     1
 10
0
 20
0
 30
0.0
 40
1.36063
 41
1.36063
  0
VERTEX
  8
0
 10
328.457
 20
108.23
 30
0.0
 40
0.48
 41
0.48
  0
VERTEX
  8
0
 10
328.457
 20
78.7368
 30
0.0
 40
0.48
 41
0.48
  0
SEQEND
 8
0
  0
POLYLINE
  8
0
 62
     0
 66
     1
 10
0
 20
0
 30
0.0
 40
1.36063
 41
1.36063
  0
VERTEX
  8
0
 10
328.457
 20
75.7372
 30
0.0
 40
0.48
 41
0.48
  0
VERTEX
  8
0
 10
328.457
 20
46.2428
 30
0.0
 40
0.48
 41
0.48
  0
SEQEND
 8
0
  0
POLYLINE
  8
0
 62
     0
 66
     1
 10
0
 20
0
 30
0.0
 40
1.36063
 41
1.36063
  0
VERTEX
  8
0
 10
328.457
 20
43.2428
 30
0.0
 40
0.48
 41
0.48
  0
VERTEX
  8
0
 10
328.457
 20
13.7501
 30
0.0
 40
0.48
 41
0.48
  0
SEQEND
 8
0
  0
POLYLINE
  8
0
 62
     0
 66
     1
 10
0
 20
0
 30
0.0
 40
1.36063
 41
1.36063
  0
VERTEX
  8
0
 10
329.958
 20
10.7501
 30
0.0
 40
0.48
 41
0.48
  0
VERTEX
  8
0
 10
329.958
 20
26.9971
 30
0.0
 40
0.48
 41
0.48
  0
SEQEND
 8
0
  0
POLYLINE
  8
0
 62
     0
 66
     1
 10
0
 20
0
 30
0.0
 40
1.36063
 41
1.36063
  0
VERTEX
  8
0
 10
329.958
 20
29.9972
 30
0.0
 40
0.48
 41
0.48
  0
VERTEX
  8
0
 10
329.958
 20
59.49
 30
0.0
 40
0.48
 41
0.48
  0
SEQEND
 8
0
  0
POLYLINE
  8
0
 62
     0
 66
     1
 10
0
 20
0
 30
0.0
 40
1.36063
 41
1.36063
  0
VERTEX
  8
0
 10
329.958
 20
62.49
 30
0.0
 40
0.48
 41
0.48
  0
VERTEX
  8
0
 10
329.958
 20
91.9826
 30
0.0
 40
0.48
 41
0.48
  0
SEQEND
 8
0
  0
POLYLINE
  8
0
 62
     0
 66
     1
 10
0
 20
0
 30
0.0
 40
1.36063
 41
1.36063
  0
VERTEX
  8
0
 10
329.958
 20
94.9826
 30
0.0
 40
0.48
 41
0.48
  0
VERTEX
  8
0
 10
329.958
 20
111.23
 30
0.0
 40
0.48
 41
0.48
  0
SEQEND
 8
0
  0
POLYLINE
  8
0
 62
     0
 66
     1
 10
0
 20
0
 30
0.0
 40
1.36063
 41
1.36063
  0
VERTEX
  8
0
 10
331.457
 20
108.23
 30
0.0
 40
0.48
 41
0.48
  0
VERTEX
  8
0
 10
331.457
 20
78.7368
 30
0.0
 40
0.48
 41
0.48
  0
SEQEND
 8
0
  0
POLYLINE
  8
0
 62
     0
 66
     1
 10
0
 20
0
 30
0.0
 40
1.36063
 41
1.36063
  0
VERTEX
  8
0
 10
331.457
 20
75.7372
 30
0.0
 40
0.48
 41
0.48
  0
VERTEX
  8
0
 10
331.457
 20
46.2428
 30
0.0
 40
0.48
 41
0.48
  0
SEQEND
 8
0
  0
POLYLINE
  8
0
 62
     0
 66
     1
 10
0
 20
0
 30
0.0
 40
1.36063
 41
1.36063
  0
VERTEX
  8
0
 10
331.457
 20
43.2428
 30
0.0
 40
0.48
 41
0.48
  0
VERTEX
  8
0
 10
331.457
 20
13.7501
 30
0.0
 40
0.48
 41
0.48
  0
SEQEND
 8
0
  0
POLYLINE
  8
0
 62
     0
 66
     1
 10
0
 20
0
 30
0.0
 40
1.36063
 41
1.36063
  0
VERTEX
  8
0
 10
332.957
 20
10.7501
 30
0.0
 40
0.48
 41
0.48
  0
VERTEX
  8
0
 10
332.957
 20
26.9971
 30
0.0
 40
0.48
 41
0.48
  0
SEQEND
 8
0
  0
POLYLINE
  8
0
 62
     0
 66
     1
 10
0
 20
0
 30
0.0
 40
1.36063
 41
1.36063
  0
VERTEX
  8
0
 10
332.957
 20
29.9972
 30
0.0
 40
0.48
 41
0.48
  0
VERTEX
  8
0
 10
332.957
 20
59.49
 30
0.0
 40
0.48
 41
0.48
  0
SEQEND
 8
0
  0
POLYLINE
  8
0
 62
     0
 66
     1
 10
0
 20
0
 30
0.0
 40
1.36063
 41
1.36063
  0
VERTEX
  8
0
 10
332.957
 20
62.49
 30
0.0
 40
0.48
 41
0.48
  0
VERTEX
  8
0
 10
332.957
 20
91.9826
 30
0.0
 40
0.48
 41
0.48
  0
SEQEND
 8
0
  0
POLYLINE
  8
0
 62
     0
 66
     1
 10
0
 20
0
 30
0.0
 40
1.36063
 41
1.36063
  0
VERTEX
  8
0
 10
332.957
 20
94.9826
 30
0.0
 40
0.48
 41
0.48
  0
VERTEX
  8
0
 10
332.957
 20
111.23
 30
0.0
 40
0.48
 41
0.48
  0
SEQEND
 8
0
  0
POLYLINE
  8
0
 62
     0
 66
     1
 10
0
 20
0
 30
0.0
 40
1.36063
 41
1.36063
  0
VERTEX
  8
0
 10
334.457
 20
108.23
 30
0.0
 40
0.48
 41
0.48
  0
VERTEX
  8
0
 10
334.457
 20
78.7368
 30
0.0
 40
0.48
 41
0.48
  0
SEQEND
 8
0
  0
POLYLINE
  8
0
 62
     0
 66
     1
 10
0
 20
0
 30
0.0
 40
1.36063
 41
1.36063
  0
VERTEX
  8
0
 10
334.457
 20
75.7372
 30
0.0
 40
0.48
 41
0.48
  0
VERTEX
  8
0
 10
334.457
 20
46.2428
 30
0.0
 40
0.48
 41
0.48
  0
SEQEND
 8
0
  0
POLYLINE
  8
0
 62
     0
 66
     1
 10
0
 20
0
 30
0.0
 40
1.36063
 41
1.36063
  0
VERTEX
  8
0
 10
334.457
 20
43.2428
 30
0.0
 40
0.48
 41
0.48
  0
VERTEX
  8
0
 10
334.457
 20
13.7501
 30
0.0
 40
0.48
 41
0.48
  0
SEQEND
 8
0
  0
POLYLINE
  8
0
 62
     0
 66
     1
 10
0
 20
0
 30
0.0
 70
     1
 40
1.36063
 41
1.36063
  0
VERTEX
  8
0
 10
28.2401
 20
116.48
 30
0.0
 40
0.48
 41
0.48
  0
VERTEX
  8
0
 10
39.2395
 20
116.48
 30
0.0
 40
0.48
 41
0.48
  0
VERTEX
  8
0
 10
39.2162
 20
116.48
 30
0.0
 40
0.48
 41
0.48
  0
VERTEX
  8
0
 10
39.146
 20
116.499
 30
0.0
 40
0.48
 41
0.48
  0
VERTEX
  8
0
 10
39.0701
 20
116.55
 30
0.0
 40
0.48
 41
0.48
  0
VERTEX
  8
0
 10
39.0179
 20
116.628
 30
0.0
 40
0.48
 41
0.48
  0
VERTEX
  8
0
 10
38.9999
 20
116.698
 30
0.0
 40
0.48
 41
0.48
  0
VERTEX
  8
0
 10
38.9999
 20
116.72
 30
0.0
 40
0.48
 41
0.48
  0
VERTEX
  8
0
 10
38.9999
 20
113.72
 30
0.0
 40
0.48
 41
0.48
  0
VERTEX
  8
0
 10
38.9999
 20
113.698
 30
0.0
 40
0.48
 41
0.48
  0
VERTEX
  8
0
 10
39.0179
 20
113.628
 30
0.0
 40
0.48
 41
0.48
  0
VERTEX
  8
0
 10
39.0701
 20
113.55
 30
0.0
 40
0.48
 41
0.48
  0
VERTEX
  8
0
 10
39.146
 20
113.499
 30
0.0
 40
0.48
 41
0.48
  0
VERTEX
  8
0
 10
39.2162
 20
113.48
 30
0.0
 40
0.48
 41
0.48
  0
VERTEX
  8
0
 10
39.2395
 20
113.48
 30
0.0
 40
0.48
 41
0.48
  0
VERTEX
  8
0
 10
45.2395
 20
113.48
 30
0.0
 40
0.48
 41
0.48
  0
VERTEX
  8
0
 10
45.2617
 20
113.48
 30
0.0
 40
0.48
 41
0.48
  0
VERTEX
  8
0
 10
45.3319
 20
113.499
 30
0.0
 40
0.48
 41
0.48
  0
VERTEX
  8
0
 10
45.4092
 20
113.55
 30
0.0
 40
0.48
 41
0.48
  0
VERTEX
  8
0
 10
45.4614
 20
113.628
 30
0.0
 40
0.48
 41
0.48
  0
VERTEX
  8
0
 10
45.4808
 20
113.698
 30
0.0
 40
0.48
 41
0.48
  0
VERTEX
  8
0
 10
45.4808
 20
113.72
 30
0.0
 40
0.48
 41
0.48
  0
VERTEX
  8
0
 10
45.4808
 20
116.72
 30
0.0
 40
0.48
 41
0.48
  0
VERTEX
  8
0
 10
45.4808
 20
116.698
 30
0.0
 40
0.48
 41
0.48
  0
VERTEX
  8
0
 10
45.4614
 20
116.628
 30
0.0
 40
0.48
 41
0.48
  0
VERTEX
  8
0
 10
45.4092
 20
116.55
 30
0.0
 40
0.48
 41
0.48
  0
VERTEX
  8
0
 10
45.3319
 20
116.499
 30
0.0
 40
0.48
 41
0.48
  0
VERTEX
  8
0
 10
45.2617
 20
116.48
 30
0.0
 40
0.48
 41
0.48
  0
VERTEX
  8
0
 10
45.2395
 20
116.48
 30
0.0
 40
0.48
 41
0.48
  0
VERTEX
  8
0
 10
51.2396
 20
116.48
 30
0.0
 40
0.48
 41
0.48
  0
VERTEX
  8
0
 10
51.2163
 20
116.48
 30
0.0
 40
0.48
 41
0.48
  0
VERTEX
  8
0
 10
51.1457
 20
116.499
 30
0.0
 40
0.48
 41
0.48
  0
VERTEX
  8
0
 10
51.0702
 20
116.55
 30
0.0
 40
0.48
 41
0.48
  0
VERTEX
  8
0
 10
51.0177
 20
116.628
 30
0.0
 40
0.48
 41
0.48
  0
VERTEX
  8
0
 10
50.9997
 20
116.698
 30
0.0
 40
0.48
 41
0.48
  0
VERTEX
  8
0
 10
50.9997
 20
116.72
 30
0.0
 40
0.48
 41
0.48
  0
VERTEX
  8
0
 10
50.9997
 20
113.72
 30
0.0
 40
0.48
 41
0.48
  0
VERTEX
  8
0
 10
50.9997
 20
113.698
 30
0.0
 40
0.48
 41
0.48
  0
VERTEX
  8
0
 10
51.0177
 20
113.628
 30
0.0
 40
0.48
 41
0.48
  0
VERTEX
  8
0
 10
51.0702
 20
113.55
 30
0.0
 40
0.48
 41
0.48
  0
VERTEX
  8
0
 10
51.1457
 20
113.499
 30
0.0
 40
0.48
 41
0.48
  0
VERTEX
  8
0
 10
51.2163
 20
113.48
 30
0.0
 40
0.48
 41
0.48
  0
VERTEX
  8
0
 10
51.2396
 20
113.48
 30
0.0
 40
0.48
 41
0.48
  0
VERTEX
  8
0
 10
57.2396
 20
113.48
 30
0.0
 40
0.48
 41
0.48
  0
VERTEX
  8
0
 10
57.2629
 20
113.48
 30
0.0
 40
0.48
 41
0.48
  0
VERTEX
  8
0
 10
57.3334
 20
113.499
 30
0.0
 40
0.48
 41
0.48
  0
VERTEX
  8
0
 10
57.4089
 20
113.55
 30
0.0
 40
0.48
 41
0.48
  0
VERTEX
  8
0
 10
57.4601
 20
113.628
 30
0.0
 40
0.48
 41
0.48
  0
VERTEX
  8
0
 10
57.4795
 20
113.698
 30
0.0
 40
0.48
 41
0.48
  0
VERTEX
  8
0
 10
57.4795
 20
113.72
 30
0.0
 40
0.48
 41
0.48
  0
VERTEX
  8
0
 10
57.4795
 20
116.72
 30
0.0
 40
0.48
 41
0.48
  0
VERTEX
  8
0
 10
57.4795
 20
116.698
 30
0.0
 40
0.48
 41
0.48
  0
VERTEX
  8
0
 10
57.4601
 20
116.628
 30
0.0
 40
0.48
 41
0.48
  0
VERTEX
  8
0
 10
57.4089
 20
116.55
 30
0.0
 40
0.48
 41
0.48
  0
VERTEX
  8
0
 10
57.3334
 20
116.499
 30
0.0
 40
0.48
 41
0.48
  0
VERTEX
  8
0
 10
57.2629
 20
116.48
 30
0.0
 40
0.48
 41
0.48
  0
VERTEX
  8
0
 10
57.2396
 20
116.48
 30
0.0
 40
0.48
 41
0.48
  0
VERTEX
  8
0
 10
63.2396
 20
116.48
 30
0.0
 40
0.48
 41
0.48
  0
VERTEX
  8
0
 10
63.216
 20
116.48
 30
0.0
 40
0.48
 41
0.48
  0
VERTEX
  8
0
 10
63.1458
 20
116.499
 30
0.0
 40
0.48
 41
0.48
  0
VERTEX
  8
0
 10
63.07
 20
116.55
 30
0.0
 40
0.48
 41
0.48
  0
VERTEX
  8
0
 10
63.0178
 20
116.628
 30
0.0
 40
0.48
 41
0.48
  0
VERTEX
  8
0
 10
62.9998
 20
116.698
 30
0.0
 40
0.48
 41
0.48
  0
VERTEX
  8
0
 10
62.9998
 20
116.72
 30
0.0
 40
0.48
 41
0.48
  0
VERTEX
  8
0
 10
62.9998
 20
113.72
 30
0.0
 40
0.48
 41
0.48
  0
VERTEX
  8
0
 10
62.9998
 20
113.698
 30
0.0
 40
0.48
 41
0.48
  0
VERTEX
  8
0
 10
63.0178
 20
113.628
 30
0.0
 40
0.48
 41
0.48
  0
VERTEX
  8
0
 10
63.07
 20
113.55
 30
0.0
 40
0.48
 41
0.48
  0
VERTEX
  8
0
 10
63.1458
 20
113.499
 30
0.0
 40
0.48
 41
0.48
  0
VERTEX
  8
0
 10
63.216
 20
113.48
 30
0.0
 40
0.48
 41
0.48
  0
VERTEX
  8
0
 10
63.2396
 20
113.48
 30
0.0
 40
0.48
 41
0.48
  0
VERTEX
  8
0
 10
69.2397
 20
113.48
 30
0.0
 40
0.48
 41
0.48
  0
VERTEX
  8
0
 10
69.263
 20
113.48
 30
0.0
 40
0.48
 41
0.48
  0
VERTEX
  8
0
 10
69.3332
 20
113.499
 30
0.0
 40
0.48
 41
0.48
  0
VERTEX
  8
0
 10
69.409
 20
113.55
 30
0.0
 40
0.48
 41
0.48
  0
VERTEX
  8
0
 10
69.4602
 20
113.628
 30
0.0
 40
0.48
 41
0.48
  0
VERTEX
  8
0
 10
69.4792
 20
113.698
 30
0.0
 40
0.48
 41
0.48
  0
VERTEX
  8
0
 10
69.4792
 20
113.72
 30
0.0
 40
0.48
 41
0.48
  0
VERTEX
  8
0
 10
69.4792
 20
116.72
 30
0.0
 40
0.48
 41
0.48
  0
VERTEX
  8
0
 10
69.4792
 20
116.698
 30
0.0
 40
0.48
 41
0.48
  0
VERTEX
  8
0
 10
69.4602
 20
116.628
 30
0.0
 40
0.48
 41
0.48
  0
VERTEX
  8
0
 10
69.409
 20
116.55
 30
0.0
 40
0.48
 41
0.48
  0
VERTEX
  8
0
 10
69.3332
 20
116.499
 30
0.0
 40
0.48
 41
0.48
  0
VERTEX
  8
0
 10
69.263
 20
116.48
 30
0.0
 40
0.48
 41
0.48
  0
VERTEX
  8
0
 10
69.2397
 20
116.48
 30
0.0
 40
0.48
 41
0.48
  0
VERTEX
  8
0
 10
75.2394
 20
116.48
 30
0.0
 40
0.48
 41
0.48
  0
VERTEX
  8
0
 10
75.2161
 20
116.48
 30
0.0
 40
0.48
 41
0.48
  0
VERTEX
  8
0
 10
75.1459
 20
116.499
 30
0.0
 40
0.48
 41
0.48
  0
VERTEX
  8
0
 10
75.0701
 20
116.55
 30
0.0
 40
0.48
 41
0.48
  0
VERTEX
  8
0
 10
75.0175
 20
116.628
 30
0.0
 40
0.48
 41
0.48
  0
VERTEX
  8
0
 10
74.9999
 20
116.698
 30
0.0
 40
0.48
 41
0.48
  0
VERTEX
  8
0
 10
74.9999
 20
116.72
 30
0.0
 40
0.48
 41
0.48
  0
VERTEX
  8
0
 10
74.9999
 20
113.72
 30
0.0
 40
0.48
 41
0.48
  0
VERTEX
  8
0
 10
74.9999
 20
113.698
 30
0.0
 40
0.48
 41
0.48
  0
VERTEX
  8
0
 10
75.0175
 20
113.628
 30
0.0
 40
0.48
 41
0.48
  0
VERTEX
  8
0
 10
75.0701
 20
113.55
 30
0.0
 40
0.48
 41
0.48
  0
VERTEX
  8
0
 10
75.1459
 20
113.499
 30
0.0
 40
0.48
 41
0.48
  0
VERTEX
  8
0
 10
75.2161
 20
113.48
 30
0.0
 40
0.48
 41
0.48
  0
VERTEX
  8
0
 10
75.2394
 20
113.48
 30
0.0
 40
0.48
 41
0.48
  0
VERTEX
  8
0
 10
81.2394
 20
113.48
 30
0.0
 40
0.48
 41
0.48
  0
VERTEX
  8
0
 10
81.2617
 20
113.48
 30
0.0
 40
0.48
 41
0.48
  0
VERTEX
  8
0
 10
81.3319
 20
113.499
 30
0.0
 40
0.48
 41
0.48
  0
VERTEX
  8
0
 10
81.4091
 20
113.55
 30
0.0
 40
0.48
 41
0.48
  0
VERTEX
  8
0
 10
81.4613
 20
113.628
 30
0.0
 40
0.48
 41
0.48
  0
VERTEX
  8
0
 10
81.4807
 20
113.698
 30
0.0
 40
0.48
 41
0.48
  0
VERTEX
  8
0
 10
81.4807
 20
113.72
 30
0.0
 40
0.48
 41
0.48
  0
VERTEX
  8
0
 10
81.4807
 20
116.72
 30
0.0
 40
0.48
 41
0.48
  0
VERTEX
  8
0
 10
81.4807
 20
116.698
 30
0.0
 40
0.48
 41
0.48
  0
VERTEX
  8
0
 10
81.4613
 20
116.628
 30
0.0
 40
0.48
 41
0.48
  0
VERTEX
  8
0
 10
81.4091
 20
116.55
 30
0.0
 40
0.48
 41
0.48
  0
VERTEX
  8
0
 10
81.3319
 20
116.499
 30
0.0
 40
0.48
 41
0.48
  0
VERTEX
  8
0
 10
81.2617
 20
116.48
 30
0.0
 40
0.48
 41
0.48
  0
VERTEX
  8
0
 10
81.2394
 20
116.48
 30
0.0
 40
0.48
 41
0.48
  0
VERTEX
  8
0
 10
92.2405
 20
116.48
 30
0.0
 40
0.48
 41
0.48
  0
VERTEX
  8
0
 10
92.7379
 20
116.48
 30
0.0
 40
0.48
 41
0.48
  0
VERTEX
  8
0
 10
94.2329
 20
116.612
 30
0.0
 40
0.48
 41
0.48
  0
VERTEX
  8
0
 10
96.1842
 20
116.999
 30
0.0
 40
0.48
 41
0.48
  0
VERTEX
  8
0
 10
98.0666
 20
117.639
 30
0.0
 40
0.48
 41
0.48
  0
VERTEX
  8
0
 10
99.4269
 20
118.274
 30
0.0
 40
0.48
 41
0.48
  0
VERTEX
  8
0
 10
99.8594
 20
118.522
 30
0.0
 40
0.48
 41
0.48
  0
VERTEX
  8
0
 10
100.076
 20
118.648
 30
0.0
 40
0.48
 41
0.48
  0
VERTEX
  8
0
 10
100.71
 20
119.052
 30
0.0
 40
0.48
 41
0.48
  0
VERTEX
  8
0
 10
101.52
 20
119.633
 30
0.0
 40
0.48
 41
0.48
  0
VERTEX
  8
0
 10
102.29
 20
120.264
 30
0.0
 40
0.48
 41
0.48
  0
VERTEX
  8
0
 10
103.017
 20
120.944
 30
0.0
 40
0.48
 41
0.48
  0
VERTEX
  8
0
 10
103.696
 20
121.67
 30
0.0
 40
0.48
 41
0.48
  0
VERTEX
  8
0
 10
104.327
 20
122.44
 30
0.0
 40
0.48
 41
0.48
  0
VERTEX
  8
0
 10
104.909
 20
123.25
 30
0.0
 40
0.48
 41
0.48
  0
VERTEX
  8
0
 10
105.312
 20
123.884
 30
0.0
 40
0.48
 41
0.48
  0
VERTEX
  8
0
 10
105.438
 20
124.101
 30
0.0
 40
0.48
 41
0.48
  0
VERTEX
  8
0
 10
105.686
 20
124.533
 30
0.0
 40
0.48
 41
0.48
  0
VERTEX
  8
0
 10
106.321
 20
125.893
 30
0.0
 40
0.48
 41
0.48
  0
VERTEX
  8
0
 10
106.96
 20
127.776
 30
0.0
 40
0.48
 41
0.48
  0
VERTEX
  8
0
 10
107.348
 20
129.727
 30
0.0
 40
0.48
 41
0.48
  0
VERTEX
  8
0
 10
107.48
 20
131.222
 30
0.0
 40
0.48
 41
0.48
  0
VERTEX
  8
0
 10
107.48
 20
131.72
 30
0.0
 40
0.48
 41
0.48
  0
VERTEX
  8
0
 10
107.48
 20
142.721
 30
0.0
 40
0.48
 41
0.48
  0
VERTEX
  8
0
 10
107.48
 20
142.697
 30
0.0
 40
0.48
 41
0.48
  0
VERTEX
  8
0
 10
107.461
 20
142.627
 30
0.0
 40
0.48
 41
0.48
  0
VERTEX
  8
0
 10
107.41
 20
142.551
 30
0.0
 40
0.48
 41
0.48
  0
VERTEX
  8
0
 10
107.333
 20
142.499
 30
0.0
 40
0.48
 41
0.48
  0
VERTEX
  8
0
 10
107.262
 20
142.48
 30
0.0
 40
0.48
 41
0.48
  0
VERTEX
  8
0
 10
107.24
 20
142.48
 30
0.0
 40
0.48
 41
0.48
  0
VERTEX
  8
0
 10
110.24
 20
142.48
 30
0.0
 40
0.48
 41
0.48
  0
VERTEX
  8
0
 10
110.262
 20
142.48
 30
0.0
 40
0.48
 41
0.48
  0
VERTEX
  8
0
 10
110.333
 20
142.499
 30
0.0
 40
0.48
 41
0.48
  0
VERTEX
  8
0
 10
110.41
 20
142.551
 30
0.0
 40
0.48
 41
0.48
  0
VERTEX
  8
0
 10
110.461
 20
142.627
 30
0.0
 40
0.48
 41
0.48
  0
VERTEX
  8
0
 10
110.48
 20
142.697
 30
0.0
 40
0.48
 41
0.48
  0
VERTEX
  8
0
 10
110.48
 20
142.721
 30
0.0
 40
0.48
 41
0.48
  0
VERTEX
  8
0
 10
110.48
 20
148.721
 30
0.0
 40
0.48
 41
0.48
  0
VERTEX
  8
0
 10
110.48
 20
148.744
 30
0.0
 40
0.48
 41
0.48
  0
VERTEX
  8
0
 10
110.461
 20
148.814
 30
0.0
 40
0.48
 41
0.48
  0
VERTEX
  8
0
 10
110.41
 20
148.89
 30
0.0
 40
0.48
 41
0.48
  0
VERTEX
  8
0
 10
110.333
 20
148.942
 30
0.0
 40
0.48
 41
0.48
  0
VERTEX
  8
0
 10
110.262
 20
148.96
 30
0.0
 40
0.48
 41
0.48
  0
VERTEX
  8
0
 10
110.24
 20
148.96
 30
0.0
 40
0.48
 41
0.48
  0
VERTEX
  8
0
 10
107.24
 20
148.96
 30
0.0
 40
0.48
 41
0.48
  0
VERTEX
  8
0
 10
107.262
 20
148.96
 30
0.0
 40
0.48
 41
0.48
  0
VERTEX
  8
0
 10
107.333
 20
148.942
 30
0.0
 40
0.48
 41
0.48
  0
VERTEX
  8
0
 10
107.41
 20
148.89
 30
0.0
 40
0.48
 41
0.48
  0
VERTEX
  8
0
 10
107.461
 20
148.814
 30
0.0
 40
0.48
 41
0.48
  0
VERTEX
  8
0
 10
107.48
 20
148.744
 30
0.0
 40
0.48
 41
0.48
  0
VERTEX
  8
0
 10
107.48
 20
148.721
 30
0.0
 40
0.48
 41
0.48
  0
VERTEX
  8
0
 10
107.48
 20
154.719
 30
0.0
 40
0.48
 41
0.48
  0
VERTEX
  8
0
 10
107.48
 20
154.697
 30
0.0
 40
0.48
 41
0.48
  0
VERTEX
  8
0
 10
107.461
 20
154.627
 30
0.0
 40
0.48
 41
0.48
  0
VERTEX
  8
0
 10
107.41
 20
154.55
 30
0.0
 40
0.48
 41
0.48
  0
VERTEX
  8
0
 10
107.333
 20
154.499
 30
0.0
 40
0.48
 41
0.48
  0
VERTEX
  8
0
 10
107.262
 20
154.48
 30
0.0
 40
0.48
 41
0.48
  0
VERTEX
  8
0
 10
107.24
 20
154.48
 30
0.0
 40
0.48
 41
0.48
  0
VERTEX
  8
0
 10
110.24
 20
154.48
 30
0.0
 40
0.48
 41
0.48
  0
VERTEX
  8
0
 10
110.262
 20
154.48
 30
0.0
 40
0.48
 41
0.48
  0
VERTEX
  8
0
 10
110.333
 20
154.499
 30
0.0
 40
0.48
 41
0.48
  0
VERTEX
  8
0
 10
110.41
 20
154.55
 30
0.0
 40
0.48
 41
0.48
  0
VERTEX
  8
0
 10
110.461
 20
154.627
 30
0.0
 40
0.48
 41
0.48
  0
VERTEX
  8
0
 10
110.48
 20
154.697
 30
0.0
 40
0.48
 41
0.48
  0
VERTEX
  8
0
 10
110.48
 20
154.719
 30
0.0
 40
0.48
 41
0.48
  0
VERTEX
  8
0
 10
110.48
 20
160.721
 30
0.0
 40
0.48
 41
0.48
  0
VERTEX
  8
0
 10
110.48
 20
160.744
 30
0.0
 40
0.48
 41
0.48
  0
VERTEX
  8
0
 10
110.461
 20
160.814
 30
0.0
 40
0.48
 41
0.48
  0
VERTEX
  8
0
 10
110.41
 20
160.89
 30
0.0
 40
0.48
 41
0.48
  0
VERTEX
  8
0
 10
110.333
 20
160.943
 30
0.0
 40
0.48
 41
0.48
  0
VERTEX
  8
0
 10
110.262
 20
160.961
 30
0.0
 40
0.48
 41
0.48
  0
VERTEX
  8
0
 10
110.24
 20
160.961
 30
0.0
 40
0.48
 41
0.48
  0
VERTEX
  8
0
 10
107.24
 20
160.961
 30
0.0
 40
0.48
 41
0.48
  0
VERTEX
  8
0
 10
107.262
 20
160.961
 30
0.0
 40
0.48
 41
0.48
  0
VERTEX
  8
0
 10
107.333
 20
160.943
 30
0.0
 40
0.48
 41
0.48
  0
VERTEX
  8
0
 10
107.41
 20
160.89
 30
0.0
 40
0.48
 41
0.48
  0
VERTEX
  8
0
 10
107.461
 20
160.814
 30
0.0
 40
0.48
 41
0.48
  0
VERTEX
  8
0
 10
107.48
 20
160.744
 30
0.0
 40
0.48
 41
0.48
  0
VERTEX
  8
0
 10
107.48
 20
160.721
 30
0.0
 40
0.48
 41
0.48
  0
VERTEX
  8
0
 10
107.48
 20
166.721
 30
0.0
 40
0.48
 41
0.48
  0
VERTEX
  8
0
 10
107.48
 20
166.697
 30
0.0
 40
0.48
 41
0.48
  0
VERTEX
  8
0
 10
107.461
 20
166.627
 30
0.0
 40
0.48
 41
0.48
  0
VERTEX
  8
0
 10
107.41
 20
166.551
 30
0.0
 40
0.48
 41
0.48
  0
VERTEX
  8
0
 10
107.333
 20
166.499
 30
0.0
 40
0.48
 41
0.48
  0
VERTEX
  8
0
 10
107.262
 20
166.479
 30
0.0
 40
0.48
 41
0.48
  0
VERTEX
  8
0
 10
107.24
 20
166.479
 30
0.0
 40
0.48
 41
0.48
  0
VERTEX
  8
0
 10
110.24
 20
166.479
 30
0.0
 40
0.48
 41
0.48
  0
VERTEX
  8
0
 10
110.262
 20
166.479
 30
0.0
 40
0.48
 41
0.48
  0
VERTEX
  8
0
 10
110.333
 20
166.499
 30
0.0
 40
0.48
 41
0.48
  0
VERTEX
  8
0
 10
110.41
 20
166.551
 30
0.0
 40
0.48
 41
0.48
  0
VERTEX
  8
0
 10
110.461
 20
166.627
 30
0.0
 40
0.48
 41
0.48
  0
VERTEX
  8
0
 10
110.48
 20
166.697
 30
0.0
 40
0.48
 41
0.48
  0
VERTEX
  8
0
 10
110.48
 20
166.721
 30
0.0
 40
0.48
 41
0.48
  0
VERTEX
  8
0
 10
110.48
 20
172.721
 30
0.0
 40
0.48
 41
0.48
  0
VERTEX
  8
0
 10
110.48
 20
172.744
 30
0.0
 40
0.48
 41
0.48
  0
VERTEX
  8
0
 10
110.461
 20
172.814
 30
0.0
 40
0.48
 41
0.48
  0
VERTEX
  8
0
 10
110.41
 20
172.89
 30
0.0
 40
0.48
 41
0.48
  0
VERTEX
  8
0
 10
110.333
 20
172.942
 30
0.0
 40
0.48
 41
0.48
  0
VERTEX
  8
0
 10
110.262
 20
172.96
 30
0.0
 40
0.48
 41
0.48
  0
VERTEX
  8
0
 10
110.24
 20
172.96
 30
0.0
 40
0.48
 41
0.48
  0
VERTEX
  8
0
 10
107.24
 20
172.96
 30
0.0
 40
0.48
 41
0.48
  0
VERTEX
  8
0
 10
107.262
 20
172.96
 30
0.0
 40
0.48
 41
0.48
  0
VERTEX
  8
0
 10
107.333
 20
172.942
 30
0.0
 40
0.48
 41
0.48
  0
VERTEX
  8
0
 10
107.41
 20
172.89
 30
0.0
 40
0.48
 41
0.48
  0
VERTEX
  8
0
 10
107.461
 20
172.814
 30
0.0
 40
0.48
 41
0.48
  0
VERTEX
  8
0
 10
107.48
 20
172.744
 30
0.0
 40
0.48
 41
0.48
  0
VERTEX
  8
0
 10
107.48
 20
172.721
 30
0.0
 40
0.48
 41
0.48
  0
VERTEX
  8
0
 10
107.48
 20
178.72
 30
0.0
 40
0.48
 41
0.48
  0
VERTEX
  8
0
 10
107.48
 20
178.697
 30
0.0
 40
0.48
 41
0.48
  0
VERTEX
  8
0
 10
107.461
 20
178.627
 30
0.0
 40
0.48
 41
0.48
  0
VERTEX
  8
0
 10
107.41
 20
178.551
 30
0.0
 40
0.48
 41
0.48
  0
VERTEX
  8
0
 10
107.333
 20
178.5
 30
0.0
 40
0.48
 41
0.48
  0
VERTEX
  8
0
 10
107.262
 20
178.481
 30
0.0
 40
0.48
 41
0.48
  0
VERTEX
  8
0
 10
107.24
 20
178.481
 30
0.0
 40
0.48
 41
0.48
  0
VERTEX
  8
0
 10
110.24
 20
178.481
 30
0.0
 40
0.48
 41
0.48
  0
VERTEX
  8
0
 10
110.262
 20
178.481
 30
0.0
 40
0.48
 41
0.48
  0
VERTEX
  8
0
 10
110.333
 20
178.5
 30
0.0
 40
0.48
 41
0.48
  0
VERTEX
  8
0
 10
110.41
 20
178.551
 30
0.0
 40
0.48
 41
0.48
  0
VERTEX
  8
0
 10
110.461
 20
178.627
 30
0.0
 40
0.48
 41
0.48
  0
VERTEX
  8
0
 10
110.48
 20
178.697
 30
0.0
 40
0.48
 41
0.48
  0
VERTEX
  8
0
 10
110.48
 20
178.72
 30
0.0
 40
0.48
 41
0.48
  0
VERTEX
  8
0
 10
110.48
 20
184.72
 30
0.0
 40
0.48
 41
0.48
  0
VERTEX
  8
0
 10
110.48
 20
184.744
 30
0.0
 40
0.48
 41
0.48
  0
VERTEX
  8
0
 10
110.461
 20
184.814
 30
0.0
 40
0.48
 41
0.48
  0
VERTEX
  8
0
 10
110.41
 20
184.89
 30
0.0
 40
0.48
 41
0.48
  0
VERTEX
  8
0
 10
110.333
 20
184.942
 30
0.0
 40
0.48
 41
0.48
  0
VERTEX
  8
0
 10
110.262
 20
184.96
 30
0.0
 40
0.48
 41
0.48
  0
VERTEX
  8
0
 10
110.24
 20
184.96
 30
0.0
 40
0.48
 41
0.48
  0
VERTEX
  8
0
 10
107.24
 20
184.96
 30
0.0
 40
0.48
 41
0.48
  0
VERTEX
  8
0
 10
107.262
 20
184.96
 30
0.0
 40
0.48
 41
0.48
  0
VERTEX
  8
0
 10
107.333
 20
184.942
 30
0.0
 40
0.48
 41
0.48
  0
VERTEX
  8
0
 10
107.41
 20
184.89
 30
0.0
 40
0.48
 41
0.48
  0
VERTEX
  8
0
 10
107.461
 20
184.814
 30
0.0
 40
0.48
 41
0.48
  0
VERTEX
  8
0
 10
107.48
 20
184.744
 30
0.0
 40
0.48
 41
0.48
  0
VERTEX
  8
0
 10
107.48
 20
184.72
 30
0.0
 40
0.48
 41
0.48
  0
VERTEX
  8
0
 10
107.48
 20
195.72
 30
0.0
 40
0.48
 41
0.48
  0
VERTEX
  8
0
 10
107.48
 20
196.219
 30
0.0
 40
0.48
 41
0.48
  0
VERTEX
  8
0
 10
107.348
 20
197.714
 30
0.0
 40
0.48
 41
0.48
  0
VERTEX
  8
0
 10
106.96
 20
199.665
 30
0.0
 40
0.48
 41
0.48
  0
VERTEX
  8
0
 10
106.321
 20
201.549
 30
0.0
 40
0.48
 41
0.48
  0
VERTEX
  8
0
 10
105.686
 20
202.909
 30
0.0
 40
0.48
 41
0.48
  0
VERTEX
  8
0
 10
105.438
 20
203.34
 30
0.0
 40
0.48
 41
0.48
  0
VERTEX
  8
0
 10
105.312
 20
203.558
 30
0.0
 40
0.48
 41
0.48
  0
VERTEX
  8
0
 10
104.909
 20
204.191
 30
0.0
 40
0.48
 41
0.48
  0
VERTEX
  8
0
 10
104.327
 20
205.002
 30
0.0
 40
0.48
 41
0.48
  0
VERTEX
  8
0
 10
103.696
 20
205.771
 30
0.0
 40
0.48
 41
0.48
  0
VERTEX
  8
0
 10
103.017
 20
206.498
 30
0.0
 40
0.48
 41
0.48
  0
VERTEX
  8
0
 10
102.29
 20
207.177
 30
0.0
 40
0.48
 41
0.48
  0
VERTEX
  8
0
 10
101.52
 20
207.808
 30
0.0
 40
0.48
 41
0.48
  0
VERTEX
  8
0
 10
100.71
 20
208.39
 30
0.0
 40
0.48
 41
0.48
  0
VERTEX
  8
0
 10
100.076
 20
208.793
 30
0.0
 40
0.48
 41
0.48
  0
VERTEX
  8
0
 10
99.8594
 20
208.917
 30
0.0
 40
0.48
 41
0.48
  0
VERTEX
  8
0
 10
99.4269
 20
209.167
 30
0.0
 40
0.48
 41
0.48
  0
VERTEX
  8
0
 10
98.0666
 20
209.802
 30
0.0
 40
0.48
 41
0.48
  0
VERTEX
  8
0
 10
96.1842
 20
210.441
 30
0.0
 40
0.48
 41
0.48
  0
VERTEX
  8
0
 10
94.2329
 20
210.829
 30
0.0
 40
0.48
 41
0.48
  0
VERTEX
  8
0
 10
92.7379
 20
210.96
 30
0.0
 40
0.48
 41
0.48
  0
VERTEX
  8
0
 10
92.2405
 20
210.96
 30
0.0
 40
0.48
 41
0.48
  0
VERTEX
  8
0
 10
28.2401
 20
210.96
 30
0.0
 40
0.48
 41
0.48
  0
VERTEX
  8
0
 10
27.7413
 20
210.96
 30
0.0
 40
0.48
 41
0.48
  0
VERTEX
  8
0
 10
26.2461
 20
210.829
 30
0.0
 40
0.48
 41
0.48
  0
VERTEX
  8
0
 10
24.2948
 20
210.441
 30
0.0
 40
0.48
 41
0.48
  0
VERTEX
  8
0
 10
22.411
 20
209.802
 30
0.0
 40
0.48
 41
0.48
  0
VERTEX
  8
0
 10
21.0509
 20
209.167
 30
0.0
 40
0.48
 41
0.48
  0
VERTEX
  8
0
 10
20.6196
 20
208.917
 30
0.0
 40
0.48
 41
0.48
  0
VERTEX
  8
0
 10
20.4032
 20
208.793
 30
0.0
 40
0.48
 41
0.48
  0
VERTEX
  8
0
 10
19.7693
 20
208.39
 30
0.0
 40
0.48
 41
0.48
  0
VERTEX
  8
0
 10
18.9577
 20
207.808
 30
0.0
 40
0.48
 41
0.48
  0
VERTEX
  8
0
 10
18.1887
 20
207.177
 30
0.0
 40
0.48
 41
0.48
  0
VERTEX
  8
0
 10
17.4625
 20
206.498
 30
0.0
 40
0.48
 41
0.48
  0
VERTEX
  8
0
 10
16.7831
 20
205.771
 30
0.0
 40
0.48
 41
0.48
  0
VERTEX
  8
0
 10
16.1506
 20
205.002
 30
0.0
 40
0.48
 41
0.48
  0
VERTEX
  8
0
 10
15.5691
 20
204.191
 30
0.0
 40
0.48
 41
0.48
  0
VERTEX
  8
0
 10
15.1653
 20
203.557
 30
0.0
 40
0.48
 41
0.48
  0
VERTEX
  8
0
 10
15.0413
 20
203.34
 30
0.0
 40
0.48
 41
0.48
  0
VERTEX
  8
0
 10
14.7919
 20
202.909
 30
0.0
 40
0.48
 41
0.48
  0
VERTEX
  8
0
 10
14.158
 20
201.549
 30
0.0
 40
0.48
 41
0.48
  0
VERTEX
  8
0
 10
13.5186
 20
199.665
 30
0.0
 40
0.48
 41
0.48
  0
VERTEX
  8
0
 10
13.1313
 20
197.714
 30
0.0
 40
0.48
 41
0.48
  0
VERTEX
  8
0
 10
13.0004
 20
196.219
 30
0.0
 40
0.48
 41
0.48
  0
VERTEX
  8
0
 10
13.0004
 20
195.72
 30
0.0
 40
0.48
 41
0.48
  0
VERTEX
  8
0
 10
13.0004
 20
195.743
 30
0.0
 40
0.48
 41
0.48
  0
VERTEX
  8
0
 10
13.0183
 20
195.814
 30
0.0
 40
0.48
 41
0.48
  0
VERTEX
  8
0
 10
13.0707
 20
195.889
 30
0.0
 40
0.48
 41
0.48
  0
VERTEX
  8
0
 10
13.1465
 20
195.942
 30
0.0
 40
0.48
 41
0.48
  0
VERTEX
  8
0
 10
13.2167
 20
195.96
 30
0.0
 40
0.48
 41
0.48
  0
VERTEX
  8
0
 10
13.2402
 20
195.96
 30
0.0
 40
0.48
 41
0.48
  0
VERTEX
  8
0
 10
10.2402
 20
195.96
 30
0.0
 40
0.48
 41
0.48
  0
VERTEX
  8
0
 10
10.2168
 20
195.96
 30
0.0
 40
0.48
 41
0.48
  0
VERTEX
  8
0
 10
10.1465
 20
195.942
 30
0.0
 40
0.48
 41
0.48
  0
VERTEX
  8
0
 10
10.0707
 20
195.889
 30
0.0
 40
0.48
 41
0.48
  0
VERTEX
  8
0
 10
10.0183
 20
195.814
 30
0.0
 40
0.48
 41
0.48
  0
VERTEX
  8
0
 10
10.0004
 20
195.743
 30
0.0
 40
0.48
 41
0.48
  0
VERTEX
  8
0
 10
10.0004
 20
195.72
 30
0.0
 40
0.48
 41
0.48
  0
VERTEX
  8
0
 10
10.0004
 20
183.72
 30
0.0
 40
0.48
 41
0.48
  0
VERTEX
  8
0
 10
10.0004
 20
183.698
 30
0.0
 40
0.48
 41
0.48
  0
VERTEX
  8
0
 10
10.0183
 20
183.628
 30
0.0
 40
0.48
 41
0.48
  0
VERTEX
  8
0
 10
10.0707
 20
183.551
 30
0.0
 40
0.48
 41
0.48
  0
VERTEX
  8
0
 10
10.1465
 20
183.499
 30
0.0
 40
0.48
 41
0.48
  0
VERTEX
  8
0
 10
10.2168
 20
183.48
 30
0.0
 40
0.48
 41
0.48
  0
VERTEX
  8
0
 10
10.2402
 20
183.48
 30
0.0
 40
0.48
 41
0.48
  0
VERTEX
  8
0
 10
13.2402
 20
183.48
 30
0.0
 40
0.48
 41
0.48
  0
VERTEX
  8
0
 10
13.2167
 20
183.48
 30
0.0
 40
0.48
 41
0.48
  0
VERTEX
  8
0
 10
13.1465
 20
183.499
 30
0.0
 40
0.48
 41
0.48
  0
VERTEX
  8
0
 10
13.0707
 20
183.551
 30
0.0
 40
0.48
 41
0.48
  0
VERTEX
  8
0
 10
13.0183
 20
183.628
 30
0.0
 40
0.48
 41
0.48
  0
VERTEX
  8
0
 10
13.0004
 20
183.698
 30
0.0
 40
0.48
 41
0.48
  0
VERTEX
  8
0
 10
13.0004
 20
183.72
 30
0.0
 40
0.48
 41
0.48
  0
VERTEX
  8
0
 10
13.0004
 20
171.72
 30
0.0
 40
0.48
 41
0.48
  0
VERTEX
  8
0
 10
13.0004
 20
160.721
 30
0.0
 40
0.48
 41
0.48
  0
VERTEX
  8
0
 10
13.0004
 20
160.744
 30
0.0
 40
0.48
 41
0.48
  0
VERTEX
  8
0
 10
13.0183
 20
160.814
 30
0.0
 40
0.48
 41
0.48
  0
VERTEX
  8
0
 10
13.0707
 20
160.89
 30
0.0
 40
0.48
 41
0.48
  0
VERTEX
  8
0
 10
13.1465
 20
160.943
 30
0.0
 40
0.48
 41
0.48
  0
VERTEX
  8
0
 10
13.2167
 20
160.961
 30
0.0
 40
0.48
 41
0.48
  0
VERTEX
  8
0
 10
13.2402
 20
160.961
 30
0.0
 40
0.48
 41
0.48
  0
VERTEX
  8
0
 10
10.2402
 20
160.961
 30
0.0
 40
0.48
 41
0.48
  0
VERTEX
  8
0
 10
10.2168
 20
160.961
 30
0.0
 40
0.48
 41
0.48
  0
VERTEX
  8
0
 10
10.1465
 20
160.943
 30
0.0
 40
0.48
 41
0.48
  0
VERTEX
  8
0
 10
10.0707
 20
160.89
 30
0.0
 40
0.48
 41
0.48
  0
VERTEX
  8
0
 10
10.0183
 20
160.814
 30
0.0
 40
0.48
 41
0.48
  0
VERTEX
  8
0
 10
10.0004
 20
160.744
 30
0.0
 40
0.48
 41
0.48
  0
VERTEX
  8
0
 10
10.0004
 20
160.721
 30
0.0
 40
0.48
 41
0.48
  0
VERTEX
  8
0
 10
10.0004
 20
154.719
 30
0.0
 40
0.48
 41
0.48
  0
VERTEX
  8
0
 10
10.0004
 20
154.697
 30
0.0
 40
0.48
 41
0.48
  0
VERTEX
  8
0
 10
10.0183
 20
154.627
 30
0.0
 40
0.48
 41
0.48
  0
VERTEX
  8
0
 10
10.0707
 20
154.55
 30
0.0
 40
0.48
 41
0.48
  0
VERTEX
  8
0
 10
10.1465
 20
154.499
 30
0.0
 40
0.48
 41
0.48
  0
VERTEX
  8
0
 10
10.2168
 20
154.48
 30
0.0
 40
0.48
 41
0.48
  0
VERTEX
  8
0
 10
10.2402
 20
154.48
 30
0.0
 40
0.48
 41
0.48
  0
VERTEX
  8
0
 10
13.2402
 20
154.48
 30
0.0
 40
0.48
 41
0.48
  0
VERTEX
  8
0
 10
13.2167
 20
154.48
 30
0.0
 40
0.48
 41
0.48
  0
VERTEX
  8
0
 10
13.1465
 20
154.499
 30
0.0
 40
0.48
 41
0.48
  0
VERTEX
  8
0
 10
13.0707
 20
154.55
 30
0.0
 40
0.48
 41
0.48
  0
VERTEX
  8
0
 10
13.0183
 20
154.627
 30
0.0
 40
0.48
 41
0.48
  0
VERTEX
  8
0
 10
13.0004
 20
154.697
 30
0.0
 40
0.48
 41
0.48
  0
VERTEX
  8
0
 10
13.0004
 20
154.719
 30
0.0
 40
0.48
 41
0.48
  0
VERTEX
  8
0
 10
13.0004
 20
148.721
 30
0.0
 40
0.48
 41
0.48
  0
VERTEX
  8
0
 10
13.0004
 20
148.744
 30
0.0
 40
0.48
 41
0.48
  0
VERTEX
  8
0
 10
13.0183
 20
148.814
 30
0.0
 40
0.48
 41
0.48
  0
VERTEX
  8
0
 10
13.0707
 20
148.89
 30
0.0
 40
0.48
 41
0.48
  0
VERTEX
  8
0
 10
13.1465
 20
148.942
 30
0.0
 40
0.48
 41
0.48
  0
VERTEX
  8
0
 10
13.2167
 20
148.96
 30
0.0
 40
0.48
 41
0.48
  0
VERTEX
  8
0
 10
13.2402
 20
148.96
 30
0.0
 40
0.48
 41
0.48
  0
VERTEX
  8
0
 10
10.2402
 20
148.96
 30
0.0
 40
0.48
 41
0.48
  0
VERTEX
  8
0
 10
10.2168
 20
148.96
 30
0.0
 40
0.48
 41
0.48
  0
VERTEX
  8
0
 10
10.1465
 20
148.942
 30
0.0
 40
0.48
 41
0.48
  0
VERTEX
  8
0
 10
10.0707
 20
148.89
 30
0.0
 40
0.48
 41
0.48
  0
VERTEX
  8
0
 10
10.0183
 20
148.814
 30
0.0
 40
0.48
 41
0.48
  0
VERTEX
  8
0
 10
10.0004
 20
148.744
 30
0.0
 40
0.48
 41
0.48
  0
VERTEX
  8
0
 10
10.0004
 20
148.721
 30
0.0
 40
0.48
 41
0.48
  0
VERTEX
  8
0
 10
10.0004
 20
142.721
 30
0.0
 40
0.48
 41
0.48
  0
VERTEX
  8
0
 10
10.0004
 20
142.697
 30
0.0
 40
0.48
 41
0.48
  0
VERTEX
  8
0
 10
10.0183
 20
142.627
 30
0.0
 40
0.48
 41
0.48
  0
VERTEX
  8
0
 10
10.0707
 20
142.551
 30
0.0
 40
0.48
 41
0.48
  0
VERTEX
  8
0
 10
10.1465
 20
142.499
 30
0.0
 40
0.48
 41
0.48
  0
VERTEX
  8
0
 10
10.2168
 20
142.48
 30
0.0
 40
0.48
 41
0.48
  0
VERTEX
  8
0
 10
10.2402
 20
142.48
 30
0.0
 40
0.48
 41
0.48
  0
VERTEX
  8
0
 10
13.2402
 20
142.48
 30
0.0
 40
0.48
 41
0.48
  0
VERTEX
  8
0
 10
13.2167
 20
142.48
 30
0.0
 40
0.48
 41
0.48
  0
VERTEX
  8
0
 10
13.1465
 20
142.499
 30
0.0
 40
0.48
 41
0.48
  0
VERTEX
  8
0
 10
13.0707
 20
142.551
 30
0.0
 40
0.48
 41
0.48
  0
VERTEX
  8
0
 10
13.0183
 20
142.627
 30
0.0
 40
0.48
 41
0.48
  0
VERTEX
  8
0
 10
13.0004
 20
142.697
 30
0.0
 40
0.48
 41
0.48
  0
VERTEX
  8
0
 10
13.0004
 20
142.721
 30
0.0
 40
0.48
 41
0.48
  0
VERTEX
  8
0
 10
13.0004
 20
131.72
 30
0.0
 40
0.48
 41
0.48
  0
VERTEX
  8
0
 10
13.0004
 20
131.222
 30
0.0
 40
0.48
 41
0.48
  0
VERTEX
  8
0
 10
13.1313
 20
129.727
 30
0.0
 40
0.48
 41
0.48
  0
VERTEX
  8
0
 10
13.5186
 20
127.776
 30
0.0
 40
0.48
 41
0.48
  0
VERTEX
  8
0
 10
14.158
 20
125.893
 30
0.0
 40
0.48
 41
0.48
  0
VERTEX
  8
0
 10
14.7919
 20
124.533
 30
0.0
 40
0.48
 41
0.48
  0
VERTEX
  8
0
 10
15.0413
 20
124.101
 30
0.0
 40
0.48
 41
0.48
  0
VERTEX
  8
0
 10
15.1653
 20
123.884
 30
0.0
 40
0.48
 41
0.48
  0
VERTEX
  8
0
 10
15.5691
 20
123.25
 30
0.0
 40
0.48
 41
0.48
  0
VERTEX
  8
0
 10
16.1506
 20
122.44
 30
0.0
 40
0.48
 41
0.48
  0
VERTEX
  8
0
 10
16.7831
 20
121.67
 30
0.0
 40
0.48
 41
0.48
  0
VERTEX
  8
0
 10
17.4625
 20
120.944
 30
0.0
 40
0.48
 41
0.48
  0
VERTEX
  8
0
 10
18.1887
 20
120.264
 30
0.0
 40
0.48
 41
0.48
  0
VERTEX
  8
0
 10
18.9577
 20
119.633
 30
0.0
 40
0.48
 41
0.48
  0
VERTEX
  8
0
 10
19.7693
 20
119.052
 30
0.0
 40
0.48
 41
0.48
  0
VERTEX
  8
0
 10
20.4018
 20
118.648
 30
0.0
 40
0.48
 41
0.48
  0
VERTEX
  8
0
 10
20.6196
 20
118.522
 30
0.0
 40
0.48
 41
0.48
  0
VERTEX
  8
0
 10
21.0509
 20
118.274
 30
0.0
 40
0.48
 41
0.48
  0
VERTEX
  8
0
 10
22.411
 20
117.639
 30
0.0
 40
0.48
 41
0.48
  0
VERTEX
  8
0
 10
24.2948
 20
116.999
 30
0.0
 40
0.48
 41
0.48
  0
VERTEX
  8
0
 10
26.2461
 20
116.612
 30
0.0
 40
0.48
 41
0.48
  0
VERTEX
  8
0
 10
27.7413
 20
116.48
 30
0.0
 40
0.48
 41
0.48
  0
VERTEX
  8
0
 10
28.2401
 20
116.48
 30
0.0
 40
0.48
 41
0.48
  0
SEQEND
 8
0
  0
POLYLINE
  8
0
 62
     0
 66
     1
 10
0
 20
0
 30
0.0
 70
     1
 40
1.36063
 41
1.36063
  0
VERTEX
  8
0
 10
194.221
 20
116.48
 30
0.0
 40
0.48
 41
0.48
  0
VERTEX
  8
0
 10
183.22
 20
116.48
 30
0.0
 40
0.48
 41
0.48
  0
VERTEX
  8
0
 10
183.242
 20
116.48
 30
0.0
 40
0.48
 41
0.48
  0
VERTEX
  8
0
 10
183.312
 20
116.499
 30
0.0
 40
0.48
 41
0.48
  0
VERTEX
  8
0
 10
183.389
 20
116.55
 30
0.0
 40
0.48
 41
0.48
  0
VERTEX
  8
0
 10
183.44
 20
116.628
 30
0.0
 40
0.48
 41
0.48
  0
VERTEX
  8
0
 10
183.46
 20
116.698
 30
0.0
 40
0.48
 41
0.48
  0
VERTEX
  8
0
 10
183.46
 20
116.72
 30
0.0
 40
0.48
 41
0.48
  0
VERTEX
  8
0
 10
183.46
 20
113.72
 30
0.0
 40
0.48
 41
0.48
  0
VERTEX
  8
0
 10
183.46
 20
113.698
 30
0.0
 40
0.48
 41
0.48
  0
VERTEX
  8
0
 10
183.44
 20
113.628
 30
0.0
 40
0.48
 41
0.48
  0
VERTEX
  8
0
 10
183.389
 20
113.55
 30
0.0
 40
0.48
 41
0.48
  0
VERTEX
  8
0
 10
183.312
 20
113.499
 30
0.0
 40
0.48
 41
0.48
  0
VERTEX
  8
0
 10
183.242
 20
113.48
 30
0.0
 40
0.48
 41
0.48
  0
VERTEX
  8
0
 10
183.22
 20
113.48
 30
0.0
 40
0.48
 41
0.48
  0
VERTEX
  8
0
 10
177.22
 20
113.48
 30
0.0
 40
0.48
 41
0.48
  0
VERTEX
  8
0
 10
177.196
 20
113.48
 30
0.0
 40
0.48
 41
0.48
  0
VERTEX
  8
0
 10
177.126
 20
113.499
 30
0.0
 40
0.48
 41
0.48
  0
VERTEX
  8
0
 10
177.05
 20
113.55
 30
0.0
 40
0.48
 41
0.48
  0
VERTEX
  8
0
 10
176.998
 20
113.628
 30
0.0
 40
0.48
 41
0.48
  0
VERTEX
  8
0
 10
176.98
 20
113.698
 30
0.0
 40
0.48
 41
0.48
  0
VERTEX
  8
0
 10
176.98
 20
113.72
 30
0.0
 40
0.48
 41
0.48
  0
VERTEX
  8
0
 10
176.98
 20
116.72
 30
0.0
 40
0.48
 41
0.48
  0
VERTEX
  8
0
 10
176.98
 20
116.698
 30
0.0
 40
0.48
 41
0.48
  0
VERTEX
  8
0
 10
176.998
 20
116.628
 30
0.0
 40
0.48
 41
0.48
  0
VERTEX
  8
0
 10
177.05
 20
116.55
 30
0.0
 40
0.48
 41
0.48
  0
VERTEX
  8
0
 10
177.126
 20
116.499
 30
0.0
 40
0.48
 41
0.48
  0
VERTEX
  8
0
 10
177.196
 20
116.48
 30
0.0
 40
0.48
 41
0.48
  0
VERTEX
  8
0
 10
177.22
 20
116.48
 30
0.0
 40
0.48
 41
0.48
  0
VERTEX
  8
0
 10
171.22
 20
116.48
 30
0.0
 40
0.48
 41
0.48
  0
VERTEX
  8
0
 10
171.242
 20
116.48
 30
0.0
 40
0.48
 41
0.48
  0
VERTEX
  8
0
 10
171.312
 20
116.499
 30
0.0
 40
0.48
 41
0.48
  0
VERTEX
  8
0
 10
171.389
 20
116.55
 30
0.0
 40
0.48
 41
0.48
  0
VERTEX
  8
0
 10
171.44
 20
116.628
 30
0.0
 40
0.48
 41
0.48
  0
VERTEX
  8
0
 10
171.46
 20
116.698
 30
0.0
 40
0.48
 41
0.48
  0
VERTEX
  8
0
 10
171.46
 20
116.72
 30
0.0
 40
0.48
 41
0.48
  0
VERTEX
  8
0
 10
171.46
 20
113.72
 30
0.0
 40
0.48
 41
0.48
  0
VERTEX
  8
0
 10
171.46
 20
113.698
 30
0.0
 40
0.48
 41
0.48
  0
VERTEX
  8
0
 10
171.44
 20
113.628
 30
0.0
 40
0.48
 41
0.48
  0
VERTEX
  8
0
 10
171.389
 20
113.55
 30
0.0
 40
0.48
 41
0.48
  0
VERTEX
  8
0
 10
171.312
 20
113.499
 30
0.0
 40
0.48
 41
0.48
  0
VERTEX
  8
0
 10
171.242
 20
113.48
 30
0.0
 40
0.48
 41
0.48
  0
VERTEX
  8
0
 10
171.22
 20
113.48
 30
0.0
 40
0.48
 41
0.48
  0
VERTEX
  8
0
 10
165.22
 20
113.48
 30
0.0
 40
0.48
 41
0.48
  0
VERTEX
  8
0
 10
165.196
 20
113.48
 30
0.0
 40
0.48
 41
0.48
  0
VERTEX
  8
0
 10
165.126
 20
113.499
 30
0.0
 40
0.48
 41
0.48
  0
VERTEX
  8
0
 10
165.05
 20
113.55
 30
0.0
 40
0.48
 41
0.48
  0
VERTEX
  8
0
 10
164.998
 20
113.628
 30
0.0
 40
0.48
 41
0.48
  0
VERTEX
  8
0
 10
164.98
 20
113.698
 30
0.0
 40
0.48
 41
0.48
  0
VERTEX
  8
0
 10
164.98
 20
113.72
 30
0.0
 40
0.48
 41
0.48
  0
VERTEX
  8
0
 10
164.98
 20
116.72
 30
0.0
 40
0.48
 41
0.48
  0
VERTEX
  8
0
 10
164.98
 20
116.698
 30
0.0
 40
0.48
 41
0.48
  0
VERTEX
  8
0
 10
164.998
 20
116.628
 30
0.0
 40
0.48
 41
0.48
  0
VERTEX
  8
0
 10
165.05
 20
116.55
 30
0.0
 40
0.48
 41
0.48
  0
VERTEX
  8
0
 10
165.126
 20
116.499
 30
0.0
 40
0.48
 41
0.48
  0
VERTEX
  8
0
 10
165.196
 20
116.48
 30
0.0
 40
0.48
 41
0.48
  0
VERTEX
  8
0
 10
165.22
 20
116.48
 30
0.0
 40
0.48
 41
0.48
  0
VERTEX
  8
0
 10
159.22
 20
116.48
 30
0.0
 40
0.48
 41
0.48
  0
VERTEX
  8
0
 10
159.242
 20
116.48
 30
0.0
 40
0.48
 41
0.48
  0
VERTEX
  8
0
 10
159.312
 20
116.499
 30
0.0
 40
0.48
 41
0.48
  0
VERTEX
  8
0
 10
159.39
 20
116.55
 30
0.0
 40
0.48
 41
0.48
  0
VERTEX
  8
0
 10
159.44
 20
116.628
 30
0.0
 40
0.48
 41
0.48
  0
VERTEX
  8
0
 10
159.46
 20
116.698
 30
0.0
 40
0.48
 41
0.48
  0
VERTEX
  8
0
 10
159.46
 20
116.72
 30
0.0
 40
0.48
 41
0.48
  0
VERTEX
  8
0
 10
159.46
 20
113.72
 30
0.0
 40
0.48
 41
0.48
  0
VERTEX
  8
0
 10
159.46
 20
113.698
 30
0.0
 40
0.48
 41
0.48
  0
VERTEX
  8
0
 10
159.44
 20
113.628
 30
0.0
 40
0.48
 41
0.48
  0
VERTEX
  8
0
 10
159.39
 20
113.55
 30
0.0
 40
0.48
 41
0.48
  0
VERTEX
  8
0
 10
159.312
 20
113.499
 30
0.0
 40
0.48
 41
0.48
  0
VERTEX
  8
0
 10
159.242
 20
113.48
 30
0.0
 40
0.48
 41
0.48
  0
VERTEX
  8
0
 10
159.22
 20
113.48
 30
0.0
 40
0.48
 41
0.48
  0
VERTEX
  8
0
 10
153.22
 20
113.48
 30
0.0
 40
0.48
 41
0.48
  0
VERTEX
  8
0
 10
153.197
 20
113.48
 30
0.0
 40
0.48
 41
0.48
  0
VERTEX
  8
0
 10
153.126
 20
113.499
 30
0.0
 40
0.48
 41
0.48
  0
VERTEX
  8
0
 10
153.051
 20
113.55
 30
0.0
 40
0.48
 41
0.48
  0
VERTEX
  8
0
 10
152.998
 20
113.628
 30
0.0
 40
0.48
 41
0.48
  0
VERTEX
  8
0
 10
152.98
 20
113.698
 30
0.0
 40
0.48
 41
0.48
  0
VERTEX
  8
0
 10
152.98
 20
113.72
 30
0.0
 40
0.48
 41
0.48
  0
VERTEX
  8
0
 10
152.98
 20
116.72
 30
0.0
 40
0.48
 41
0.48
  0
VERTEX
  8
0
 10
152.98
 20
116.698
 30
0.0
 40
0.48
 41
0.48
  0
VERTEX
  8
0
 10
152.998
 20
116.628
 30
0.0
 40
0.48
 41
0.48
  0
VERTEX
  8
0
 10
153.051
 20
116.55
 30
0.0
 40
0.48
 41
0.48
  0
VERTEX
  8
0
 10
153.126
 20
116.499
 30
0.0
 40
0.48
 41
0.48
  0
VERTEX
  8
0
 10
153.197
 20
116.48
 30
0.0
 40
0.48
 41
0.48
  0
VERTEX
  8
0
 10
153.22
 20
116.48
 30
0.0
 40
0.48
 41
0.48
  0
VERTEX
  8
0
 10
147.22
 20
116.48
 30
0.0
 40
0.48
 41
0.48
  0
VERTEX
  8
0
 10
147.242
 20
116.48
 30
0.0
 40
0.48
 41
0.48
  0
VERTEX
  8
0
 10
147.312
 20
116.499
 30
0.0
 40
0.48
 41
0.48
  0
VERTEX
  8
0
 10
147.389
 20
116.55
 30
0.0
 40
0.48
 41
0.48
  0
VERTEX
  8
0
 10
147.44
 20
116.628
 30
0.0
 40
0.48
 41
0.48
  0
VERTEX
  8
0
 10
147.46
 20
116.698
 30
0.0
 40
0.48
 41
0.48
  0
VERTEX
  8
0
 10
147.46
 20
116.72
 30
0.0
 40
0.48
 41
0.48
  0
VERTEX
  8
0
 10
147.46
 20
113.72
 30
0.0
 40
0.48
 41
0.48
  0
VERTEX
  8
0
 10
147.46
 20
113.698
 30
0.0
 40
0.48
 41
0.48
  0
VERTEX
  8
0
 10
147.44
 20
113.628
 30
0.0
 40
0.48
 41
0.48
  0
VERTEX
  8
0
 10
147.389
 20
113.55
 30
0.0
 40
0.48
 41
0.48
  0
VERTEX
  8
0
 10
147.312
 20
113.499
 30
0.0
 40
0.48
 41
0.48
  0
VERTEX
  8
0
 10
147.242
 20
113.48
 30
0.0
 40
0.48
 41
0.48
  0
VERTEX
  8
0
 10
147.22
 20
113.48
 30
0.0
 40
0.48
 41
0.48
  0
VERTEX
  8
0
 10
141.22
 20
113.48
 30
0.0
 40
0.48
 41
0.48
  0
VERTEX
  8
0
 10
141.196
 20
113.48
 30
0.0
 40
0.48
 41
0.48
  0
VERTEX
  8
0
 10
141.126
 20
113.499
 30
0.0
 40
0.48
 41
0.48
  0
VERTEX
  8
0
 10
141.05
 20
113.55
 30
0.0
 40
0.48
 41
0.48
  0
VERTEX
  8
0
 10
140.998
 20
113.628
 30
0.0
 40
0.48
 41
0.48
  0
VERTEX
  8
0
 10
140.98
 20
113.698
 30
0.0
 40
0.48
 41
0.48
  0
VERTEX
  8
0
 10
140.98
 20
113.72
 30
0.0
 40
0.48
 41
0.48
  0
VERTEX
  8
0
 10
140.98
 20
116.72
 30
0.0
 40
0.48
 41
0.48
  0
VERTEX
  8
0
 10
140.98
 20
116.698
 30
0.0
 40
0.48
 41
0.48
  0
VERTEX
  8
0
 10
140.998
 20
116.628
 30
0.0
 40
0.48
 41
0.48
  0
VERTEX
  8
0
 10
141.05
 20
116.55
 30
0.0
 40
0.48
 41
0.48
  0
VERTEX
  8
0
 10
141.126
 20
116.499
 30
0.0
 40
0.48
 41
0.48
  0
VERTEX
  8
0
 10
141.196
 20
116.48
 30
0.0
 40
0.48
 41
0.48
  0
VERTEX
  8
0
 10
141.22
 20
116.48
 30
0.0
 40
0.48
 41
0.48
  0
VERTEX
  8
0
 10
130.221
 20
116.48
 30
0.0
 40
0.48
 41
0.48
  0
VERTEX
  8
0
 10
129.722
 20
116.48
 30
0.0
 40
0.48
 41
0.48
  0
VERTEX
  8
0
 10
128.227
 20
116.612
 30
0.0
 40
0.48
 41
0.48
  0
VERTEX
  8
0
 10
126.275
 20
116.999
 30
0.0
 40
0.48
 41
0.48
  0
VERTEX
  8
0
 10
124.391
 20
117.639
 30
0.0
 40
0.48
 41
0.48
  0
VERTEX
  8
0
 10
123.031
 20
118.274
 30
0.0
 40
0.48
 41
0.48
  0
VERTEX
  8
0
 10
122.6
 20
118.522
 30
0.0
 40
0.48
 41
0.48
  0
VERTEX
  8
0
 10
122.382
 20
118.648
 30
0.0
 40
0.48
 41
0.48
  0
VERTEX
  8
0
 10
121.75
 20
119.052
 30
0.0
 40
0.48
 41
0.48
  0
VERTEX
  8
0
 10
120.938
 20
119.633
 30
0.0
 40
0.48
 41
0.48
  0
VERTEX
  8
0
 10
120.169
 20
120.264
 30
0.0
 40
0.48
 41
0.48
  0
VERTEX
  8
0
 10
119.443
 20
120.944
 30
0.0
 40
0.48
 41
0.48
  0
VERTEX
  8
0
 10
118.763
 20
121.67
 30
0.0
 40
0.48
 41
0.48
  0
VERTEX
  8
0
 10
118.131
 20
122.44
 30
0.0
 40
0.48
 41
0.48
  0
VERTEX
  8
0
 10
117.549
 20
123.25
 30
0.0
 40
0.48
 41
0.48
  0
VERTEX
  8
0
 10
117.146
 20
123.884
 30
0.0
 40
0.48
 41
0.48
  0
VERTEX
  8
0
 10
117.022
 20
124.101
 30
0.0
 40
0.48
 41
0.48
  0
VERTEX
  8
0
 10
116.772
 20
124.533
 30
0.0
 40
0.48
 41
0.48
  0
VERTEX
  8
0
 10
116.138
 20
125.893
 30
0.0
 40
0.48
 41
0.48
  0
VERTEX
  8
0
 10
115.499
 20
127.776
 30
0.0
 40
0.48
 41
0.48
  0
VERTEX
  8
0
 10
115.112
 20
129.727
 30
0.0
 40
0.48
 41
0.48
  0
VERTEX
  8
0
 10
114.981
 20
131.222
 30
0.0
 40
0.48
 41
0.48
  0
VERTEX
  8
0
 10
114.981
 20
131.72
 30
0.0
 40
0.48
 41
0.48
  0
VERTEX
  8
0
 10
114.981
 20
142.721
 30
0.0
 40
0.48
 41
0.48
  0
VERTEX
  8
0
 10
114.981
 20
142.697
 30
0.0
 40
0.48
 41
0.48
  0
VERTEX
  8
0
 10
114.999
 20
142.627
 30
0.0
 40
0.48
 41
0.48
  0
VERTEX
  8
0
 10
115.05
 20
142.551
 30
0.0
 40
0.48
 41
0.48
  0
VERTEX
  8
0
 10
115.125
 20
142.499
 30
0.0
 40
0.48
 41
0.48
  0
VERTEX
  8
0
 10
115.196
 20
142.48
 30
0.0
 40
0.48
 41
0.48
  0
VERTEX
  8
0
 10
115.22
 20
142.48
 30
0.0
 40
0.48
 41
0.48
  0
VERTEX
  8
0
 10
112.22
 20
142.48
 30
0.0
 40
0.48
 41
0.48
  0
VERTEX
  8
0
 10
112.196
 20
142.48
 30
0.0
 40
0.48
 41
0.48
  0
VERTEX
  8
0
 10
112.125
 20
142.499
 30
0.0
 40
0.48
 41
0.48
  0
VERTEX
  8
0
 10
112.05
 20
142.551
 30
0.0
 40
0.48
 41
0.48
  0
VERTEX
  8
0
 10
111.999
 20
142.627
 30
0.0
 40
0.48
 41
0.48
  0
VERTEX
  8
0
 10
111.981
 20
142.697
 30
0.0
 40
0.48
 41
0.48
  0
VERTEX
  8
0
 10
111.981
 20
142.721
 30
0.0
 40
0.48
 41
0.48
  0
VERTEX
  8
0
 10
111.981
 20
148.721
 30
0.0
 40
0.48
 41
0.48
  0
VERTEX
  8
0
 10
111.981
 20
148.744
 30
0.0
 40
0.48
 41
0.48
  0
VERTEX
  8
0
 10
111.999
 20
148.814
 30
0.0
 40
0.48
 41
0.48
  0
VERTEX
  8
0
 10
112.05
 20
148.89
 30
0.0
 40
0.48
 41
0.48
  0
VERTEX
  8
0
 10
112.125
 20
148.942
 30
0.0
 40
0.48
 41
0.48
  0
VERTEX
  8
0
 10
112.196
 20
148.96
 30
0.0
 40
0.48
 41
0.48
  0
VERTEX
  8
0
 10
112.22
 20
148.96
 30
0.0
 40
0.48
 41
0.48
  0
VERTEX
  8
0
 10
115.22
 20
148.96
 30
0.0
 40
0.48
 41
0.48
  0
VERTEX
  8
0
 10
115.196
 20
148.96
 30
0.0
 40
0.48
 41
0.48
  0
VERTEX
  8
0
 10
115.125
 20
148.942
 30
0.0
 40
0.48
 41
0.48
  0
VERTEX
  8
0
 10
115.05
 20
148.89
 30
0.0
 40
0.48
 41
0.48
  0
VERTEX
  8
0
 10
114.999
 20
148.814
 30
0.0
 40
0.48
 41
0.48
  0
VERTEX
  8
0
 10
114.981
 20
148.744
 30
0.0
 40
0.48
 41
0.48
  0
VERTEX
  8
0
 10
114.981
 20
148.721
 30
0.0
 40
0.48
 41
0.48
  0
VERTEX
  8
0
 10
114.981
 20
154.719
 30
0.0
 40
0.48
 41
0.48
  0
VERTEX
  8
0
 10
114.981
 20
154.697
 30
0.0
 40
0.48
 41
0.48
  0
VERTEX
  8
0
 10
114.999
 20
154.627
 30
0.0
 40
0.48
 41
0.48
  0
VERTEX
  8
0
 10
115.05
 20
154.55
 30
0.0
 40
0.48
 41
0.48
  0
VERTEX
  8
0
 10
115.125
 20
154.499
 30
0.0
 40
0.48
 41
0.48
  0
VERTEX
  8
0
 10
115.196
 20
154.48
 30
0.0
 40
0.48
 41
0.48
  0
VERTEX
  8
0
 10
115.22
 20
154.48
 30
0.0
 40
0.48
 41
0.48
  0
VERTEX
  8
0
 10
112.22
 20
154.48
 30
0.0
 40
0.48
 41
0.48
  0
VERTEX
  8
0
 10
112.196
 20
154.48
 30
0.0
 40
0.48
 41
0.48
  0
VERTEX
  8
0
 10
112.125
 20
154.499
 30
0.0
 40
0.48
 41
0.48
  0
VERTEX
  8
0
 10
112.05
 20
154.55
 30
0.0
 40
0.48
 41
0.48
  0
VERTEX
  8
0
 10
111.999
 20
154.627
 30
0.0
 40
0.48
 41
0.48
  0
VERTEX
  8
0
 10
111.981
 20
154.697
 30
0.0
 40
0.48
 41
0.48
  0
VERTEX
  8
0
 10
111.981
 20
154.719
 30
0.0
 40
0.48
 41
0.48
  0
VERTEX
  8
0
 10
111.981
 20
160.721
 30
0.0
 40
0.48
 41
0.48
  0
VERTEX
  8
0
 10
111.981
 20
160.744
 30
0.0
 40
0.48
 41
0.48
  0
VERTEX
  8
0
 10
111.999
 20
160.814
 30
0.0
 40
0.48
 41
0.48
  0
VERTEX
  8
0
 10
112.05
 20
160.89
 30
0.0
 40
0.48
 41
0.48
  0
VERTEX
  8
0
 10
112.125
 20
160.943
 30
0.0
 40
0.48
 41
0.48
  0
VERTEX
  8
0
 10
112.196
 20
160.961
 30
0.0
 40
0.48
 41
0.48
  0
VERTEX
  8
0
 10
112.22
 20
160.961
 30
0.0
 40
0.48
 41
0.48
  0
VERTEX
  8
0
 10
115.22
 20
160.961
 30
0.0
 40
0.48
 41
0.48
  0
VERTEX
  8
0
 10
115.196
 20
160.961
 30
0.0
 40
0.48
 41
0.48
  0
VERTEX
  8
0
 10
115.125
 20
160.943
 30
0.0
 40
0.48
 41
0.48
  0
VERTEX
  8
0
 10
115.05
 20
160.89
 30
0.0
 40
0.48
 41
0.48
  0
VERTEX
  8
0
 10
114.999
 20
160.814
 30
0.0
 40
0.48
 41
0.48
  0
VERTEX
  8
0
 10
114.981
 20
160.744
 30
0.0
 40
0.48
 41
0.48
  0
VERTEX
  8
0
 10
114.981
 20
160.721
 30
0.0
 40
0.48
 41
0.48
  0
VERTEX
  8
0
 10
114.981
 20
166.721
 30
0.0
 40
0.48
 41
0.48
  0
VERTEX
  8
0
 10
114.981
 20
166.697
 30
0.0
 40
0.48
 41
0.48
  0
VERTEX
  8
0
 10
114.999
 20
166.627
 30
0.0
 40
0.48
 41
0.48
  0
VERTEX
  8
0
 10
115.05
 20
166.551
 30
0.0
 40
0.48
 41
0.48
  0
VERTEX
  8
0
 10
115.125
 20
166.499
 30
0.0
 40
0.48
 41
0.48
  0
VERTEX
  8
0
 10
115.196
 20
166.479
 30
0.0
 40
0.48
 41
0.48
  0
VERTEX
  8
0
 10
115.22
 20
166.479
 30
0.0
 40
0.48
 41
0.48
  0
VERTEX
  8
0
 10
112.22
 20
166.479
 30
0.0
 40
0.48
 41
0.48
  0
VERTEX
  8
0
 10
112.196
 20
166.479
 30
0.0
 40
0.48
 41
0.48
  0
VERTEX
  8
0
 10
112.125
 20
166.499
 30
0.0
 40
0.48
 41
0.48
  0
VERTEX
  8
0
 10
112.05
 20
166.551
 30
0.0
 40
0.48
 41
0.48
  0
VERTEX
  8
0
 10
111.999
 20
166.627
 30
0.0
 40
0.48
 41
0.48
  0
VERTEX
  8
0
 10
111.981
 20
166.697
 30
0.0
 40
0.48
 41
0.48
  0
VERTEX
  8
0
 10
111.981
 20
166.721
 30
0.0
 40
0.48
 41
0.48
  0
VERTEX
  8
0
 10
111.981
 20
172.721
 30
0.0
 40
0.48
 41
0.48
  0
VERTEX
  8
0
 10
111.981
 20
172.744
 30
0.0
 40
0.48
 41
0.48
  0
VERTEX
  8
0
 10
111.999
 20
172.814
 30
0.0
 40
0.48
 41
0.48
  0
VERTEX
  8
0
 10
112.05
 20
172.89
 30
0.0
 40
0.48
 41
0.48
  0
VERTEX
  8
0
 10
112.125
 20
172.942
 30
0.0
 40
0.48
 41
0.48
  0
VERTEX
  8
0
 10
112.196
 20
172.96
 30
0.0
 40
0.48
 41
0.48
  0
VERTEX
  8
0
 10
112.22
 20
172.96
 30
0.0
 40
0.48
 41
0.48
  0
VERTEX
  8
0
 10
115.22
 20
172.96
 30
0.0
 40
0.48
 41
0.48
  0
VERTEX
  8
0
 10
115.196
 20
172.96
 30
0.0
 40
0.48
 41
0.48
  0
VERTEX
  8
0
 10
115.125
 20
172.942
 30
0.0
 40
0.48
 41
0.48
  0
VERTEX
  8
0
 10
115.05
 20
172.89
 30
0.0
 40
0.48
 41
0.48
  0
VERTEX
  8
0
 10
114.999
 20
172.814
 30
0.0
 40
0.48
 41
0.48
  0
VERTEX
  8
0
 10
114.981
 20
172.744
 30
0.0
 40
0.48
 41
0.48
  0
VERTEX
  8
0
 10
114.981
 20
172.721
 30
0.0
 40
0.48
 41
0.48
  0
VERTEX
  8
0
 10
114.981
 20
178.72
 30
0.0
 40
0.48
 41
0.48
  0
VERTEX
  8
0
 10
114.981
 20
178.697
 30
0.0
 40
0.48
 41
0.48
  0
VERTEX
  8
0
 10
114.999
 20
178.627
 30
0.0
 40
0.48
 41
0.48
  0
VERTEX
  8
0
 10
115.05
 20
178.551
 30
0.0
 40
0.48
 41
0.48
  0
VERTEX
  8
0
 10
115.125
 20
178.5
 30
0.0
 40
0.48
 41
0.48
  0
VERTEX
  8
0
 10
115.196
 20
178.481
 30
0.0
 40
0.48
 41
0.48
  0
VERTEX
  8
0
 10
115.22
 20
178.481
 30
0.0
 40
0.48
 41
0.48
  0
VERTEX
  8
0
 10
112.22
 20
178.481
 30
0.0
 40
0.48
 41
0.48
  0
VERTEX
  8
0
 10
112.196
 20
178.481
 30
0.0
 40
0.48
 41
0.48
  0
VERTEX
  8
0
 10
112.125
 20
178.5
 30
0.0
 40
0.48
 41
0.48
  0
VERTEX
  8
0
 10
112.05
 20
178.551
 30
0.0
 40
0.48
 41
0.48
  0
VERTEX
  8
0
 10
111.999
 20
178.627
 30
0.0
 40
0.48
 41
0.48
  0
VERTEX
  8
0
 10
111.981
 20
178.697
 30
0.0
 40
0.48
 41
0.48
  0
VERTEX
  8
0
 10
111.981
 20
178.72
 30
0.0
 40
0.48
 41
0.48
  0
VERTEX
  8
0
 10
111.981
 20
184.72
 30
0.0
 40
0.48
 41
0.48
  0
VERTEX
  8
0
 10
111.981
 20
184.744
 30
0.0
 40
0.48
 41
0.48
  0
VERTEX
  8
0
 10
111.999
 20
184.814
 30
0.0
 40
0.48
 41
0.48
  0
VERTEX
  8
0
 10
112.05
 20
184.89
 30
0.0
 40
0.48
 41
0.48
  0
VERTEX
  8
0
 10
112.125
 20
184.942
 30
0.0
 40
0.48
 41
0.48
  0
VERTEX
  8
0
 10
112.196
 20
184.96
 30
0.0
 40
0.48
 41
0.48
  0
VERTEX
  8
0
 10
112.22
 20
184.96
 30
0.0
 40
0.48
 41
0.48
  0
VERTEX
  8
0
 10
115.22
 20
184.96
 30
0.0
 40
0.48
 41
0.48
  0
VERTEX
  8
0
 10
115.196
 20
184.96
 30
0.0
 40
0.48
 41
0.48
  0
VERTEX
  8
0
 10
115.125
 20
184.942
 30
0.0
 40
0.48
 41
0.48
  0
VERTEX
  8
0
 10
115.05
 20
184.89
 30
0.0
 40
0.48
 41
0.48
  0
VERTEX
  8
0
 10
114.999
 20
184.814
 30
0.0
 40
0.48
 41
0.48
  0
VERTEX
  8
0
 10
114.981
 20
184.744
 30
0.0
 40
0.48
 41
0.48
  0
VERTEX
  8
0
 10
114.981
 20
184.72
 30
0.0
 40
0.48
 41
0.48
  0
VERTEX
  8
0
 10
114.981
 20
195.72
 30
0.0
 40
0.48
 41
0.48
  0
VERTEX
  8
0
 10
114.981
 20
196.219
 30
0.0
 40
0.48
 41
0.48
  0
VERTEX
  8
0
 10
115.112
 20
197.714
 30
0.0
 40
0.48
 41
0.48
  0
VERTEX
  8
0
 10
115.499
 20
199.665
 30
0.0
 40
0.48
 41
0.48
  0
VERTEX
  8
0
 10
116.138
 20
201.549
 30
0.0
 40
0.48
 41
0.48
  0
VERTEX
  8
0
 10
116.772
 20
202.909
 30
0.0
 40
0.48
 41
0.48
  0
VERTEX
  8
0
 10
117.022
 20
203.34
 30
0.0
 40
0.48
 41
0.48
  0
VERTEX
  8
0
 10
117.146
 20
203.557
 30
0.0
 40
0.48
 41
0.48
  0
VERTEX
  8
0
 10
117.549
 20
204.191
 30
0.0
 40
0.48
 41
0.48
  0
VERTEX
  8
0
 10
118.131
 20
205.002
 30
0.0
 40
0.48
 41
0.48
  0
VERTEX
  8
0
 10
118.763
 20
205.771
 30
0.0
 40
0.48
 41
0.48
  0
VERTEX
  8
0
 10
119.443
 20
206.498
 30
0.0
 40
0.48
 41
0.48
  0
VERTEX
  8
0
 10
120.169
 20
207.177
 30
0.0
 40
0.48
 41
0.48
  0
VERTEX
  8
0
 10
120.938
 20
207.808
 30
0.0
 40
0.48
 41
0.48
  0
VERTEX
  8
0
 10
121.75
 20
208.39
 30
0.0
 40
0.48
 41
0.48
  0
VERTEX
  8
0
 10
122.384
 20
208.793
 30
0.0
 40
0.48
 41
0.48
  0
VERTEX
  8
0
 10
122.6
 20
208.917
 30
0.0
 40
0.48
 41
0.48
  0
VERTEX
  8
0
 10
123.031
 20
209.167
 30
0.0
 40
0.48
 41
0.48
  0
VERTEX
  8
0
 10
124.391
 20
209.802
 30
0.0
 40
0.48
 41
0.48
  0
VERTEX
  8
0
 10
126.275
 20
210.441
 30
0.0
 40
0.48
 41
0.48
  0
VERTEX
  8
0
 10
128.227
 20
210.829
 30
0.0
 40
0.48
 41
0.48
  0
VERTEX
  8
0
 10
129.722
 20
210.96
 30
0.0
 40
0.48
 41
0.48
  0
VERTEX
  8
0
 10
130.221
 20
210.96
 30
0.0
 40
0.48
 41
0.48
  0
VERTEX
  8
0
 10
194.221
 20
210.96
 30
0.0
 40
0.48
 41
0.48
  0
VERTEX
  8
0
 10
194.718
 20
210.96
 30
0.0
 40
0.48
 41
0.48
  0
VERTEX
  8
0
 10
196.213
 20
210.829
 30
0.0
 40
0.48
 41
0.48
  0
VERTEX
  8
0
 10
198.165
 20
210.441
 30
0.0
 40
0.48
 41
0.48
  0
VERTEX
  8
0
 10
200.047
 20
209.802
 30
0.0
 40
0.48
 41
0.48
  0
VERTEX
  8
0
 10
201.407
 20
209.167
 30
0.0
 40
0.48
 41
0.48
  0
VERTEX
  8
0
 10
201.84
 20
208.917
 30
0.0
 40
0.48
 41
0.48
  0
VERTEX
  8
0
 10
202.055
 20
208.793
 30
0.0
 40
0.48
 41
0.48
  0
VERTEX
  8
0
 10
202.689
 20
208.39
 30
0.0
 40
0.48
 41
0.48
  0
VERTEX
  8
0
 10
203.501
 20
207.808
 30
0.0
 40
0.48
 41
0.48
  0
VERTEX
  8
0
 10
204.269
 20
207.177
 30
0.0
 40
0.48
 41
0.48
  0
VERTEX
  8
0
 10
204.996
 20
206.498
 30
0.0
 40
0.48
 41
0.48
  0
VERTEX
  8
0
 10
205.677
 20
205.771
 30
0.0
 40
0.48
 41
0.48
  0
VERTEX
  8
0
 10
206.308
 20
205.002
 30
0.0
 40
0.48
 41
0.48
  0
VERTEX
  8
0
 10
206.889
 20
204.191
 30
0.0
 40
0.48
 41
0.48
  0
VERTEX
  8
0
 10
207.293
 20
203.558
 30
0.0
 40
0.48
 41
0.48
  0
VERTEX
  8
0
 10
207.418
 20
203.34
 30
0.0
 40
0.48
 41
0.48
  0
VERTEX
  8
0
 10
207.666
 20
202.909
 30
0.0
 40
0.48
 41
0.48
  0
VERTEX
  8
0
 10
208.302
 20
201.549
 30
0.0
 40
0.48
 41
0.48
  0
VERTEX
  8
0
 10
208.941
 20
199.665
 30
0.0
 40
0.48
 41
0.48
  0
VERTEX
  8
0
 10
209.328
 20
197.714
 30
0.0
 40
0.48
 41
0.48
  0
VERTEX
  8
0
 10
209.46
 20
196.219
 30
0.0
 40
0.48
 41
0.48
  0
VERTEX
  8
0
 10
209.46
 20
195.72
 30
0.0
 40
0.48
 41
0.48
  0
VERTEX
  8
0
 10
209.46
 20
195.743
 30
0.0
 40
0.48
 41
0.48
  0
VERTEX
  8
0
 10
209.441
 20
195.814
 30
0.0
 40
0.48
 41
0.48
  0
VERTEX
  8
0
 10
209.39
 20
195.889
 30
0.0
 40
0.48
 41
0.48
  0
VERTEX
  8
0
 10
209.313
 20
195.942
 30
0.0
 40
0.48
 41
0.48
  0
VERTEX
  8
0
 10
209.243
 20
195.96
 30
0.0
 40
0.48
 41
0.48
  0
VERTEX
  8
0
 10
209.22
 20
195.96
 30
0.0
 40
0.48
 41
0.48
  0
VERTEX
  8
0
 10
212.221
 20
195.96
 30
0.0
 40
0.48
 41
0.48
  0
VERTEX
  8
0
 10
212.243
 20
195.96
 30
0.0
 40
0.48
 41
0.48
  0
VERTEX
  8
0
 10
212.313
 20
195.942
 30
0.0
 40
0.48
 41
0.48
  0
VERTEX
  8
0
 10
212.39
 20
195.889
 30
0.0
 40
0.48
 41
0.48
  0
VERTEX
  8
0
 10
212.441
 20
195.814
 30
0.0
 40
0.48
 41
0.48
  0
VERTEX
  8
0
 10
212.46
 20
195.743
 30
0.0
 40
0.48
 41
0.48
  0
VERTEX
  8
0
 10
212.46
 20
195.72
 30
0.0
 40
0.48
 41
0.48
  0
VERTEX
  8
0
 10
212.46
 20
183.72
 30
0.0
 40
0.48
 41
0.48
  0
VERTEX
  8
0
 10
212.46
 20
183.698
 30
0.0
 40
0.48
 41
0.48
  0
VERTEX
  8
0
 10
212.441
 20
183.628
 30
0.0
 40
0.48
 41
0.48
  0
VERTEX
  8
0
 10
212.39
 20
183.551
 30
0.0
 40
0.48
 41
0.48
  0
VERTEX
  8
0
 10
212.313
 20
183.499
 30
0.0
 40
0.48
 41
0.48
  0
VERTEX
  8
0
 10
212.243
 20
183.48
 30
0.0
 40
0.48
 41
0.48
  0
VERTEX
  8
0
 10
212.221
 20
183.48
 30
0.0
 40
0.48
 41
0.48
  0
VERTEX
  8
0
 10
209.22
 20
183.48
 30
0.0
 40
0.48
 41
0.48
  0
VERTEX
  8
0
 10
209.243
 20
183.48
 30
0.0
 40
0.48
 41
0.48
  0
VERTEX
  8
0
 10
209.313
 20
183.499
 30
0.0
 40
0.48
 41
0.48
  0
VERTEX
  8
0
 10
209.39
 20
183.551
 30
0.0
 40
0.48
 41
0.48
  0
VERTEX
  8
0
 10
209.441
 20
183.628
 30
0.0
 40
0.48
 41
0.48
  0
VERTEX
  8
0
 10
209.46
 20
183.698
 30
0.0
 40
0.48
 41
0.48
  0
VERTEX
  8
0
 10
209.46
 20
183.72
 30
0.0
 40
0.48
 41
0.48
  0
VERTEX
  8
0
 10
209.46
 20
171.72
 30
0.0
 40
0.48
 41
0.48
  0
VERTEX
  8
0
 10
209.46
 20
160.721
 30
0.0
 40
0.48
 41
0.48
  0
VERTEX
  8
0
 10
209.46
 20
160.744
 30
0.0
 40
0.48
 41
0.48
  0
VERTEX
  8
0
 10
209.441
 20
160.814
 30
0.0
 40
0.48
 41
0.48
  0
VERTEX
  8
0
 10
209.39
 20
160.89
 30
0.0
 40
0.48
 41
0.48
  0
VERTEX
  8
0
 10
209.313
 20
160.943
 30
0.0
 40
0.48
 41
0.48
  0
VERTEX
  8
0
 10
209.243
 20
160.961
 30
0.0
 40
0.48
 41
0.48
  0
VERTEX
  8
0
 10
209.22
 20
160.961
 30
0.0
 40
0.48
 41
0.48
  0
VERTEX
  8
0
 10
212.221
 20
160.961
 30
0.0
 40
0.48
 41
0.48
  0
VERTEX
  8
0
 10
212.243
 20
160.961
 30
0.0
 40
0.48
 41
0.48
  0
VERTEX
  8
0
 10
212.313
 20
160.943
 30
0.0
 40
0.48
 41
0.48
  0
VERTEX
  8
0
 10
212.39
 20
160.89
 30
0.0
 40
0.48
 41
0.48
  0
VERTEX
  8
0
 10
212.441
 20
160.814
 30
0.0
 40
0.48
 41
0.48
  0
VERTEX
  8
0
 10
212.46
 20
160.744
 30
0.0
 40
0.48
 41
0.48
  0
VERTEX
  8
0
 10
212.46
 20
160.721
 30
0.0
 40
0.48
 41
0.48
  0
VERTEX
  8
0
 10
212.46
 20
154.719
 30
0.0
 40
0.48
 41
0.48
  0
VERTEX
  8
0
 10
212.46
 20
154.697
 30
0.0
 40
0.48
 41
0.48
  0
VERTEX
  8
0
 10
212.441
 20
154.627
 30
0.0
 40
0.48
 41
0.48
  0
VERTEX
  8
0
 10
212.39
 20
154.55
 30
0.0
 40
0.48
 41
0.48
  0
VERTEX
  8
0
 10
212.313
 20
154.499
 30
0.0
 40
0.48
 41
0.48
  0
VERTEX
  8
0
 10
212.243
 20
154.48
 30
0.0
 40
0.48
 41
0.48
  0
VERTEX
  8
0
 10
212.221
 20
154.48
 30
0.0
 40
0.48
 41
0.48
  0
VERTEX
  8
0
 10
209.22
 20
154.48
 30
0.0
 40
0.48
 41
0.48
  0
VERTEX
  8
0
 10
209.243
 20
154.48
 30
0.0
 40
0.48
 41
0.48
  0
VERTEX
  8
0
 10
209.313
 20
154.499
 30
0.0
 40
0.48
 41
0.48
  0
VERTEX
  8
0
 10
209.39
 20
154.55
 30
0.0
 40
0.48
 41
0.48
  0
VERTEX
  8
0
 10
209.441
 20
154.627
 30
0.0
 40
0.48
 41
0.48
  0
VERTEX
  8
0
 10
209.46
 20
154.697
 30
0.0
 40
0.48
 41
0.48
  0
VERTEX
  8
0
 10
209.46
 20
154.719
 30
0.0
 40
0.48
 41
0.48
  0
VERTEX
  8
0
 10
209.46
 20
148.721
 30
0.0
 40
0.48
 41
0.48
  0
VERTEX
  8
0
 10
209.46
 20
148.744
 30
0.0
 40
0.48
 41
0.48
  0
VERTEX
  8
0
 10
209.441
 20
148.814
 30
0.0
 40
0.48
 41
0.48
  0
VERTEX
  8
0
 10
209.39
 20
148.89
 30
0.0
 40
0.48
 41
0.48
  0
VERTEX
  8
0
 10
209.313
 20
148.942
 30
0.0
 40
0.48
 41
0.48
  0
VERTEX
  8
0
 10
209.243
 20
148.96
 30
0.0
 40
0.48
 41
0.48
  0
VERTEX
  8
0
 10
209.22
 20
148.96
 30
0.0
 40
0.48
 41
0.48
  0
VERTEX
  8
0
 10
212.221
 20
148.96
 30
0.0
 40
0.48
 41
0.48
  0
VERTEX
  8
0
 10
212.243
 20
148.96
 30
0.0
 40
0.48
 41
0.48
  0
VERTEX
  8
0
 10
212.313
 20
148.942
 30
0.0
 40
0.48
 41
0.48
  0
VERTEX
  8
0
 10
212.39
 20
148.89
 30
0.0
 40
0.48
 41
0.48
  0
VERTEX
  8
0
 10
212.441
 20
148.814
 30
0.0
 40
0.48
 41
0.48
  0
VERTEX
  8
0
 10
212.46
 20
148.744
 30
0.0
 40
0.48
 41
0.48
  0
VERTEX
  8
0
 10
212.46
 20
148.721
 30
0.0
 40
0.48
 41
0.48
  0
VERTEX
  8
0
 10
212.46
 20
142.721
 30
0.0
 40
0.48
 41
0.48
  0
VERTEX
  8
0
 10
212.46
 20
142.697
 30
0.0
 40
0.48
 41
0.48
  0
VERTEX
  8
0
 10
212.441
 20
142.627
 30
0.0
 40
0.48
 41
0.48
  0
VERTEX
  8
0
 10
212.39
 20
142.551
 30
0.0
 40
0.48
 41
0.48
  0
VERTEX
  8
0
 10
212.313
 20
142.499
 30
0.0
 40
0.48
 41
0.48
  0
VERTEX
  8
0
 10
212.243
 20
142.48
 30
0.0
 40
0.48
 41
0.48
  0
VERTEX
  8
0
 10
212.221
 20
142.48
 30
0.0
 40
0.48
 41
0.48
  0
VERTEX
  8
0
 10
209.22
 20
142.48
 30
0.0
 40
0.48
 41
0.48
  0
VERTEX
  8
0
 10
209.243
 20
142.48
 30
0.0
 40
0.48
 41
0.48
  0
VERTEX
  8
0
 10
209.313
 20
142.499
 30
0.0
 40
0.48
 41
0.48
  0
VERTEX
  8
0
 10
209.39
 20
142.551
 30
0.0
 40
0.48
 41
0.48
  0
VERTEX
  8
0
 10
209.441
 20
142.627
 30
0.0
 40
0.48
 41
0.48
  0
VERTEX
  8
0
 10
209.46
 20
142.697
 30
0.0
 40
0.48
 41
0.48
  0
VERTEX
  8
0
 10
209.46
 20
142.721
 30
0.0
 40
0.48
 41
0.48
  0
VERTEX
  8
0
 10
209.46
 20
131.72
 30
0.0
 40
0.48
 41
0.48
  0
VERTEX
  8
0
 10
209.46
 20
131.222
 30
0.0
 40
0.48
 41
0.48
  0
VERTEX
  8
0
 10
209.328
 20
129.727
 30
0.0
 40
0.48
 41
0.48
  0
VERTEX
  8
0
 10
208.941
 20
127.776
 30
0.0
 40
0.48
 41
0.48
  0
VERTEX
  8
0
 10
208.302
 20
125.893
 30
0.0
 40
0.48
 41
0.48
  0
VERTEX
  8
0
 10
207.666
 20
124.533
 30
0.0
 40
0.48
 41
0.48
  0
VERTEX
  8
0
 10
207.418
 20
124.101
 30
0.0
 40
0.48
 41
0.48
  0
VERTEX
  8
0
 10
207.293
 20
123.884
 30
0.0
 40
0.48
 41
0.48
  0
VERTEX
  8
0
 10
206.889
 20
123.25
 30
0.0
 40
0.48
 41
0.48
  0
VERTEX
  8
0
 10
206.308
 20
122.44
 30
0.0
 40
0.48
 41
0.48
  0
VERTEX
  8
0
 10
205.677
 20
121.67
 30
0.0
 40
0.48
 41
0.48
  0
VERTEX
  8
0
 10
204.996
 20
120.944
 30
0.0
 40
0.48
 41
0.48
  0
VERTEX
  8
0
 10
204.269
 20
120.264
 30
0.0
 40
0.48
 41
0.48
  0
VERTEX
  8
0
 10
203.501
 20
119.633
 30
0.0
 40
0.48
 41
0.48
  0
VERTEX
  8
0
 10
202.689
 20
119.052
 30
0.0
 40
0.48
 41
0.48
  0
VERTEX
  8
0
 10
202.056
 20
118.648
 30
0.0
 40
0.48
 41
0.48
  0
VERTEX
  8
0
 10
201.84
 20
118.522
 30
0.0
 40
0.48
 41
0.48
  0
VERTEX
  8
0
 10
201.407
 20
118.274
 30
0.0
 40
0.48
 41
0.48
  0
VERTEX
  8
0
 10
200.047
 20
117.639
 30
0.0
 40
0.48
 41
0.48
  0
VERTEX
  8
0
 10
198.165
 20
116.999
 30
0.0
 40
0.48
 41
0.48
  0
VERTEX
  8
0
 10
196.213
 20
116.612
 30
0.0
 40
0.48
 41
0.48
  0
VERTEX
  8
0
 10
194.718
 20
116.48
 30
0.0
 40
0.48
 41
0.48
  0
VERTEX
  8
0
 10
194.221
 20
116.48
 30
0.0
 40
0.48
 41
0.48
  0
SEQEND
 8
0
  0
ENDSEC
  0
EOF
