  0
SECTION
  2
HEADER
  9
$ACADVER
  1
AC1014
  9
$HANDSEED
  5
FFFF
  9
$MEASUREMENT
 70
     1
  0
ENDSEC
  0
SECTION
  2
TABLES
  0
TABLE
  2
VPORT
  5
8
330
0
100
AcDbSymbolTable
 70
     4
  0
VPORT
  5
2E
330
8
100
AcDbSymbolTableRecord
100
AcDbViewportTableRecord
  2
*ACTIVE
 70
     0
 10
0.0
 20
0.0
 11
1.0
 21
1.0
 12
210.0
 22
148.5
 13
0.0
 23
0.0
 14
10.0
 24
10.0
 15
10.0
 25
10.0
 16
0.0
 26
0.0
 36
1.0
 17
0.0
 27
0.0
 37
0.0
 40
341.0
 41
1.24
 42
50.0
 43
0.0
 44
0.0
 50
0.0
 51
0.0
 71
     0
 72
   100
 73
     1
 74
     3
 75
     0
 76
     0
 77
     0
 78
     0
  0
ENDTAB
  0
TABLE
  2
LTYPE
  5
5
330
0
100
AcDbSymbolTable
 70
     1
  0
LTYPE
  5
14
330
5
100
AcDbSymbolTableRecord
100
AcDbLinetypeTableRecord
  2
BYBLOCK
 70
     0
  3

 72
    65
 73
     0
 40
0.0
  0
LTYPE
  5
15
330
5
100
AcDbSymbolTableRecord
100
AcDbLinetypeTableRecord
  2
BYLAYER
 70
     0
  3

 72
    65
 73
     0
 40
0.0
  0
LTYPE
  5
16
330
5
100
AcDbSymbolTableRecord
100
AcDbLinetypeTableRecord
  2
CONTINUOUS
 70
     0
  3
Solid line
 72
    65
 73
     0
 40
0.0
  0
ENDTAB
  0
TABLE
  2
LAYER
  5
2
100
AcDbSymbolTable
 70
2
  0
LAYER
  5
50
100
AcDbSymbolTableRecord
100
AcDbLayerTableRecord
  2
0
 70
0
  6
CONTINUOUS
  0
LAYER
  5
51
100
AcDbSymbolTableRecord
100
AcDbLayerTableRecord
  2
Layer_1
 70
0
  6
CONTINUOUS
  0
ENDTAB
  0
TABLE
  2
STYLE
  5
3
330
0
100
AcDbSymbolTable
 70
     1
  0
STYLE
  5
11
330
3
100
AcDbSymbolTableRecord
100
AcDbTextStyleTableRecord
  2
STANDARD
 70
     0
 40
0.0
 41
1.0
 50
0.0
 71
     0
 42
2.5
  3
txt
  4

  0
ENDTAB
  0
TABLE
  2
VIEW
  5
6
330
0
100
AcDbSymbolTable
 70
     0
  0
ENDTAB
  0
TABLE
  2
UCS
  5
7
330
0
100
AcDbSymbolTable
 70
     0
  0
ENDTAB
  0
TABLE
  2
APPID
  5
9
330
0
100
AcDbSymbolTable
 70
     2
  0
APPID
  5
12
330
9
100
AcDbSymbolTableRecord
100
AcDbRegAppTableRecord
  2
ACAD
 70
     0
  0
ENDTAB
  0
TABLE
  2
DIMSTYLE
  5
A
330
0
100
AcDbSymbolTable
 70
     1
  0
DIMSTYLE
105
27
330
A
100
AcDbSymbolTableRecord
100
AcDbDimStyleTableRecord
  2
ISO-25
 70
     0
  3

  4

  5

  6

  7

 40
1.0
 41
2.5
 42
0.625
 43
3.75
 44
1.25
 45
0.0
 46
0.0
 47
0.0
 48
0.0
140
2.5
141
2.5
142
0.0
143
0.03937007874016
144
1.0
145
0.0
146
1.0
147
0.625
 71
     0
 72
     0
 73
     0
 74
     0
 75
     0
 76
     0
 77
     1
 78
     8
170
     0
171
     3
172
     1
173
     0
174
     0
175
     0
176
     0
177
     0
178
     0
270
     2
271
     2
272
     2
273
     2
274
     3
340
11
275
     0
280
     0
281
     0
282
     0
283
     0
284
     8
285
     0
286
     0
287
     3
288
     0
  0
ENDTAB
  0
TABLE
  2
BLOCK_RECORD
  5
1
330
0
100
AcDbSymbolTable
 70
     1
  0
BLOCK_RECORD
  5
1F
330
1
100
AcDbSymbolTableRecord
100
AcDbBlockTableRecord
  2
*MODEL_SPACE
  0
BLOCK_RECORD
  5
1B
330
1
100
AcDbSymbolTableRecord
100
AcDbBlockTableRecord
  2
*PAPER_SPACE
  0
ENDTAB
  0
ENDSEC
  0
SECTION
  2
BLOCKS
  0
BLOCK
  5
20
330
1F
100
AcDbEntity
  8
0
100
AcDbBlockBegin
  2
*MODEL_SPACE
 70
     0
 10
0.0
 20
0.0
 30
0.0
  3
*MODEL_SPACE
  1

  0
ENDBLK
  5
21
330
1F
100
AcDbEntity
  8
0
100
AcDbBlockEnd
  0
BLOCK
  5
1C
330
1B
100
AcDbEntity
 67
     1
  8
0
100
AcDbBlockBegin
  2
*PAPER_SPACE
  1

  0
ENDBLK
  5
1D
330
1B
100
AcDbEntity
 67
     1
  8
0
100
AcDbBlockEnd
  0
ENDSEC
  0
SECTION
  2
ENTITIES
  0
SPLINE
  5
100
100
AcDbEntity
  8
Layer_1
 62
7
100
AcDbSpline
 70
0
 71
3
 72
10
 73
6
 74
4
 40
0.000000
 40
0.000000
 40
0.000000
 40
0.000000
 40
4.697769
 40
9.312730
 40
14.010499
 40
14.010499
 40
14.010499
 40
14.010499
 10
84.145767
 20
225.848788
 30
0.0
 10
82.576259
 20
225.665112
 30
0.0
 10
79.464910
 20
225.300998
 30
0.0
 10
75.381489
 20
222.591594
 30
0.0
 10
73.836779
 20
219.866352
 30
0.0
 10
73.057556
 20
218.491615
 30
0.0
 11
84.145767
 21
225.848788
 31
0.0
 11
79.538296
 21
224.932140
 31
0.0
 11
75.692828
 21
222.380622
 31
0.0
 11
73.057556
 21
218.491615
 31
0.0
  0
LWPOLYLINE
  5
101
100
AcDbEntity
  8
Layer_1
 62
7
100
AcDbPolyline
 90
2
 70
0
 10
73.057556
 20
218.491615
 30
0.0
 10
31.336072
 20
218.491615
 30
0.0
  0
SPLINE
  5
102
100
AcDbEntity
  8
Layer_1
 62
7
100
AcDbSpline
 70
0
 71
3
 72
10
 73
6
 74
4
 40
0.000000
 40
0.000000
 40
0.000000
 40
0.000000
 40
0.977840
 40
1.924500
 40
2.902246
 40
2.902246
 40
2.902246
 40
2.902246
 10
31.336072
 20
218.491615
 30
0.0
 10
31.008256
 20
218.440655
 30
0.0
 10
30.363075
 20
218.340362
 30
0.0
 10
29.619332
 20
217.596984
 30
0.0
 10
29.518963
 20
216.951821
 30
0.0
 10
29.467968
 20
216.624029
 30
0.0
 11
31.336072
 21
218.491615
 31
0.0
 11
30.391863
 21
218.237369
 31
0.0
 11
29.722349
 21
217.568104
 31
0.0
 11
29.467968
 21
216.624029
 31
0.0
  0
LWPOLYLINE
  5
103
100
AcDbEntity
  8
Layer_1
 62
7
100
AcDbPolyline
 90
2
 70
0
 10
29.467968
 20
216.624029
 30
0.0
 10
29.467968
 20
183.003860
 30
0.0
  0
SPLINE
  5
104
100
AcDbEntity
  8
Layer_1
 62
7
100
AcDbSpline
 70
0
 71
3
 72
10
 73
6
 74
4
 40
0.000000
 40
0.000000
 40
0.000000
 40
0.000000
 40
0.977746
 40
1.924407
 40
2.902247
 40
2.902247
 40
2.902247
 40
2.902247
 10
29.467968
 20
183.003860
 30
0.0
 10
29.518963
 20
182.676067
 30
0.0
 10
29.619332
 20
182.030904
 30
0.0
 10
30.363075
 20
181.287525
 30
0.0
 10
31.008255
 20
181.187231
 30
0.0
 10
31.336072
 20
181.136272
 30
0.0
 11
29.467968
 21
183.003860
 31
0.0
 11
29.722349
 21
182.059784
 31
0.0
 11
30.391863
 21
181.390518
 31
0.0
 11
31.336072
 21
181.136272
 31
0.0
  0
LWPOLYLINE
  5
105
100
AcDbEntity
  8
Layer_1
 62
7
100
AcDbPolyline
 90
2
 70
0
 10
31.336072
 20
181.136272
 30
0.0
 10
81.955721
 20
181.136272
 30
0.0
  0
SPLINE
  5
106
100
AcDbEntity
  8
Layer_1
 62
7
100
AcDbSpline
 70
0
 71
3
 72
10
 73
6
 74
4
 40
0.000000
 40
0.000000
 40
0.000000
 40
0.000000
 40
0.977711
 40
1.924195
 40
2.901906
 40
2.901906
 40
2.901906
 40
2.901906
 10
81.955721
 20
181.136272
 30
0.0
 10
82.283503
 20
181.187224
 30
0.0
 10
82.928598
 20
181.287501
 30
0.0
 10
83.672077
 20
182.030982
 30
0.0
 10
83.772354
 20
182.676077
 30
0.0
 10
83.823306
 20
183.003860
 30
0.0
 11
81.955721
 21
181.136272
 31
0.0
 11
82.899796
 21
181.390518
 31
0.0
 11
83.569060
 21
182.059784
 31
0.0
 11
83.823306
 21
183.003860
 31
0.0
  0
LWPOLYLINE
  5
107
100
AcDbEntity
  8
Layer_1
 62
7
100
AcDbPolyline
 90
2
 70
0
 10
83.823306
 20
183.003860
 30
0.0
 10
83.823306
 20
201.783590
 30
0.0
  0
SPLINE
  5
108
100
AcDbEntity
  8
Layer_1
 62
7
100
AcDbSpline
 70
0
 71
3
 72
22
 73
18
 74
16
 40
0.000000
 40
0.000000
 40
0.000000
 40
0.000000
 40
0.107499
 40
0.214997
 40
0.322496
 40
3.472874
 40
6.597181
 40
9.747560
 40
12.897938
 40
16.022245
 40
19.172623
 40
22.323088
 40
25.447479
 40
28.597944
 40
31.748408
 40
34.872800
 40
38.023264
 40
38.023264
 40
38.023264
 40
38.023264
 10
83.823306
 20
201.783590
 30
0.0
 10
83.859129
 20
201.782743
 30
0.0
 10
83.930775
 20
201.781050
 30
0.0
 10
84.038270
 20
201.779726
 30
0.0
 10
85.159986
 20
201.775248
 30
0.0
 10
87.297802
 20
202.056035
 30
0.0
 10
90.231569
 20
203.272181
 30
0.0
 10
92.754064
 20
205.205794
 30
0.0
 10
94.687747
 20
207.727766
 30
0.0
 10
95.903735
 20
210.663191
 30
0.0
 10
96.319717
 20
213.813838
 30
0.0
 10
95.903849
 20
216.964838
 30
0.0
 10
94.687954
 20
219.899471
 30
0.0
 10
92.754158
 20
222.424929
 30
0.0
 10
90.232085
 20
224.346106
 30
0.0
 10
87.296550
 20
225.608845
 30
0.0
 10
85.198933
 20
225.768586
 30
0.0
 10
84.145767
 20
225.848788
 30
0.0
 11
83.823306
 21
201.783590
 31
0.0
 11
83.930780
 21
201.781252
 31
0.0
 11
84.038269
 21
201.779875
 31
0.0
 11
84.145767
 21
201.779457
 31
0.0
 11
87.269058
 21
202.191689
 31
0.0
 11
90.155571
 21
203.387239
 31
0.0
 11
92.655657
 21
205.304125
 31
0.0
 11
94.572651
 21
207.804129
 31
0.0
 11
95.768325
 21
210.690590
 31
0.0
 11
96.180692
 21
213.813863
 31
0.0
 11
95.768437
 21
216.937239
 31
0.0
 11
94.572824
 21
219.823816
 31
0.0
 11
92.655841
 21
222.323937
 31
0.0
 11
90.155720
 21
224.240920
 31
0.0
 11
87.269142
 21
225.436533
 31
0.0
 11
84.145767
 21
225.848788
 31
0.0
  0
LWPOLYLINE
  5
109
100
AcDbEntity
  8
Layer_1
 62
7
100
AcDbPolyline
 90
1
 70
1
 10
84.145767
 20
225.848788
 30
0.0
  0
SPLINE
  5
10a
100
AcDbEntity
  8
Layer_1
 62
7
100
AcDbSpline
 70
0
 71
3
 72
22
 73
18
 74
16
 40
0.000000
 40
0.000000
 40
0.000000
 40
0.000000
 40
0.380573
 40
0.754369
 40
1.134942
 40
1.515516
 40
1.889312
 40
2.269885
 40
2.650458
 40
3.024254
 40
3.404827
 40
3.785401
 40
4.159197
 40
4.539770
 40
5.046719
 40
5.538631
 40
6.045580
 40
6.045580
 40
6.045580
 40
6.045580
 10
32.577454
 20
185.243010
 30
0.0
 10
32.449777
 20
185.228277
 30
0.0
 10
32.196697
 20
185.199074
 30
0.0
 10
31.874184
 20
184.975053
 30
0.0
 10
31.658084
 20
184.654747
 30
0.0
 10
31.582766
 20
184.273196
 30
0.0
 10
31.658438
 20
183.892930
 30
0.0
 10
31.873799
 20
183.569776
 30
0.0
 10
32.196909
 20
183.354426
 30
0.0
 10
32.577341
 20
183.278752
 30
0.0
 10
32.958264
 20
183.354069
 30
0.0
 10
33.280907
 20
183.570178
 30
0.0
 10
33.496305
 20
183.892657
 30
0.0
 10
33.581393
 20
184.315952
 30
0.0
 10
33.455999
 20
184.778036
 30
0.0
 10
33.085116
 20
185.163808
 30
0.0
 10
32.748365
 20
185.216346
 30
0.0
 10
32.577454
 20
185.243010
 30
0.0
 11
32.577454
 21
185.243010
 31
0.0
 11
32.204277
 21
185.168347
 31
0.0
 11
31.893476
 21
184.960677
 31
0.0
 11
31.681688
 21
184.644478
 31
0.0
 11
31.607859
 21
184.271135
 31
0.0
 11
31.680783
 21
183.904521
 31
0.0
 11
31.891864
 21
183.587850
 31
0.0
 11
32.208535
 21
183.376769
 31
0.0
 11
32.575149
 21
183.303845
 31
0.0
 11
32.948492
 21
183.377674
 31
0.0
 11
33.264691
 21
183.589462
 31
0.0
 11
33.472361
 21
183.900263
 31
0.0
 11
33.547024
 21
184.273440
 31
0.0
 11
33.414649
 21
184.762801
 31
0.0
 11
33.066815
 21
185.110635
 31
0.0
 11
32.577454
 21
185.243010
 31
0.0
  0
LWPOLYLINE
  5
10b
100
AcDbEntity
  8
Layer_1
 62
7
100
AcDbPolyline
 90
1
 70
1
 10
32.577454
 20
185.243010
 30
0.0
  0
SPLINE
  5
10c
100
AcDbEntity
  8
Layer_1
 62
7
100
AcDbSpline
 70
0
 71
3
 72
22
 73
18
 74
16
 40
0.000000
 40
0.000000
 40
0.000000
 40
0.000000
 40
0.380573
 40
0.754369
 40
1.134942
 40
1.515516
 40
1.889312
 40
2.269885
 40
2.650458
 40
3.024254
 40
3.404827
 40
3.785401
 40
4.159197
 40
4.539770
 40
5.046719
 40
5.538631
 40
6.045580
 40
6.045580
 40
6.045580
 40
6.045580
 10
32.577454
 20
216.412464
 30
0.0
 10
32.449777
 20
216.397731
 30
0.0
 10
32.196697
 20
216.368528
 30
0.0
 10
31.874184
 20
216.144507
 30
0.0
 10
31.658084
 20
215.824201
 30
0.0
 10
31.582766
 20
215.442650
 30
0.0
 10
31.658438
 20
215.062384
 30
0.0
 10
31.873799
 20
214.739230
 30
0.0
 10
32.196909
 20
214.523880
 30
0.0
 10
32.577341
 20
214.448206
 30
0.0
 10
32.958264
 20
214.523523
 30
0.0
 10
33.280907
 20
214.739632
 30
0.0
 10
33.496305
 20
215.062111
 30
0.0
 10
33.581393
 20
215.485406
 30
0.0
 10
33.455999
 20
215.947490
 30
0.0
 10
33.085116
 20
216.333262
 30
0.0
 10
32.748365
 20
216.385800
 30
0.0
 10
32.577454
 20
216.412464
 30
0.0
 11
32.577454
 21
216.412464
 31
0.0
 11
32.204277
 21
216.337801
 31
0.0
 11
31.893476
 21
216.130131
 31
0.0
 11
31.681688
 21
215.813932
 31
0.0
 11
31.607859
 21
215.440589
 31
0.0
 11
31.680783
 21
215.073975
 31
0.0
 11
31.891864
 21
214.757304
 31
0.0
 11
32.208535
 21
214.546223
 31
0.0
 11
32.575149
 21
214.473299
 31
0.0
 11
32.948492
 21
214.547128
 31
0.0
 11
33.264691
 21
214.758916
 31
0.0
 11
33.472361
 21
215.069717
 31
0.0
 11
33.547024
 21
215.442894
 31
0.0
 11
33.414649
 21
215.932255
 31
0.0
 11
33.066815
 21
216.280089
 31
0.0
 11
32.577454
 21
216.412464
 31
0.0
  0
LWPOLYLINE
  5
10d
100
AcDbEntity
  8
Layer_1
 62
7
100
AcDbPolyline
 90
1
 70
1
 10
32.577454
 20
216.412464
 30
0.0
  0
SPLINE
  5
10e
100
AcDbEntity
  8
Layer_1
 62
7
100
AcDbSpline
 70
0
 71
3
 72
25
 73
21
 74
19
 40
0.000000
 40
0.000000
 40
0.000000
 40
0.000000
 40
0.380573
 40
0.754369
 40
1.134942
 40
1.515516
 40
1.889312
 40
2.269885
 40
2.650458
 40
3.024254
 40
3.404827
 40
3.785401
 40
4.159197
 40
4.539770
 40
4.793579
 40
5.045288
 40
5.299097
 40
5.552906
 40
5.804615
 40
6.058424
 40
6.058424
 40
6.058424
 40
6.058424
 10
80.685966
 20
185.243010
 30
0.0
 10
80.558289
 20
185.228277
 30
0.0
 10
80.305209
 20
185.199074
 30
0.0
 10
79.982696
 20
184.975053
 30
0.0
 10
79.766596
 20
184.654747
 30
0.0
 10
79.691278
 20
184.273196
 30
0.0
 10
79.766950
 20
183.892930
 30
0.0
 10
79.982311
 20
183.569776
 30
0.0
 10
80.305422
 20
183.354426
 30
0.0
 10
80.685850
 20
183.278753
 30
0.0
 10
81.066784
 20
183.354062
 30
0.0
 10
81.389388
 20
183.570204
 30
0.0
 10
81.604932
 20
183.892561
 30
0.0
 10
81.672449
 20
184.231313
 30
0.0
 10
81.633201
 20
184.527233
 30
0.0
 10
81.535275
 20
184.763724
 30
0.0
 10
81.379474
 20
184.967161
 30
0.0
 10
81.176293
 20
185.121942
 30
0.0
 10
80.939800
 20
185.223673
 30
0.0
 10
80.770811
 20
185.236547
 30
0.0
 10
80.685966
 20
185.243010
 30
0.0
 11
80.685966
 21
185.243010
 31
0.0
 11
80.312789
 21
185.168347
 31
0.0
 11
80.001988
 21
184.960677
 31
0.0
 11
79.790200
 21
184.644478
 31
0.0
 11
79.716371
 21
184.271135
 31
0.0
 11
79.789295
 21
183.904521
 31
0.0
 11
80.000376
 21
183.587850
 31
0.0
 11
80.317047
 21
183.376769
 31
0.0
 11
80.683661
 21
183.303845
 31
0.0
 11
81.057004
 21
183.377674
 31
0.0
 11
81.373203
 21
183.589462
 31
0.0
 11
81.580873
 21
183.900263
 31
0.0
 11
81.655536
 21
184.273440
 31
0.0
 11
81.622318
 21
184.525066
 31
0.0
 11
81.525993
 21
184.757615
 31
0.0
 11
81.371556
 21
184.959030
 31
0.0
 11
81.170141
 21
185.113467
 31
0.0
 11
80.937592
 21
185.209792
 31
0.0
 11
80.685966
 21
185.243010
 31
0.0
  0
LWPOLYLINE
  5
10f
100
AcDbEntity
  8
Layer_1
 62
7
100
AcDbPolyline
 90
1
 70
1
 10
80.685966
 20
185.243010
 30
0.0
  0
LWPOLYLINE
  5
110
100
AcDbEntity
  8
Layer_1
 62
7
100
AcDbPolyline
 90
1
 70
1
 10
80.685966
 20
197.079010
 30
0.0
  0
SPLINE
  5
111
100
AcDbEntity
  8
Layer_1
 62
7
100
AcDbSpline
 70
0
 71
3
 72
25
 73
21
 74
19
 40
0.000000
 40
0.000000
 40
0.000000
 40
0.000000
 40
0.380573
 40
0.754369
 40
1.134942
 40
1.515516
 40
1.889312
 40
2.269885
 40
2.650458
 40
3.024254
 40
3.404827
 40
3.785401
 40
4.159197
 40
4.539770
 40
4.793579
 40
5.045288
 40
5.299097
 40
5.552906
 40
5.804615
 40
6.058424
 40
6.058424
 40
6.058424
 40
6.058424
 10
80.685966
 20
197.079010
 30
0.0
 10
80.558289
 20
197.064277
 30
0.0
 10
80.305209
 20
197.035074
 30
0.0
 10
79.982696
 20
196.811053
 30
0.0
 10
79.766596
 20
196.490747
 30
0.0
 10
79.691278
 20
196.109196
 30
0.0
 10
79.766950
 20
195.728930
 30
0.0
 10
79.982311
 20
195.405776
 30
0.0
 10
80.305422
 20
195.190426
 30
0.0
 10
80.685850
 20
195.114753
 30
0.0
 10
81.066784
 20
195.190062
 30
0.0
 10
81.389388
 20
195.406204
 30
0.0
 10
81.604932
 20
195.728561
 30
0.0
 10
81.672449
 20
196.067313
 30
0.0
 10
81.633201
 20
196.363233
 30
0.0
 10
81.535275
 20
196.599724
 30
0.0
 10
81.379474
 20
196.803161
 30
0.0
 10
81.176293
 20
196.957942
 30
0.0
 10
80.939800
 20
197.059673
 30
0.0
 10
80.770811
 20
197.072547
 30
0.0
 10
80.685966
 20
197.079010
 30
0.0
 11
80.685966
 21
197.079010
 31
0.0
 11
80.312789
 21
197.004347
 31
0.0
 11
80.001988
 21
196.796677
 31
0.0
 11
79.790200
 21
196.480478
 31
0.0
 11
79.716371
 21
196.107135
 31
0.0
 11
79.789295
 21
195.740521
 31
0.0
 11
80.000376
 21
195.423850
 31
0.0
 11
80.317047
 21
195.212769
 31
0.0
 11
80.683661
 21
195.139845
 31
0.0
 11
81.057004
 21
195.213674
 31
0.0
 11
81.373203
 21
195.425462
 31
0.0
 11
81.580873
 21
195.736263
 31
0.0
 11
81.655536
 21
196.109440
 31
0.0
 11
81.622318
 21
196.361066
 31
0.0
 11
81.525993
 21
196.593615
 31
0.0
 11
81.371556
 21
196.795030
 31
0.0
 11
81.170141
 21
196.949467
 31
0.0
 11
80.937592
 21
197.045792
 31
0.0
 11
80.685966
 21
197.079010
 31
0.0
  0
LWPOLYLINE
  5
112
100
AcDbEntity
  8
Layer_1
 62
7
100
AcDbPolyline
 90
4
 70
1
 10
89.557812
 20
223.066126
 30
0.0
 10
94.046280
 20
218.577659
 30
0.0
 10
90.833482
 20
215.364861
 30
0.0
 10
86.345015
 20
219.853329
 30
0.0
  0
SPLINE
  5
113
100
AcDbEntity
  8
Layer_1
 62
7
100
AcDbSpline
 70
0
 71
3
 72
25
 73
21
 74
19
 40
0.000000
 40
0.000000
 40
0.000000
 40
0.000000
 40
1.775461
 40
3.519307
 40
5.294768
 40
7.070229
 40
8.814075
 40
10.589536
 40
12.364997
 40
14.108843
 40
15.884304
 40
17.659765
 40
19.403611
 40
21.179072
 40
22.363150
 40
23.537429
 40
24.721507
 40
25.905585
 40
27.079864
 40
28.263942
 40
28.263942
 40
28.263942
 40
28.263942
 10
84.145996
 20
218.337256
 30
0.0
 10
83.550354
 20
218.268524
 30
0.0
 10
82.369678
 20
218.132285
 30
0.0
 10
80.865082
 20
217.087173
 30
0.0
 10
79.856925
 20
215.592872
 30
0.0
 10
79.505546
 20
213.812850
 30
0.0
 10
79.858575
 20
212.038823
 30
0.0
 10
80.863283
 20
210.531232
 30
0.0
 10
82.370669
 20
209.526575
 30
0.0
 10
84.145456
 20
209.173546
 30
0.0
 10
85.922601
 20
209.524876
 30
0.0
 10
87.427620
 20
210.533228
 30
0.0
 10
88.433186
 20
212.037098
 30
0.0
 10
88.748168
 20
213.617456
 30
0.0
 10
88.565064
 20
214.997993
 30
0.0
 10
88.108219
 20
216.101278
 30
0.0
 10
87.381371
 20
217.050358
 30
0.0
 10
86.433484
 20
217.772446
 30
0.0
 10
85.330190
 20
218.247044
 30
0.0
 10
84.541819
 20
218.307102
 30
0.0
 10
84.145996
 20
218.337256
 30
0.0
 11
84.145996
 21
218.337256
 31
0.0
 11
82.405038
 21
217.988936
 31
0.0
 11
80.955083
 21
217.020107
 31
0.0
 11
79.967042
 21
215.544968
 31
0.0
 11
79.622611
 21
213.803235
 31
0.0
 11
79.962819
 21
212.092898
 31
0.0
 11
80.947563
 21
210.615555
 31
0.0
 11
82.424906
 21
209.630811
 31
0.0
 11
84.135243
 21
209.290603
 31
0.0
 11
85.876976
 21
209.635034
 31
0.0
 11
87.352115
 21
210.623075
 31
0.0
 11
88.320944
 21
212.073030
 31
0.0
 11
88.669264
 21
213.813988
 31
0.0
 11
88.514294
 21
214.987881
 31
0.0
 11
88.064917
 21
216.072774
 31
0.0
 11
87.344429
 21
217.012421
 31
0.0
 11
86.404782
 21
217.732909
 31
0.0
 11
85.319889
 21
218.182286
 31
0.0
 11
84.145996
 21
218.337256
 31
0.0
  0
LWPOLYLINE
  5
114
100
AcDbEntity
  8
Layer_1
 62
7
100
AcDbPolyline
 90
1
 70
1
 10
84.145996
 20
218.337256
 30
0.0
  0
SPLINE
  5
115
100
AcDbEntity
  8
Layer_1
 62
7
100
AcDbSpline
 70
0
 71
3
 72
25
 73
21
 74
19
 40
0.000000
 40
0.000000
 40
0.000000
 40
0.000000
 40
0.380573
 40
0.754369
 40
1.134942
 40
1.515516
 40
1.889312
 40
2.269885
 40
2.650458
 40
3.024254
 40
3.404827
 40
3.785401
 40
4.159197
 40
4.539770
 40
4.793579
 40
5.045288
 40
5.299097
 40
5.552906
 40
5.804615
 40
6.058424
 40
6.058424
 40
6.058424
 40
6.058424
 10
70.741104
 20
216.412464
 30
0.0
 10
70.613427
 20
216.397731
 30
0.0
 10
70.360347
 20
216.368528
 30
0.0
 10
70.037834
 20
216.144507
 30
0.0
 10
69.821734
 20
215.824201
 30
0.0
 10
69.746416
 20
215.442650
 30
0.0
 10
69.822088
 20
215.062384
 30
0.0
 10
70.037449
 20
214.739230
 30
0.0
 10
70.360560
 20
214.523880
 30
0.0
 10
70.740988
 20
214.448207
 30
0.0
 10
71.121922
 20
214.523516
 30
0.0
 10
71.444526
 20
214.739658
 30
0.0
 10
71.660070
 20
215.062015
 30
0.0
 10
71.727587
 20
215.400767
 30
0.0
 10
71.688339
 20
215.696687
 30
0.0
 10
71.590413
 20
215.933178
 30
0.0
 10
71.434612
 20
216.136615
 30
0.0
 10
71.231431
 20
216.291396
 30
0.0
 10
70.994938
 20
216.393127
 30
0.0
 10
70.825949
 20
216.406001
 30
0.0
 10
70.741104
 20
216.412464
 30
0.0
 11
70.741104
 21
216.412464
 31
0.0
 11
70.367927
 21
216.337801
 31
0.0
 11
70.057126
 21
216.130131
 31
0.0
 11
69.845338
 21
215.813932
 31
0.0
 11
69.771509
 21
215.440589
 31
0.0
 11
69.844433
 21
215.073975
 31
0.0
 11
70.055514
 21
214.757304
 31
0.0
 11
70.372185
 21
214.546223
 31
0.0
 11
70.738799
 21
214.473299
 31
0.0
 11
71.112142
 21
214.547128
 31
0.0
 11
71.428341
 21
214.758916
 31
0.0
 11
71.636011
 21
215.069717
 31
0.0
 11
71.710674
 21
215.442894
 31
0.0
 11
71.677456
 21
215.694520
 31
0.0
 11
71.581131
 21
215.927069
 31
0.0
 11
71.426694
 21
216.128484
 31
0.0
 11
71.225279
 21
216.282921
 31
0.0
 11
70.992730
 21
216.379246
 31
0.0
 11
70.741104
 21
216.412464
 31
0.0
  0
LWPOLYLINE
  5
116
100
AcDbEntity
  8
Layer_1
 62
7
100
AcDbPolyline
 90
1
 70
1
 10
70.741104
 20
216.412464
 30
0.0
  0
ENDSEC
  0
SECTION
  2
OBJECTS
  0
DICTIONARY
  5
C
330
0
100
AcDbDictionary
  3
ACAD_GROUP
350
D
  3
ACAD_MLINESTYLE
350
17
  0
DICTIONARY
  5
D
330
C
100
AcDbDictionary
  0
DICTIONARY
  5
1A
330
C
100
AcDbDictionary
  0
DICTIONARY
  5
17
330
C
100
AcDbDictionary
  3
STANDARD
350
18
  0
DICTIONARY
  5
19
330
C
100
AcDbDictionary
  0
ENDSEC
  0
EOF
