  0
SECTION
  2
HEADER
  9
$ACADVER
  1
AC1027
  9
$ACADMAINTVER
 70
   125
  9
$DWGCODEPAGE
  3
ANSI_1252
  9
$REQUIREDVERSIONS
160
                 0
  9
$INSBASE
 10
0.0
 20
0.0
 30
0.0
  9
$EXTMIN
 10
1.000000000000000E+20
 20
1.000000000000000E+20
 30
1.000000000000000E+20
  9
$EXTMAX
 10
-1.000000000000000E+20
 20
-1.000000000000000E+20
 30
-1.000000000000000E+20
  9
$LIMMIN
 10
0.0
 20
0.0
  9
$LIMMAX
 10
12.0
 20
9.0
  9
$ORTHOMODE
 70
     0
  9
$REGENMODE
 70
     1
  9
$FILLMODE
 70
     1
  9
$QTEXTMODE
 70
     0
  9
$MIRRTEXT
 70
     0
  9
$LTSCALE
 40
1.0
  9
$ATTMODE
 70
     1
  9
$TEXTSIZE
 40
0.2
  9
$TRACEWID
 40
0.05
  9
$TEXTSTYLE
  7
Standard
  9
$CLAYER
  8
0
  9
$CELTYPE
  6
ByLayer
  9
$CECOLOR
 62
   256
  9
$CELTSCALE
 40
1.0
  9
$DISPSILH
 70
     0
  9
$DIMSCALE
 40
1.0
  9
$DIMASZ
 40
0.18
  9
$DIMEXO
 40
0.0625
  9
$DIMDLI
 40
0.38
  9
$DIMRND
 40
0.0
  9
$DIMDLE
 40
0.0
  9
$DIMEXE
 40
0.18
  9
$DIMTP
 40
0.0
  9
$DIMTM
 40
0.0
  9
$DIMTXT
 40
0.18
  9
$DIMCEN
 40
0.09
  9
$DIMTSZ
 40
0.0
  9
$DIMTOL
 70
     0
  9
$DIMLIM
 70
     0
  9
$DIMTIH
 70
     1
  9
$DIMTOH
 70
     1
  9
$DIMSE1
 70
     0
  9
$DIMSE2
 70
     0
  9
$DIMTAD
 70
     0
  9
$DIMZIN
 70
     0
  9
$DIMBLK
  1

  9
$DIMASO
 70
     1
  9
$DIMSHO
 70
     1
  9
$DIMPOST
  1

  9
$DIMAPOST
  1

  9
$DIMALT
 70
     0
  9
$DIMALTD
 70
     2
  9
$DIMALTF
 40
25.4
  9
$DIMLFAC
 40
1.0
  9
$DIMTOFL
 70
     0
  9
$DIMTVP
 40
0.0
  9
$DIMTIX
 70
     0
  9
$DIMSOXD
 70
     0
  9
$DIMSAH
 70
     0
  9
$DIMBLK1
  1

  9
$DIMBLK2
  1

  9
$DIMSTYLE
  2
Standard
  9
$DIMCLRD
 70
     0
  9
$DIMCLRE
 70
     0
  9
$DIMCLRT
 70
     0
  9
$DIMTFAC
 40
1.0
  9
$DIMGAP
 40
0.09
  9
$DIMJUST
 70
     0
  9
$DIMSD1
 70
     0
  9
$DIMSD2
 70
     0
  9
$DIMTOLJ
 70
     1
  9
$DIMTZIN
 70
     0
  9
$DIMALTZ
 70
     0
  9
$DIMALTTZ
 70
     0
  9
$DIMUPT
 70
     0
  9
$DIMDEC
 70
     4
  9
$DIMTDEC
 70
     4
  9
$DIMALTU
 70
     2
  9
$DIMALTTD
 70
     2
  9
$DIMTXSTY
  7
Standard
  9
$DIMAUNIT
 70
     0
  9
$DIMADEC
 70
     0
  9
$DIMALTRND
 40
0.0
  9
$DIMAZIN
 70
     0
  9
$DIMDSEP
 70
    46
  9
$DIMATFIT
 70
     3
  9
$DIMFRAC
 70
     0
  9
$DIMLDRBLK
  1

  9
$DIMLUNIT
 70
     2
  9
$DIMLWD
 70
    -2
  9
$DIMLWE
 70
    -2
  9
$DIMTMOVE
 70
     0
  9
$DIMFXL
 40
1.0
  9
$DIMFXLON
 70
     0
  9
$DIMJOGANG
 40
0.7853981633974483
  9
$DIMTFILL
 70
     0
  9
$DIMTFILLCLR
 70
     0
  9
$DIMARCSYM
 70
     0
  9
$DIMLTYPE
  6

  9
$DIMLTEX1
  6

  9
$DIMLTEX2
  6

  9
$DIMTXTDIRECTION
 70
     0
  9
$LUNITS
 70
     2
  9
$LUPREC
 70
     4
  9
$SKETCHINC
 40
0.1
  9
$FILLETRAD
 40
0.0
  9
$AUNITS
 70
     0
  9
$AUPREC
 70
     0
  9
$MENU
  1
.
  9
$ELEVATION
 40
0.0
  9
$PELEVATION
 40
0.0
  9
$THICKNESS
 40
0.0
  9
$LIMCHECK
 70
     0
  9
$CHAMFERA
 40
0.0
  9
$CHAMFERB
 40
0.0
  9
$CHAMFERC
 40
0.0
  9
$CHAMFERD
 40
0.0
  9
$SKPOLY
 70
     0
  9
$TDCREATE
 40
2458894.967986111
  9
$TDUCREATE
 40
2458894.967986111
  9
$TDUPDATE
 40
2458894.967986111
  9
$TDUUPDATE
 40
2458894.967986111
  9
$TDINDWG
 40
0.0000000000
  9
$TDUSRTIMER
 40
0.0000000000
  9
$USRTIMER
 70
     1
  9
$ANGBASE
 50
0.0
  9
$ANGDIR
 70
     0
  9
$PDMODE
 70
     0
  9
$PDSIZE
 40
0.0
  9
$PLINEWID
 40
0.0
  9
$SPLFRAME
 70
     0
  9
$SPLINETYPE
 70
     6
  9
$SPLINESEGS
 70
     8
  9
$HANDSEED
  5
25A
  9
$SURFTAB1
 70
     6
  9
$SURFTAB2
 70
     6
  9
$SURFTYPE
 70
     6
  9
$SURFU
 70
     6
  9
$SURFV
 70
     6
  9
$UCSBASE
  2

  9
$UCSNAME
  2

  9
$UCSORG
 10
0.0
 20
0.0
 30
0.0
  9
$UCSXDIR
 10
1.0
 20
0.0
 30
0.0
  9
$UCSYDIR
 10
0.0
 20
1.0
 30
0.0
  9
$UCSORTHOREF
  2

  9
$UCSORTHOVIEW
 70
     0
  9
$UCSORGTOP
 10
0.0
 20
0.0
 30
0.0
  9
$UCSORGBOTTOM
 10
0.0
 20
0.0
 30
0.0
  9
$UCSORGLEFT
 10
0.0
 20
0.0
 30
0.0
  9
$UCSORGRIGHT
 10
0.0
 20
0.0
 30
0.0
  9
$UCSORGFRONT
 10
0.0
 20
0.0
 30
0.0
  9
$UCSORGBACK
 10
0.0
 20
0.0
 30
0.0
  9
$PUCSBASE
  2

  9
$PUCSNAME
  2

  9
$PUCSORG
 10
0.0
 20
0.0
 30
0.0
  9
$PUCSXDIR
 10
1.0
 20
0.0
 30
0.0
  9
$PUCSYDIR
 10
0.0
 20
1.0
 30
0.0
  9
$PUCSORTHOREF
  2

  9
$PUCSORTHOVIEW
 70
     0
  9
$PUCSORGTOP
 10
0.0
 20
0.0
 30
0.0
  9
$PUCSORGBOTTOM
 10
0.0
 20
0.0
 30
0.0
  9
$PUCSORGLEFT
 10
0.0
 20
0.0
 30
0.0
  9
$PUCSORGRIGHT
 10
0.0
 20
0.0
 30
0.0
  9
$PUCSORGFRONT
 10
0.0
 20
0.0
 30
0.0
  9
$PUCSORGBACK
 10
0.0
 20
0.0
 30
0.0
  9
$USERI1
 70
     0
  9
$USERI2
 70
     0
  9
$USERI3
 70
     0
  9
$USERI4
 70
     0
  9
$USERI5
 70
     0
  9
$USERR1
 40
0.0
  9
$USERR2
 40
0.0
  9
$USERR3
 40
0.0
  9
$USERR4
 40
0.0
  9
$USERR5
 40
0.0
  9
$WORLDVIEW
 70
     1
  9
$SHADEDGE
 70
     3
  9
$SHADEDIF
 70
    70
  9
$TILEMODE
 70
     1
  9
$MAXACTVP
 70
    64
  9
$PINSBASE
 10
0.0
 20
0.0
 30
0.0
  9
$PLIMCHECK
 70
     0
  9
$PEXTMIN
 10
1.000000000000000E+20
 20
1.000000000000000E+20
 30
1.000000000000000E+20
  9
$PEXTMAX
 10
-1.000000000000000E+20
 20
-1.000000000000000E+20
 30
-1.000000000000000E+20
  9
$PLIMMIN
 10
0.0
 20
0.0
  9
$PLIMMAX
 10
12.0
 20
9.0
  9
$UNITMODE
 70
     0
  9
$VISRETAIN
 70
     1
  9
$PLINEGEN
 70
     0
  9
$PSLTSCALE
 70
     1
  9
$TREEDEPTH
 70
  3020
  9
$CMLSTYLE
  2
Standard
  9
$CMLJUST
 70
     0
  9
$CMLSCALE
 40
1.0
  9
$PROXYGRAPHICS
 70
     1
  9
$MEASUREMENT
 70
     0
  9
$CELWEIGHT
370
    -1
  9
$ENDCAPS
280
     0
  9
$JOINSTYLE
280
     0
  9
$LWDISPLAY
290
     0
  9
$INSUNITS
 70
     5
  9
$HYPERLINKBASE
  1

  9
$STYLESHEET
  1

  9
$XEDIT
290
     1
  9
$CEPSNTYPE
380
     0
  9
$PSTYLEMODE
290
     1
  9
$FINGERPRINTGUID
  2
{41D5AB78-585F-DD49-9550-ECEFD60F9E4C}
  9
$VERSIONGUID
  2
{081F4813-5FBA-944E-9089-1EBDC8F45C49}
  9
$EXTNAMES
290
     1
  9
$PSVPSCALE
 40
0.0
  9
$OLESTARTUP
290
     0
  9
$SORTENTS
280
   127
  9
$INDEXCTL
280
     0
  9
$HIDETEXT
280
     1
  9
$XCLIPFRAME
280
     2
  9
$HALOGAP
280
     0
  9
$OBSCOLOR
 70
   257
  9
$OBSLTYPE
280
     0
  9
$INTERSECTIONDISPLAY
280
     0
  9
$INTERSECTIONCOLOR
 70
   257
  9
$DIMASSOC
280
     2
  9
$PROJECTNAME
  1

  9
$CAMERADISPLAY
290
     0
  9
$LENSLENGTH
 40
50.0
  9
$CAMERAHEIGHT
 40
0.0
  9
$STEPSPERSEC
 40
2.0
  9
$STEPSIZE
 40
6.0
  9
$3DDWFPREC
 40
2.0
  9
$PSOLWIDTH
 40
0.25
  9
$PSOLHEIGHT
 40
4.0
  9
$LOFTANG1
 40
1.570796326794896
  9
$LOFTANG2
 40
1.570796326794896
  9
$LOFTMAG1
 40
0.0
  9
$LOFTMAG2
 40
0.0
  9
$LOFTPARAM
 70
     7
  9
$LOFTNORMALS
280
     1
  9
$LATITUDE
 40
37.795
  9
$LONGITUDE
 40
-122.394
  9
$NORTHDIRECTION
 40
0.0
  9
$TIMEZONE
 70
 -8000
  9
$LIGHTGLYPHDISPLAY
280
     1
  9
$TILEMODELIGHTSYNCH
280
     1
  9
$CMATERIAL
347
11
  9
$SOLIDHIST
280
     0
  9
$SHOWHIST
280
     1
  9
$DWFFRAME
280
     2
  9
$DGNFRAME
280
     0
  9
$REALWORLDSCALE
290
     1
  9
$INTERFERECOLOR
 62
     1
  9
$INTERFEREOBJVS
345
33
  9
$INTERFEREVPVS
346
30
  9
$CSHADOW
280
     0
  9
$SHADOWPLANELOCATION
 40
0.0
  0
ENDSEC
  0
SECTION
  2
CLASSES
  0
CLASS
  1
ACDBDICTIONARYWDFLT
  2
AcDbDictionaryWithDefault
  3
ObjectDBX Classes
 90
        0
 91
        1
280
     0
281
     0
  0
CLASS
  1
MATERIAL
  2
AcDbMaterial
  3
ObjectDBX Classes
 90
     1153
 91
        3
280
     0
281
     0
  0
CLASS
  1
VISUALSTYLE
  2
AcDbVisualStyle
  3
ObjectDBX Classes
 90
     4095
 91
       24
280
     0
281
     0
  0
CLASS
  1
SCALE
  2
AcDbScale
  3
ObjectDBX Classes
 90
     1153
 91
       17
280
     0
281
     0
  0
CLASS
  1
TABLESTYLE
  2
AcDbTableStyle
  3
ObjectDBX Classes
 90
     4095
 91
        1
280
     0
281
     0
  0
CLASS
  1
MLEADERSTYLE
  2
AcDbMLeaderStyle
  3
ACDB_MLEADERSTYLE_CLASS
 90
     4095
 91
        1
280
     0
281
     0
  0
CLASS
  1
ACDBSECTIONVIEWSTYLE
  2
AcDbSectionViewStyle
  3
ObjectDBX Classes
 90
     1025
 91
        1
280
     0
281
     0
  0
CLASS
  1
ACDBDETAILVIEWSTYLE
  2
AcDbDetailViewStyle
  3
ObjectDBX Classes
 90
     1025
 91
        1
280
     0
281
     0
  0
CLASS
  1
DICTIONARYVAR
  2
AcDbDictionaryVar
  3
ObjectDBX Classes
 90
        0
 91
        5
280
     0
281
     0
  0
CLASS
  1
CELLSTYLEMAP
  2
AcDbCellStyleMap
  3
ObjectDBX Classes
 90
     1152
 91
        1
280
     0
281
     0
  0
ENDSEC
  0
SECTION
  2
TABLES
  0
TABLE
  2
VPORT
  5
8
330
0
100
AcDbSymbolTable
 70
     1
1001
ACAD
1000
DbSaveVer
1071
      205
  0
VPORT
  5
57
330
8
100
AcDbSymbolTableRecord
100
AcDbViewportTableRecord
  2
*Active
 70
     0
 10
0.0
 20
0.0
 11
1.0
 21
1.0
 12
500.0
 22
500.0
 13
0.0
 23
0.0
 14
1.0
 24
1.0
 15
0.0
 25
0.0
 16
0.0
 26
0.0
 36
1.0
 17
0.0
 27
0.0
 37
0.0
 40
12.0
 41
1.0
 42
50.0
 43
0.0
 44
0.0
 50
0.0
 51
0.0
 71
     0
 72
   100
 73
     1
 74
     0
 75
     1
 76
     0
 77
     0
 78
     0
281
     0
 65
     1
110
0.0
120
0.0
130
0.0
111
1.0
121
0.0
131
0.0
112
0.0
122
1.0
132
0.0
 79
     0
146
0.0
 60
     3
 61
     5
292
     1
282
     1
141
0.0
142
0.0
 63
   250
421
  3355443
  0
ENDTAB
  0
TABLE
  2
LTYPE
  5
5
330
0
100
AcDbSymbolTable
 70
     1
  0
LTYPE
  5
5B
330
5
100
AcDbSymbolTableRecord
100
AcDbLinetypeTableRecord
  2
ByBlock
 70
     0
  3

 72
    65
 73
     0
 40
0.0
  0
LTYPE
  5
5C
330
5
100
AcDbSymbolTableRecord
100
AcDbLinetypeTableRecord
  2
ByLayer
 70
     0
  3

 72
    65
 73
     0
 40
0.0
  0
LTYPE
  5
5D
330
5
100
AcDbSymbolTableRecord
100
AcDbLinetypeTableRecord
  2
Continuous
 70
     0
  3
Solid line
 72
    65
 73
     0
 40
0.0
  0
ENDTAB
  0
TABLE
  2
LAYER
  5
2
330
0
100
AcDbSymbolTable
 70
     2
  0
LAYER
  5
54
330
2
100
AcDbSymbolTableRecord
100
AcDbLayerTableRecord
  2
0
 70
     0
 62
     7
  6
Continuous
370
    -3
390
F
347
21
348
0
  0
LAYER
  5
7A
330
2
100
AcDbSymbolTableRecord
100
AcDbLayerTableRecord
  2
vaso fingerjoints v6_Sketch6
 70
     0
 62
     7
  6
Continuous
370
    -3
390
F
347
21
348
0
1001
NFusion_SketchTransform
1000
1.000000;0.000000;0.000000;0.000000;0.000000;1.000000;0.000000;0.000000;0.000000;0.000000;1.000000;0.000000;0.000000;0.000000;0.000000;1.000000
  0
ENDTAB
  0
TABLE
  2
STYLE
  5
3
330
0
100
AcDbSymbolTable
 70
     2
  0
STYLE
  5
55
330
3
100
AcDbSymbolTableRecord
100
AcDbTextStyleTableRecord
  2
Standard
 70
     0
 40
0.0
 41
1.0
 50
0.0
 71
     0
 42
0.2
  3
txt
  4

  0
STYLE
  5
5A
330
3
100
AcDbSymbolTableRecord
100
AcDbTextStyleTableRecord
  2
Annotative
 70
     0
 40
0.0
 41
1.0
 50
0.0
 71
     0
 42
0.2
  3
txt
  4

1001
AcadAnnotative
1000
AnnotativeData
1002
{
1070
     1
1070
     1
1002
}
  0
ENDTAB
  0
TABLE
  2
VIEW
  5
6
330
0
100
AcDbSymbolTable
 70
     0
  0
ENDTAB
  0
TABLE
  2
UCS
  5
7
330
0
100
AcDbSymbolTable
 70
     0
  0
ENDTAB
  0
TABLE
  2
APPID
  5
9
330
0
100
AcDbSymbolTable
 70
     4
  0
APPID
  5
56
330
9
100
AcDbSymbolTableRecord
100
AcDbRegAppTableRecord
  2
ACAD
 70
     0
  0
APPID
  5
5E
330
9
100
AcDbSymbolTableRecord
100
AcDbRegAppTableRecord
  2
AcadAnnotative
 70
     0
  0
APPID
  5
78
330
9
100
AcDbSymbolTableRecord
100
AcDbRegAppTableRecord
  2
EDIT_IN_FUSION_ACAD_ADDIN
 70
     0
  0
APPID
  5
79
330
9
100
AcDbSymbolTableRecord
100
AcDbRegAppTableRecord
  2
NFusion_SketchTransform
 70
     0
  0
ENDTAB
  0
TABLE
  2
DIMSTYLE
  5
A
330
0
100
AcDbSymbolTable
 70
     2
100
AcDbDimStyleTable
 71
     0
  0
DIMSTYLE
105
58
330
A
100
AcDbSymbolTableRecord
100
AcDbDimStyleTableRecord
  2
Standard
 70
     0
340
55
  0
DIMSTYLE
105
59
330
A
100
AcDbSymbolTableRecord
100
AcDbDimStyleTableRecord
  2
Annotative
 70
     0
340
55
1001
AcadAnnotative
1000
AnnotativeData
1002
{
1070
     1
1070
     1
1002
}
  0
ENDTAB
  0
TABLE
  2
BLOCK_RECORD
  5
1
330
0
100
AcDbSymbolTable
 70
     1
  0
BLOCK_RECORD
  5
70
330
1
100
AcDbSymbolTableRecord
100
AcDbBlockTableRecord
  2
*Model_Space
340
73
 70
     0
280
     1
281
     0
  0
BLOCK_RECORD
  5
6C
330
1
100
AcDbSymbolTableRecord
100
AcDbBlockTableRecord
  2
*Paper_Space
340
6F
 70
     0
280
     1
281
     0
  0
BLOCK_RECORD
  5
74
330
1
100
AcDbSymbolTableRecord
100
AcDbBlockTableRecord
  2
*Paper_Space0
340
77
 70
     0
280
     1
281
     0
  0
ENDTAB
  0
ENDSEC
  0
SECTION
  2
BLOCKS
  0
BLOCK
  5
71
330
70
100
AcDbEntity
  8
0
100
AcDbBlockBegin
  2
*Model_Space
 70
     0
 10
0.0
 20
0.0
 30
0.0
  3
*Model_Space
  1

  0
ENDBLK
  5
72
330
70
100
AcDbEntity
  8
0
100
AcDbBlockEnd
  0
BLOCK
  5
6D
330
6C
100
AcDbEntity
 67
     1
  8
0
100
AcDbBlockBegin
  2
*Paper_Space
 70
     0
 10
0.0
 20
0.0
 30
0.0
  3
*Paper_Space
  1

  0
ENDBLK
  5
6E
330
6C
100
AcDbEntity
 67
     1
  8
0
100
AcDbBlockEnd
  0
BLOCK
  5
75
330
74
100
AcDbEntity
 67
     1
  8
0
100
AcDbBlockBegin
  2
*Paper_Space0
 70
     0
 10
0.0
 20
0.0
 30
0.0
  3
*Paper_Space0
  1

  0
ENDBLK
  5
76
330
74
100
AcDbEntity
 67
     1
  8
0
100
AcDbBlockEnd
  0
ENDSEC
  0
SECTION
  2
ENTITIES
  0
POINT
  5
7B
330
70
100
AcDbEntity
  8
vaso fingerjoints v6_Sketch6
100
AcDbPoint
 10
2.216444474006747
 20
-2.393030783118548
 30
0.0
  0
POINT
  5
7C
330
70
100
AcDbEntity
  8
vaso fingerjoints v6_Sketch6
100
AcDbPoint
 10
0.3104135313207509
 20
-2.823106507323945
 30
0.0
  0
POINT
  5
7D
330
70
100
AcDbEntity
  8
vaso fingerjoints v6_Sketch6
100
AcDbPoint
 10
2.439649651125619
 20
-2.287255318537516
 30
0.0
  0
POINT
  5
7E
330
70
100
AcDbEntity
  8
vaso fingerjoints v6_Sketch6
100
AcDbPoint
 10
1.993239296887874
 20
-2.498806247699579
 30
0.0
  0
POINT
  5
7F
330
70
100
AcDbEntity
  8
vaso fingerjoints v6_Sketch6
100
AcDbPoint
 10
-0.1826437427151871
 20
-2.792602007323945
 30
0.0
  0
POINT
  5
80
330
70
100
AcDbEntity
  8
vaso fingerjoints v6_Sketch6
100
AcDbPoint
 10
-1.81266141814599
 20
-2.263342530855011
 30
0.0
  0
POINT
  5
81
330
70
100
AcDbEntity
  8
vaso fingerjoints v6_Sketch6
100
AcDbPoint
 10
0.4733908359175927
 20
-0.0292877755073864
 30
0.0
  0
POINT
  5
82
330
70
100
AcDbEntity
  8
vaso fingerjoints v6_Sketch6
100
AcDbPoint
 10
0.3351564535749212
 20
-2.423176077442317
 30
0.0
  0
POINT
  5
83
330
70
100
AcDbEntity
  8
vaso fingerjoints v6_Sketch6
100
AcDbPoint
 10
0.3351564535749212
 20
-2.423176077442317
 30
0.0
  0
POINT
  5
84
330
70
100
AcDbEntity
  8
vaso fingerjoints v6_Sketch6
100
AcDbPoint
 10
-2.229590710107919
 20
-1.998378447432133
 30
0.0
  0
POINT
  5
85
330
70
100
AcDbEntity
  8
vaso fingerjoints v6_Sketch6
100
AcDbPoint
 10
0.0
 20
0.0
 30
0.0
  0
POINT
  5
86
330
70
100
AcDbEntity
  8
vaso fingerjoints v6_Sketch6
100
AcDbPoint
 10
3.719648732591337
 20
-0.5551263614025867
 30
0.0
  0
POINT
  5
87
330
70
100
AcDbEntity
  8
vaso fingerjoints v6_Sketch6
100
AcDbPoint
 10
-3.622658705524686
 20
3.49924405520332
 30
0.0
  0
POINT
  5
88
330
70
100
AcDbEntity
  8
vaso fingerjoints v6_Sketch6
100
AcDbPoint
 10
-4.056883111687984
 20
1.841377238857344
 30
0.0
  0
POINT
  5
89
330
70
100
AcDbEntity
  8
vaso fingerjoints v6_Sketch6
100
AcDbPoint
 10
13.55971388678247
 20
-3.698005735005048
 30
0.0
  0
POINT
  5
8A
330
70
100
AcDbEntity
  8
vaso fingerjoints v6_Sketch6
100
AcDbPoint
 10
14.55971388678248
 20
-3.69800573500505
 30
0.0
  0
POINT
  5
8B
330
70
100
AcDbEntity
  8
vaso fingerjoints v6_Sketch6
100
AcDbPoint
 10
4.407048313698699
 20
3.225668269200983
 30
0.0
  0
POINT
  5
8C
330
70
100
AcDbEntity
  8
vaso fingerjoints v6_Sketch6
100
AcDbPoint
 10
-0.7525611175014502
 20
5.840258041383919
 30
0.0
  0
POINT
  5
8D
330
70
100
AcDbEntity
  8
vaso fingerjoints v6_Sketch6
100
AcDbPoint
 10
14.05971388678248
 20
-3.69800573500505
 30
0.0
  0
POINT
  5
8E
330
70
100
AcDbEntity
  8
vaso fingerjoints v6_Sketch6
100
AcDbPoint
 10
-3.049335825441492
 20
-0.5551263614025798
 30
0.0
  0
POINT
  5
8F
330
70
100
AcDbEntity
  8
vaso fingerjoints v6_Sketch6
100
AcDbPoint
 10
0.7964729159167079
 20
5.550133263846411
 30
0.0
  0
POINT
  5
90
330
70
100
AcDbEntity
  8
vaso fingerjoints v6_Sketch6
100
AcDbPoint
 10
-0.988089687944546
 20
5.765858494980518
 30
0.0
  0
POINT
  5
91
330
70
100
AcDbEntity
  8
vaso fingerjoints v6_Sketch6
100
AcDbPoint
 10
10.9597138867823
 20
4.901994264994888
 30
0.0
  0
POINT
  5
92
330
70
100
AcDbEntity
  8
vaso fingerjoints v6_Sketch6
100
AcDbPoint
 10
15.05971388678247
 20
-3.698005735005048
 30
0.0
  0
POINT
  5
93
330
70
100
AcDbEntity
  8
vaso fingerjoints v6_Sketch6
100
AcDbPoint
 10
0.3671253164188406
 20
5.576696169493629
 30
0.0
  0
POINT
  5
94
330
70
100
AcDbEntity
  8
vaso fingerjoints v6_Sketch6
100
AcDbPoint
 10
15.55971388678247
 20
-3.698005735005046
 30
0.0
  0
POINT
  5
95
330
70
100
AcDbEntity
  8
vaso fingerjoints v6_Sketch6
100
AcDbPoint
 10
4.726311760351154
 20
1.297977958321442
 30
0.0
  0
POINT
  5
96
330
70
100
AcDbEntity
  8
vaso fingerjoints v6_Sketch6
100
AcDbPoint
 10
3.756247465550701
 20
-1.190148482035206
 30
0.0
  0
POINT
  5
97
330
70
100
AcDbEntity
  8
vaso fingerjoints v6_Sketch6
100
AcDbPoint
 10
-1.991418194942552
 20
5.303221835405384
 30
0.0
  0
POINT
  5
98
330
70
100
AcDbEntity
  8
vaso fingerjoints v6_Sketch6
100
AcDbPoint
 10
-3.032188724072275
 20
3.735755708088687
 30
0.0
  0
POINT
  5
99
330
70
100
AcDbEntity
  8
vaso fingerjoints v6_Sketch6
100
AcDbPoint
 10
-1.991418194942552
 20
5.303221835405384
 30
0.0
  0
POINT
  5
9A
330
70
100
AcDbEntity
  8
vaso fingerjoints v6_Sketch6
100
AcDbPoint
 10
-2.021126064126954
 20
-2.130860489143572
 30
0.0
  0
POINT
  5
9B
330
70
100
AcDbEntity
  8
vaso fingerjoints v6_Sketch6
100
AcDbPoint
 10
4.128353717998396
 20
2.846333478713179
 30
0.0
  0
POINT
  5
9C
330
70
100
AcDbEntity
  8
vaso fingerjoints v6_Sketch6
100
AcDbPoint
 10
-3.382219245516706
 20
3.93078184737345
 30
0.0
  0
POINT
  5
9D
330
70
100
AcDbEntity
  8
vaso fingerjoints v6_Sketch6
100
AcDbPoint
 10
-2.200935007979388
 20
5.172410119359428
 30
0.0
  0
POINT
  5
9E
330
70
100
AcDbEntity
  8
vaso fingerjoints v6_Sketch6
100
AcDbPoint
 10
10.95971388678238
 20
1.401994264994892
 30
0.0
  0
POINT
  5
9F
330
70
100
AcDbEntity
  8
vaso fingerjoints v6_Sketch6
100
AcDbPoint
 10
16.05971388678246
 20
-3.698005735005046
 30
0.0
  0
POINT
  5
A0
330
70
100
AcDbEntity
  8
vaso fingerjoints v6_Sketch6
100
AcDbPoint
 10
14.15971388678238
 20
1.401994264994972
 30
0.0
  0
POINT
  5
A1
330
70
100
AcDbEntity
  8
vaso fingerjoints v6_Sketch6
100
AcDbPoint
 10
17.35971388678238
 20
1.401994264995047
 30
0.0
  0
POINT
  5
A2
330
70
100
AcDbEntity
  8
vaso fingerjoints v6_Sketch6
100
AcDbPoint
 10
3.431044772562624
 20
-0.9560549763152009
 30
0.0
  0
POINT
  5
A3
330
70
100
AcDbEntity
  8
vaso fingerjoints v6_Sketch6
100
AcDbPoint
 10
1.902103545782972
 20
1.955479889556483
 30
0.0
  0
POINT
  5
A4
330
70
100
AcDbEntity
  8
vaso fingerjoints v6_Sketch6
100
AcDbPoint
 10
1.724086420800598
 20
2.395100817786632
 30
0.0
  0
POINT
  5
A5
330
70
100
AcDbEntity
  8
vaso fingerjoints v6_Sketch6
100
AcDbPoint
 10
-1.102923790856303
 20
5.309373347625829
 30
0.0
  0
POINT
  5
A6
330
70
100
AcDbEntity
  8
vaso fingerjoints v6_Sketch6
100
AcDbPoint
 10
4.128353717998396
 20
2.846333478713179
 30
0.0
  0
POINT
  5
A7
330
70
100
AcDbEntity
  8
vaso fingerjoints v6_Sketch6
100
AcDbPoint
 10
17.3597138867823
 20
4.901994264995042
 30
0.0
  0
POINT
  5
A8
330
70
100
AcDbEntity
  8
vaso fingerjoints v6_Sketch6
100
AcDbPoint
 10
-0.9423170162624057
 20
2.560066041765798
 30
0.0
  0
POINT
  5
A9
330
70
100
AcDbEntity
  8
vaso fingerjoints v6_Sketch6
100
AcDbPoint
 10
-4.058857204730936
 20
1.347381183248942
 30
0.0
  0
POINT
  5
AA
330
70
100
AcDbEntity
  8
vaso fingerjoints v6_Sketch6
100
AcDbPoint
 10
13.05971388678247
 20
-3.698005735005057
 30
0.0
  0
POINT
  5
AB
330
70
100
AcDbEntity
  8
vaso fingerjoints v6_Sketch6
100
AcDbPoint
 10
14.1597138867823
 20
4.901994264994968
 30
0.0
  0
POINT
  5
AC
330
70
100
AcDbEntity
  8
vaso fingerjoints v6_Sketch6
100
AcDbPoint
 10
23.75971388678231
 20
4.901994264995211
 30
0.0
  0
POINT
  5
AD
330
70
100
AcDbEntity
  8
vaso fingerjoints v6_Sketch6
100
AcDbPoint
 10
26.95971388678231
 20
4.901994264995291
 30
0.0
  0
POINT
  5
AE
330
70
100
AcDbEntity
  8
vaso fingerjoints v6_Sketch6
100
AcDbPoint
 10
4.667378711573103
 20
0.8075058431490045
 30
0.0
  0
POINT
  5
AF
330
70
100
AcDbEntity
  8
vaso fingerjoints v6_Sketch6
100
AcDbPoint
 10
23.75971388678239
 20
1.401994264995215
 30
0.0
  0
POINT
  5
B0
330
70
100
AcDbEntity
  8
vaso fingerjoints v6_Sketch6
100
AcDbPoint
 10
33.35971388678232
 20
4.901994264995446
 30
0.0
  0
POINT
  5
B1
330
70
100
AcDbEntity
  8
vaso fingerjoints v6_Sketch6
100
AcDbPoint
 10
33.3597138867824
 20
1.40199426499545
 30
0.0
  0
POINT
  5
B2
330
70
100
AcDbEntity
  8
vaso fingerjoints v6_Sketch6
100
AcDbPoint
 10
30.1597138867824
 20
1.40199426499537
 30
0.0
  0
POINT
  5
B3
330
70
100
AcDbEntity
  8
vaso fingerjoints v6_Sketch6
100
AcDbPoint
 10
30.15971388678231
 20
4.901994264995366
 30
0.0
  0
POINT
  5
B4
330
70
100
AcDbEntity
  8
vaso fingerjoints v6_Sketch6
100
AcDbPoint
 10
-1.173166134518099
 20
2.145740877280829
 30
0.0
  0
POINT
  5
B5
330
70
100
AcDbEntity
  8
vaso fingerjoints v6_Sketch6
100
AcDbPoint
 10
26.95971388678239
 20
1.401994264995295
 30
0.0
  0
POINT
  5
B6
330
70
100
AcDbEntity
  8
vaso fingerjoints v6_Sketch6
100
AcDbPoint
 10
-0.988089687944546
 20
5.765858494980518
 30
0.0
  0
POINT
  5
B7
330
70
100
AcDbEntity
  8
vaso fingerjoints v6_Sketch6
100
AcDbPoint
 10
4.49975462708285
 20
2.996726050598297
 30
0.0
  0
POINT
  5
B8
330
70
100
AcDbEntity
  8
vaso fingerjoints v6_Sketch6
100
AcDbPoint
 10
-3.502438975520696
 20
3.715012951288384
 30
0.0
  0
POINT
  5
B9
330
70
100
AcDbEntity
  8
vaso fingerjoints v6_Sketch6
100
AcDbPoint
 10
-3.032188724072275
 20
3.735755708088687
 30
0.0
  0
POINT
  5
BA
330
70
100
AcDbEntity
  8
vaso fingerjoints v6_Sketch6
100
AcDbPoint
 10
20.55971388678239
 20
1.401994264995127
 30
0.0
  0
POINT
  5
BB
330
70
100
AcDbEntity
  8
vaso fingerjoints v6_Sketch6
100
AcDbPoint
 10
3.103320252221436
 20
4.988020220612473
 30
0.0
  0
POINT
  5
BC
330
70
100
AcDbEntity
  8
vaso fingerjoints v6_Sketch6
100
AcDbPoint
 10
4.314342000314546
 20
3.454610487803667
 30
0.0
  0
POINT
  5
BD
330
70
100
AcDbEntity
  8
vaso fingerjoints v6_Sketch6
100
AcDbPoint
 10
20.5597138867823
 20
4.901994264995122
 30
0.0
  0
POINT
  5
BE
330
70
100
AcDbEntity
  8
vaso fingerjoints v6_Sketch6
100
AcDbPoint
 10
3.900549445565057
 20
-0.9896841745789004
 30
0.0
  0
POINT
  5
BF
330
70
100
AcDbEntity
  8
vaso fingerjoints v6_Sketch6
100
AcDbPoint
 10
2.911525657621815
 20
5.143660297335556
 30
0.0
  0
POINT
  5
C0
330
70
100
AcDbEntity
  8
vaso fingerjoints v6_Sketch6
100
AcDbPoint
 10
4.044851425579413
 20
-0.789219867122594
 30
0.0
  0
POINT
  5
C1
330
70
100
AcDbEntity
  8
vaso fingerjoints v6_Sketch6
100
AcDbPoint
 10
3.431044772562624
 20
-0.9560549763152009
 30
0.0
  0
POINT
  5
C2
330
70
100
AcDbEntity
  8
vaso fingerjoints v6_Sketch6
100
AcDbPoint
 10
-3.286318663107576
 20
-0.1216807077714335
 30
0.0
  0
POINT
  5
C3
330
70
100
AcDbEntity
  8
vaso fingerjoints v6_Sketch6
100
AcDbPoint
 10
4.696845235962129
 20
1.052741900735223
 30
0.0
  0
POINT
  5
C4
330
70
100
AcDbEntity
  8
vaso fingerjoints v6_Sketch6
100
AcDbPoint
 10
3.295114846821054
 20
4.832380143889387
 30
0.0
  0
LINE
  5
C5
330
70
100
AcDbEntity
  8
vaso fingerjoints v6_Sketch6
100
AcDbLine
 10
-3.049335825441492
 20
-0.5551263614025795
 30
0.0
 11
-2.748003460342596
 21
-0.9715333807285105
 31
0.0
  0
LINE
  5
C6
330
70
100
AcDbEntity
  8
vaso fingerjoints v6_Sketch6
100
AcDbLine
 10
-1.132709201223947
 20
-2.144112843830838
 30
0.0
 11
-1.256453524526137
 21
-2.525221625410932
 31
0.0
  0
LINE
  5
C7
330
70
100
AcDbEntity
  8
vaso fingerjoints v6_Sketch6
100
AcDbLine
 10
-2.748003460342596
 20
-0.9715333807285105
 30
0.0
 11
-3.040502376126543
 21
-1.245396385189127
 31
0.0
  0
LINE
  5
C8
330
70
100
AcDbEntity
  8
vaso fingerjoints v6_Sketch6
100
AcDbLine
 10
-3.637896696158543
 20
-0.3139030988266698
 30
0.0
 11
-3.40091385849246
 21
-0.7473487524578153
 31
0.0
  0
LINE
  5
C9
330
70
100
AcDbEntity
  8
vaso fingerjoints v6_Sketch6
100
AcDbLine
 10
2.222359879484199
 20
5.103644477850521
 30
0.0
 11
2.389231437132691
 21
5.4679389249602
 31
0.0
  0
LINE
  5
CA
330
70
100
AcDbEntity
  8
vaso fingerjoints v6_Sketch6
100
AcDbLine
 10
-3.85197345687193
 20
2.928838387362427
 30
0.0
 11
-3.97713871300807
 21
2.450958006245588
 31
0.0
  0
LINE
  5
CB
330
70
100
AcDbEntity
  8
vaso fingerjoints v6_Sketch6
100
AcDbLine
 10
-3.656191213843888
 20
1.839776005246425
 30
0.0
 11
-3.589518620340856
 21
2.349433503254235
 31
0.0
  0
LINE
  5
CC
330
70
100
AcDbEntity
  8
vaso fingerjoints v6_Sketch6
100
AcDbLine
 10
1.940108255654626
 20
5.673667794735496
 30
0.0
 11
2.389231437132691
 21
5.4679389249602
 31
0.0
  0
LINE
  5
CD
330
70
100
AcDbEntity
  8
vaso fingerjoints v6_Sketch6
100
AcDbLine
 10
-3.40091385849246
 20
-0.7473487524578153
 30
0.0
 11
-3.637896696158543
 21
-0.3139030988266697
 31
0.0
  0
LINE
  5
CE
330
70
100
AcDbEntity
  8
vaso fingerjoints v6_Sketch6
100
AcDbLine
 10
-3.474226199968669
 20
0.3567404012850095
 30
0.0
 11
-3.862645318450109
 21
0.2583170842047444
 31
0.0
  0
LINE
  5
CF
330
70
100
AcDbEntity
  8
vaso fingerjoints v6_Sketch6
100
AcDbLine
 10
-1.988726047330328
 20
4.832522023117112
 30
0.0
 11
-2.200935007979388
 21
5.172410119359428
 31
0.0
  0
LINE
  5
D0
330
70
100
AcDbEntity
  8
vaso fingerjoints v6_Sketch6
100
AcDbLine
 10
4.259831527490695
 20
2.349433503254227
 30
0.0
 11
4.657009929551909
 21
2.402404041132194
 31
0.0
  0
LINE
  5
D1
330
70
100
AcDbEntity
  8
vaso fingerjoints v6_Sketch6
100
AcDbLine
 10
-3.65816530688684
 20
1.345779949638024
 30
0.0
 11
-3.595568135453633
 21
0.8356058674576729
 31
0.0
  0
LINE
  5
D2
330
70
100
AcDbEntity
  8
vaso fingerjoints v6_Sketch6
100
AcDbLine
 10
-3.040502376126543
 20
-1.245396385189127
 30
0.0
 11
-2.702868286921053
 21
-1.606005899492867
 31
0.0
  0
LINE
  5
D3
330
70
100
AcDbEntity
  8
vaso fingerjoints v6_Sketch6
100
AcDbLine
 10
1.773236698006134
 20
5.309373347625816
 30
0.0
 11
1.940108255654626
 21
5.673667794735496
 31
0.0
  0
LINE
  5
D4
330
70
100
AcDbEntity
  8
vaso fingerjoints v6_Sketch6
100
AcDbLine
 10
3.965095515056039
 20
-0.1035160460003324
 30
0.0
 11
4.338420417682256
 21
-0.2490669924971021
 31
0.0
  0
LINE
  5
D5
330
70
100
AcDbEntity
  8
vaso fingerjoints v6_Sketch6
100
AcDbLine
 10
4.667378711573103
 20
0.8075058431490045
 30
0.0
 11
4.726311760351154
 21
1.297977958321442
 31
0.0
  0
LINE
  5
D6
330
70
100
AcDbEntity
  8
vaso fingerjoints v6_Sketch6
100
AcDbLine
 10
4.26954516525863
 20
0.8553078344655794
 30
0.0
 11
4.144539107118512
 21
0.3567404012850019
 31
0.0
  0
LINE
  5
D7
330
70
100
AcDbEntity
  8
vaso fingerjoints v6_Sketch6
100
AcDbLine
 10
1.282722127089673
 20
5.462968450798538
 30
0.0
 11
1.773236698006134
 21
5.309373347625816
 31
0.0
  0
LINE
  5
D8
330
70
100
AcDbEntity
  8
vaso fingerjoints v6_Sketch6
100
AcDbLine
 10
-3.049335825441492
 20
-0.5551263614025795
 30
0.0
 11
-3.40091385849246
 21
-0.7473487524578153
 31
0.0
  0
LINE
  5
D9
330
70
100
AcDbEntity
  8
vaso fingerjoints v6_Sketch6
100
AcDbLine
 10
-1.597742776100402
 20
-1.925161309838438
 30
0.0
 11
-1.81266141814599
 21
-2.263342530855011
 31
0.0
  0
LINE
  5
DA
330
70
100
AcDbEntity
  8
vaso fingerjoints v6_Sketch6
100
AcDbLine
 10
3.0426281436794
 20
4.521241869670933
 30
0.0
 11
3.39785087543443
 21
4.149741114833887
 31
0.0
  0
LINE
  5
DB
330
70
100
AcDbEntity
  8
vaso fingerjoints v6_Sketch6
100
AcDbLine
 10
-2.014672068062328
 20
-1.66019722641556
 30
0.0
 11
-2.229590710107919
 21
-1.998378447432133
 31
0.0
  0
LINE
  5
DC
330
70
100
AcDbEntity
  8
vaso fingerjoints v6_Sketch6
100
AcDbLine
 10
4.325136658230704
 20
1.859769087660211
 30
0.0
 11
4.722315060291917
 21
1.912739625538176
 31
0.0
  0
LINE
  5
DD
330
70
100
AcDbEntity
  8
vaso fingerjoints v6_Sketch6
100
AcDbLine
 10
0.7964729159167079
 20
5.550133263846411
 30
0.0
 11
0.8671743597214835
 21
5.944541512734413
 31
0.0
  0
LINE
  5
DE
330
70
100
AcDbEntity
  8
vaso fingerjoints v6_Sketch6
100
AcDbLine
 10
-3.595568135453633
 20
0.8356058674576726
 30
0.0
 11
-3.983987253935071
 21
0.7371825503774091
 31
0.0
  0
LINE
  5
DF
330
70
100
AcDbEntity
  8
vaso fingerjoints v6_Sketch6
100
AcDbLine
 10
3.080682278286951
 20
-1.332142895032256
 30
0.0
 11
3.337193024167102
 21
-1.639972065506706
 31
0.0
  0
LINE
  5
E0
330
70
100
AcDbEntity
  8
vaso fingerjoints v6_Sketch6
100
AcDbLine
 10
-0.7866006628355285
 20
-2.677780756114885
 30
0.0
 11
-1.256453524526137
 21
-2.525221625410932
 31
0.0
  0
LINE
  5
E1
330
70
100
AcDbEntity
  8
vaso fingerjoints v6_Sketch6
100
AcDbLine
 10
2.65903895448016
 20
4.8325220231171
 30
0.0
 11
2.911525657621815
 21
5.143660297335556
 31
0.0
  0
LINE
  5
E2
330
70
100
AcDbEntity
  8
vaso fingerjoints v6_Sketch6
100
AcDbLine
 10
3.0426281436794
 20
4.521241869670933
 30
0.0
 11
3.295114846821054
 21
4.832380143889387
 31
0.0
  0
LINE
  5
E3
330
70
100
AcDbEntity
  8
vaso fingerjoints v6_Sketch6
100
AcDbLine
 10
2.911525657621815
 20
5.143660297335556
 30
0.0
 11
3.295114846821054
 21
4.832380143889387
 31
0.0
  0
LINE
  5
E4
330
70
100
AcDbEntity
  8
vaso fingerjoints v6_Sketch6
100
AcDbLine
 10
-3.049335825441492
 20
-0.5551263614025798
 30
0.0
 11
-3.40091385849246
 21
-0.7473487524578153
 31
0.0
  0
LINE
  5
E5
330
70
100
AcDbEntity
  8
vaso fingerjoints v6_Sketch6
100
AcDbLine
 10
-3.286318663107575
 20
-0.1216807077714335
 30
0.0
 11
-3.637896696158543
 21
-0.3139030988266697
 31
0.0
  0
LINE
  5
E6
330
70
100
AcDbEntity
  8
vaso fingerjoints v6_Sketch6
100
AcDbLine
 10
0.8671743597214835
 20
5.944541512734413
 30
0.0
 11
1.353423570894447
 21
5.85737669968654
 31
0.0
  0
LINE
  5
E7
330
70
100
AcDbEntity
  8
vaso fingerjoints v6_Sketch6
100
AcDbLine
 10
2.701172742821495
 20
-1.648384120192408
 30
0.0
 11
2.957683488701647
 21
-1.956213290666859
 31
0.0
  0
LINE
  5
E8
330
70
100
AcDbEntity
  8
vaso fingerjoints v6_Sketch6
100
AcDbLine
 10
4.338420417682256
 20
-0.2490669924971021
 30
0.0
 11
4.517864009744728
 21
0.2111894547882319
 31
0.0
  0
LINE
  5
E9
330
70
100
AcDbEntity
  8
vaso fingerjoints v6_Sketch6
100
AcDbLine
 10
-2.01467206806233
 20
-1.660197226415559
 30
0.0
 11
-2.410369371137107
 21
-1.33214289503225
 31
0.0
  0
LINE
  5
EA
330
70
100
AcDbEntity
  8
vaso fingerjoints v6_Sketch6
100
AcDbLine
 10
-0.6628563395333388
 20
-2.296671974534792
 30
0.0
 11
-0.7866006628355285
 21
-2.677780756114885
 31
0.0
  0
LINE
  5
EB
330
70
100
AcDbEntity
  8
vaso fingerjoints v6_Sketch6
100
AcDbLine
 10
-2.410369371137107
 20
-1.332142895032249
 30
0.0
 11
-2.702868286921053
 21
-1.606005899492867
 31
0.0
  0
LINE
  5
EC
330
70
100
AcDbEntity
  8
vaso fingerjoints v6_Sketch6
100
AcDbLine
 10
-0.1579008204610167
 20
-2.392671577442316
 30
0.0
 11
-0.6628563395333388
 21
-2.296671974534792
 31
0.0
  0
LINE
  5
ED
330
70
100
AcDbEntity
  8
vaso fingerjoints v6_Sketch6
100
AcDbLine
 10
4.314342000314546
 20
3.454610487803667
 30
0.0
 11
4.49975462708285
 21
2.996726050598297
 31
0.0
  0
LINE
  5
EE
330
70
100
AcDbEntity
  8
vaso fingerjoints v6_Sketch6
100
AcDbLine
 10
3.39785087543443
 20
4.149741114833887
 30
0.0
 11
3.719982422130742
 21
4.388043082031016
 31
0.0
  0
LINE
  5
EF
330
70
100
AcDbEntity
  8
vaso fingerjoints v6_Sketch6
100
AcDbLine
 10
3.719648732591335
 20
-0.5551263614025878
 30
0.0
 11
3.965095515056039
 21
-0.1035160460003324
 31
0.0
  0
LINE
  5
F0
330
70
100
AcDbEntity
  8
vaso fingerjoints v6_Sketch6
100
AcDbLine
 10
-1.781901381905717
 20
5.43403355145134
 30
0.0
 11
-2.200935007979388
 21
5.172410119359428
 31
0.0
  0
LINE
  5
F1
330
70
100
AcDbEntity
  8
vaso fingerjoints v6_Sketch6
100
AcDbLine
 10
-3.862645318450109
 20
0.2583170842047444
 30
0.0
 11
-3.983987253935071
 21
0.7371825503774091
 31
0.0
  0
LINE
  5
F2
330
70
100
AcDbEntity
  8
vaso fingerjoints v6_Sketch6
100
AcDbLine
 10
4.144539107118511
 20
0.3567404012850019
 30
0.0
 11
4.517864009744728
 21
0.2111894547882319
 31
0.0
  0
LINE
  5
F3
330
70
100
AcDbEntity
  8
vaso fingerjoints v6_Sketch6
100
AcDbLine
 10
-3.286318663107576
 20
-0.1216807077714335
 30
0.0
 11
-3.637896696158543
 21
-0.3139030988266698
 31
0.0
  0
LINE
  5
F4
330
70
100
AcDbEntity
  8
vaso fingerjoints v6_Sketch6
100
AcDbLine
 10
-2.727537968284595
 20
4.149741114833895
 30
0.0
 11
-3.017838769953455
 21
4.425933087015199
 31
0.0
  0
LINE
  5
F5
330
70
100
AcDbEntity
  8
vaso fingerjoints v6_Sketch6
100
AcDbLine
 10
4.128353717998396
 20
2.846333478713179
 30
0.0
 11
4.259831527490695
 21
2.349433503254227
 31
0.0
  0
LINE
  5
F6
330
70
100
AcDbEntity
  8
vaso fingerjoints v6_Sketch6
100
AcDbLine
 10
3.942941091230091
 20
3.304217915918548
 30
0.0
 11
3.691643269222506
 21
3.752598785999158
 31
0.0
  0
LINE
  5
F7
330
70
100
AcDbEntity
  8
vaso fingerjoints v6_Sketch6
100
AcDbLine
 10
-1.597742776100402
 20
-1.925161309838438
 30
0.0
 11
-1.132709201223947
 21
-2.144112843830838
 31
0.0
  0
LINE
  5
F8
330
70
100
AcDbEntity
  8
vaso fingerjoints v6_Sketch6
100
AcDbLine
 10
-3.017838769953455
 20
4.425933087015199
 30
0.0
 11
-2.677333395169573
 21
4.783832639604034
 31
0.0
  0
LINE
  5
F9
330
70
100
AcDbEntity
  8
vaso fingerjoints v6_Sketch6
100
AcDbLine
 10
-3.272628184080255
 20
3.304217915918556
 30
0.0
 11
-3.464353364204717
 21
2.827313884371073
 31
0.0
  0
LINE
  5
FA
330
70
100
AcDbEntity
  8
vaso fingerjoints v6_Sketch6
100
AcDbLine
 10
-2.229590710107919
 20
-1.998378447432133
 30
0.0
 11
-1.81266141814599
 21
-2.263342530855011
 31
0.0
  0
LINE
  5
FB
330
70
100
AcDbEntity
  8
vaso fingerjoints v6_Sketch6
100
AcDbLine
 10
4.26954516525863
 20
0.8553078344655821
 30
0.0
 11
4.667378711573103
 21
0.8075058431490045
 31
0.0
  0
LINE
  5
FC
330
70
100
AcDbEntity
  8
vaso fingerjoints v6_Sketch6
100
AcDbLine
 10
4.013774815918818
 20
3.990900753196286
 30
0.0
 11
3.719982422130742
 21
4.388043082031016
 31
0.0
  0
LINE
  5
FD
330
70
100
AcDbEntity
  8
vaso fingerjoints v6_Sketch6
100
AcDbLine
 10
4.328478214036681
 20
1.345779949638018
 30
0.0
 11
4.726311760351154
 21
1.297977958321442
 31
0.0
  0
LINE
  5
FE
330
70
100
AcDbEntity
  8
vaso fingerjoints v6_Sketch6
100
AcDbLine
 10
1.282722127089673
 20
5.462968450798538
 30
0.0
 11
1.353423570894447
 21
5.85737669968654
 31
0.0
  0
LINE
  5
FF
330
70
100
AcDbEntity
  8
vaso fingerjoints v6_Sketch6
100
AcDbLine
 10
4.657009929551909
 20
2.402404041132194
 30
0.0
 11
4.722315060291917
 21
1.912739625538176
 31
0.0
  0
LINE
  5
100
330
70
100
AcDbEntity
  8
vaso fingerjoints v6_Sketch6
100
AcDbLine
 10
4.328478214036681
 20
1.345779949638018
 30
0.0
 11
4.325136658230702
 21
1.859769087660209
 31
0.0
  0
LINE
  5
101
330
70
100
AcDbEntity
  8
vaso fingerjoints v6_Sketch6
100
AcDbLine
 10
3.942941091230091
 20
3.304217915918548
 30
0.0
 11
4.314342000314546
 21
3.454610487803667
 31
0.0
  0
LINE
  5
102
330
70
100
AcDbEntity
  8
vaso fingerjoints v6_Sketch6
100
AcDbLine
 10
2.65903895448016
 20
4.832522023117103
 30
0.0
 11
2.222359879484199
 21
5.103644477850521
 31
0.0
  0
LINE
  5
103
330
70
100
AcDbEntity
  8
vaso fingerjoints v6_Sketch6
100
AcDbLine
 10
4.128353717998396
 20
2.846333478713179
 30
0.0
 11
4.49975462708285
 21
2.996726050598297
 31
0.0
  0
LINE
  5
104
330
70
100
AcDbEntity
  8
vaso fingerjoints v6_Sketch6
100
AcDbLine
 10
3.691643269222506
 20
3.752598785999158
 30
0.0
 11
4.013774815918818
 21
3.990900753196286
 31
0.0
  0
LINE
  5
105
330
70
100
AcDbEntity
  8
vaso fingerjoints v6_Sketch6
100
AcDbLine
 10
-3.272628184080255
 20
3.304217915918556
 30
0.0
 11
-3.622658705524686
 21
3.49924405520332
 31
0.0
  0
LINE
  5
106
330
70
100
AcDbEntity
  8
vaso fingerjoints v6_Sketch6
100
AcDbLine
 10
34.29097457752884
 20
-3.695343744057499
 30
0.0
 11
34.29097457752864
 21
4.901994264995421
 31
0.0
  0
LINE
  5
107
330
70
100
AcDbEntity
  8
vaso fingerjoints v6_Sketch6
100
AcDbLine
 10
10.3597138867823
 20
4.901994264994873
 30
0.0
 11
10.35971388678238
 21
1.401994264994874
 31
0.0
  0
LINE
  5
108
330
70
100
AcDbEntity
  8
vaso fingerjoints v6_Sketch6
100
AcDbLine
 10
10.95971388678234
 20
2.732663943293838
 30
0.0
 11
10.95971388678245
 21
-1.750159340618663
 31
0.0
  0
LINE
  5
109
330
70
100
AcDbEntity
  8
vaso fingerjoints v6_Sketch6
100
AcDbLine
 10
12.3597138867823
 20
4.901994264994929
 30
0.0
 11
12.35971388678238
 21
1.40199426499493
 31
0.0
  0
LINE
  5
10A
330
70
100
AcDbEntity
  8
vaso fingerjoints v6_Sketch6
100
AcDbLine
 10
11.35971388678234
 20
2.732663943293843
 30
0.0
 11
11.35971388678245
 21
-1.750159340618659
 31
0.0
  0
LINE
  5
10B
330
70
100
AcDbEntity
  8
vaso fingerjoints v6_Sketch6
100
AcDbLine
 10
-1.988726047330328
 20
4.832522023117112
 30
0.0
 11
-2.387032593500713
 21
4.507640667422731
 31
0.0
  0
LINE
  5
10C
330
70
100
AcDbEntity
  8
vaso fingerjoints v6_Sketch6
100
AcDbLine
 10
-1.569692421256656
 20
5.094145455209025
 30
0.0
 11
-1.102923790856303
 21
5.309373347625829
 31
0.0
  0
LINE
  5
10D
330
70
100
AcDbEntity
  8
vaso fingerjoints v6_Sketch6
100
AcDbLine
 10
0.3671253164188406
 20
5.576696169493629
 30
0.0
 11
0.345579514675701
 21
5.976811577062778
 31
0.0
  0
LINE
  5
10E
330
70
100
AcDbEntity
  8
vaso fingerjoints v6_Sketch6
100
AcDbLine
 10
10.15971388678234
 20
2.732663943293815
 30
0.0
 11
10.15971388678245
 21
-1.750159340618687
 31
0.0
  0
LINE
  5
10F
330
70
100
AcDbEntity
  8
vaso fingerjoints v6_Sketch6
100
AcDbLine
 10
-3.622658705524686
 20
3.49924405520332
 30
0.0
 11
-3.382219245516706
 21
3.93078184737345
 31
0.0
  0
LINE
  5
110
330
70
100
AcDbEntity
  8
vaso fingerjoints v6_Sketch6
100
AcDbLine
 10
-3.589518620340856
 20
2.349433503254235
 30
0.0
 11
-3.97713871300807
 21
2.450958006245588
 31
0.0
  0
LINE
  5
111
330
70
100
AcDbEntity
  8
vaso fingerjoints v6_Sketch6
100
AcDbLine
 10
10.55971388678234
 20
2.732663943293824
 30
0.0
 11
10.55971388678245
 21
-1.750159340618678
 31
0.0
  0
LINE
  5
112
330
70
100
AcDbEntity
  8
vaso fingerjoints v6_Sketch6
100
AcDbLine
 10
10.38450327985919
 20
-0.4999999999999723
 30
0.0
 11
10.38450327985926
 21
-3.800000056624385
 31
0.0
  0
LINE
  5
113
330
70
100
AcDbEntity
  8
vaso fingerjoints v6_Sketch6
100
AcDbLine
 10
10.78450327985919
 20
-0.4999999999999583
 30
0.0
 11
10.78450327985926
 21
-3.80000005662437
 31
0.0
  0
LINE
  5
114
330
70
100
AcDbEntity
  8
vaso fingerjoints v6_Sketch6
100
AcDbLine
 10
11.75971388678235
 20
2.732663943293857
 30
0.0
 11
11.75971388678245
 21
-1.750159340618644
 31
0.0
  0
LINE
  5
115
330
70
100
AcDbEntity
  8
vaso fingerjoints v6_Sketch6
100
AcDbLine
 10
12.38450327985919
 20
-0.4999999999999161
 30
0.0
 11
12.38450327985927
 21
-3.800000056624328
 31
0.0
  0
LINE
  5
116
330
70
100
AcDbEntity
  8
vaso fingerjoints v6_Sketch6
100
AcDbLine
 10
11.5597138867823
 20
4.901994264994906
 30
0.0
 11
11.55971388678238
 21
1.401994264994907
 31
0.0
  0
LINE
  5
117
330
70
100
AcDbEntity
  8
vaso fingerjoints v6_Sketch6
100
AcDbLine
 10
14.7597138867823
 20
4.901994264994986
 30
0.0
 11
14.75971388678238
 21
1.401994264994986
 31
0.0
  0
LINE
  5
118
330
70
100
AcDbEntity
  8
vaso fingerjoints v6_Sketch6
100
AcDbLine
 10
0.3671253164188406
 20
5.576696169493629
 30
0.0
 11
0.7964729159167079
 21
5.550133263846411
 31
0.0
  0
LINE
  5
119
330
70
100
AcDbEntity
  8
vaso fingerjoints v6_Sketch6
100
AcDbLine
 10
15.1597138867823
 20
4.901994264994995
 30
0.0
 11
15.15971388678238
 21
1.401994264994995
 31
0.0
  0
LINE
  5
11A
330
70
100
AcDbEntity
  8
vaso fingerjoints v6_Sketch6
100
AcDbLine
 10
15.75971388678235
 20
2.732663943293959
 30
0.0
 11
15.75971388678245
 21
-1.750159340618542
 31
0.0
  0
LINE
  5
11B
330
70
100
AcDbEntity
  8
vaso fingerjoints v6_Sketch6
100
AcDbLine
 10
12.78450327985919
 20
-0.4999999999999158
 30
0.0
 11
12.78450327985927
 21
-3.800000056624328
 31
0.0
  0
LINE
  5
11C
330
70
100
AcDbEntity
  8
vaso fingerjoints v6_Sketch6
100
AcDbLine
 10
-0.6318666499701111
 20
5.458172440432632
 30
0.0
 11
-0.7525611175014502
 21
5.840258041383919
 31
0.0
  0
LINE
  5
11D
330
70
100
AcDbEntity
  8
vaso fingerjoints v6_Sketch6
100
AcDbLine
 10
13.9597138867823
 20
4.901994264994967
 30
0.0
 11
13.95971388678238
 21
1.401994264994967
 31
0.0
  0
LINE
  5
11E
330
70
100
AcDbEntity
  8
vaso fingerjoints v6_Sketch6
100
AcDbLine
 10
11.1597138867823
 20
4.901994264994891
 30
0.0
 11
11.15971388678238
 21
1.401994264994892
 31
0.0
  0
LINE
  5
11F
330
70
100
AcDbEntity
  8
vaso fingerjoints v6_Sketch6
100
AcDbLine
 10
-1.223618258387641
 20
5.691458948577118
 30
0.0
 11
-0.7525611175014502
 21
5.840258041383919
 31
0.0
  0
LINE
  5
120
330
70
100
AcDbEntity
  8
vaso fingerjoints v6_Sketch6
100
AcDbLine
 10
15.35971388678235
 20
2.732663943293946
 30
0.0
 11
15.35971388678245
 21
-1.750159340618556
 31
0.0
  0
LINE
  5
121
330
70
100
AcDbEntity
  8
vaso fingerjoints v6_Sketch6
100
AcDbLine
 10
10.7597138867823
 20
4.901994264994887
 30
0.0
 11
10.75971388678238
 21
1.401994264994887
 31
0.0
  0
LINE
  5
122
330
70
100
AcDbEntity
  8
vaso fingerjoints v6_Sketch6
100
AcDbLine
 10
12.55971388678235
 20
2.73266394329388
 30
0.0
 11
12.55971388678245
 21
-1.750159340618621
 31
0.0
  0
LINE
  5
123
330
70
100
AcDbEntity
  8
vaso fingerjoints v6_Sketch6
100
AcDbLine
 10
-0.6318666499701111
 20
5.458172440432632
 30
0.0
 11
-0.1261600087668762
 21
5.550133263846427
 31
0.0
  0
LINE
  5
124
330
70
100
AcDbEntity
  8
vaso fingerjoints v6_Sketch6
100
AcDbLine
 10
-3.464353364204717
 20
2.827313884371073
 30
0.0
 11
-3.85197345687193
 21
2.928838387362427
 31
0.0
  0
LINE
  5
125
330
70
100
AcDbEntity
  8
vaso fingerjoints v6_Sketch6
100
AcDbLine
 10
-1.1029237908563
 20
5.309373347625829
 30
0.0
 11
-1.223618258387641
 21
5.691458948577118
 31
0.0
  0
LINE
  5
126
330
70
100
AcDbEntity
  8
vaso fingerjoints v6_Sketch6
100
AcDbLine
 10
0.345579514675701
 20
5.976811577062778
 30
0.0
 11
-0.1477058105100149
 21
5.950248671415574
 31
0.0
  0
LINE
  5
127
330
70
100
AcDbEntity
  8
vaso fingerjoints v6_Sketch6
100
AcDbLine
 10
9.759713886782344
 20
2.732663943293801
 30
0.0
 11
9.759713886782449
 21
-1.750159340618701
 31
0.0
  0
LINE
  5
128
330
70
100
AcDbEntity
  8
vaso fingerjoints v6_Sketch6
100
AcDbLine
 10
9.98450327985919
 20
-0.4999999999999816
 30
0.0
 11
9.984503279859266
 21
-3.800000056624393
 31
0.0
  0
LINE
  5
129
330
70
100
AcDbEntity
  8
vaso fingerjoints v6_Sketch6
100
AcDbLine
 10
12.7597138867823
 20
4.90199426499493
 30
0.0
 11
12.75971388678238
 21
1.40199426499493
 31
0.0
  0
LINE
  5
12A
330
70
100
AcDbEntity
  8
vaso fingerjoints v6_Sketch6
100
AcDbLine
 10
13.58450327985919
 20
-0.4999999999998926
 30
0.0
 11
13.58450327985927
 21
-3.800000056624305
 31
0.0
  0
LINE
  5
12B
330
70
100
AcDbEntity
  8
vaso fingerjoints v6_Sketch6
100
AcDbLine
 10
-1.569692421256657
 20
5.094145455209023
 30
0.0
 11
-1.781901381905717
 21
5.43403355145134
 31
0.0
  0
LINE
  5
12C
330
70
100
AcDbEntity
  8
vaso fingerjoints v6_Sketch6
100
AcDbLine
 10
14.3597138867823
 20
4.901994264994971
 30
0.0
 11
14.35971388678238
 21
1.401994264994972
 31
0.0
  0
LINE
  5
12D
330
70
100
AcDbEntity
  8
vaso fingerjoints v6_Sketch6
100
AcDbLine
 10
14.15971388678235
 20
2.732663943293918
 30
0.0
 11
14.15971388678245
 21
-1.750159340618584
 31
0.0
  0
LINE
  5
12E
330
70
100
AcDbEntity
  8
vaso fingerjoints v6_Sketch6
100
AcDbLine
 10
14.78450327985919
 20
-0.4999999999998597
 30
0.0
 11
14.78450327985927
 21
-3.800000056624272
 31
0.0
  0
LINE
  5
12F
330
70
100
AcDbEntity
  8
vaso fingerjoints v6_Sketch6
100
AcDbLine
 10
11.98450327985919
 20
-0.4999999999999301
 30
0.0
 11
11.98450327985926
 21
-3.698005735005127
 31
0.0
  0
LINE
  5
130
330
70
100
AcDbEntity
  8
vaso fingerjoints v6_Sketch6
100
AcDbLine
 10
13.35971388678235
 20
2.732663943293895
 30
0.0
 11
13.35971388678245
 21
-1.750159340618608
 31
0.0
  0
LINE
  5
131
330
70
100
AcDbEntity
  8
vaso fingerjoints v6_Sketch6
100
AcDbLine
 10
12.95971388678235
 20
2.73266394329388
 30
0.0
 11
12.95971388678245
 21
-1.750159340618621
 31
0.0
  0
LINE
  5
132
330
70
100
AcDbEntity
  8
vaso fingerjoints v6_Sketch6
100
AcDbLine
 10
13.18450327985919
 20
-0.4999999999999019
 30
0.0
 11
13.18450327985927
 21
-3.800000056624313
 31
0.0
  0
LINE
  5
133
330
70
100
AcDbEntity
  8
vaso fingerjoints v6_Sketch6
100
AcDbLine
 10
14.95971388678235
 20
2.732663943293936
 30
0.0
 11
14.95971388678245
 21
-1.750159340618565
 31
0.0
  0
LINE
  5
134
330
70
100
AcDbEntity
  8
vaso fingerjoints v6_Sketch6
100
AcDbLine
 10
-3.286318663107575
 20
-0.1216807077714335
 30
0.0
 11
-3.474226199968669
 21
0.3567404012850095
 31
0.0
  0
LINE
  5
135
330
70
100
AcDbEntity
  8
vaso fingerjoints v6_Sketch6
100
AcDbLine
 10
-3.032188724072275
 20
3.735755708088687
 30
0.0
 11
-3.382219245516706
 21
3.93078184737345
 31
0.0
  0
LINE
  5
136
330
70
100
AcDbEntity
  8
vaso fingerjoints v6_Sketch6
100
AcDbLine
 10
-3.656191213843888
 20
1.839776005246425
 30
0.0
 11
-4.056883111687984
 21
1.841377238857344
 31
0.0
  0
LINE
  5
137
330
70
100
AcDbEntity
  8
vaso fingerjoints v6_Sketch6
100
AcDbLine
 10
-2.387032593500714
 20
4.507640667422731
 30
0.0
 11
-2.677333395169573
 21
4.783832639604034
 31
0.0
  0
LINE
  5
138
330
70
100
AcDbEntity
  8
vaso fingerjoints v6_Sketch6
100
AcDbLine
 10
-4.058857204730936
 20
1.347381183248942
 30
0.0
 11
-4.056883111687984
 21
1.841377238857344
 31
0.0
  0
LINE
  5
139
330
70
100
AcDbEntity
  8
vaso fingerjoints v6_Sketch6
100
AcDbLine
 10
9.559713886782295
 20
4.90199426499485
 30
0.0
 11
9.559713886782375
 21
1.40199426499485
 31
0.0
  0
LINE
  5
13A
330
70
100
AcDbEntity
  8
vaso fingerjoints v6_Sketch6
100
AcDbLine
 10
9.584503279859189
 20
-0.4999999999999956
 30
0.0
 11
9.584503279859266
 21
-3.800000056624408
 31
0.0
  0
LINE
  5
13B
330
70
100
AcDbEntity
  8
vaso fingerjoints v6_Sketch6
100
AcDbLine
 10
9.959713886782296
 20
4.901994264994864
 30
0.0
 11
9.959713886782376
 21
1.401994264994864
 31
0.0
  0
LINE
  5
13C
330
70
100
AcDbEntity
  8
vaso fingerjoints v6_Sketch6
100
AcDbLine
 10
-3.032188724072275
 20
3.735755708088687
 30
0.0
 11
-2.727537968284595
 21
4.149741114833895
 31
0.0
  0
LINE
  5
13D
330
70
100
AcDbEntity
  8
vaso fingerjoints v6_Sketch6
100
AcDbLine
 10
11.58450327985919
 20
-0.4999999999999395
 30
0.0
 11
11.58450327985927
 21
-3.800000056624352
 31
0.0
  0
LINE
  5
13E
330
70
100
AcDbEntity
  8
vaso fingerjoints v6_Sketch6
100
AcDbLine
 10
-0.1261600087668753
 20
5.550133263846428
 30
0.0
 11
-0.1477058105100149
 21
5.950248671415574
 31
0.0
  0
LINE
  5
13F
330
70
100
AcDbEntity
  8
vaso fingerjoints v6_Sketch6
100
AcDbLine
 10
12.15971388678235
 20
2.732663943293867
 30
0.0
 11
12.15971388678245
 21
-1.750159340618635
 31
0.0
  0
LINE
  5
140
330
70
100
AcDbEntity
  8
vaso fingerjoints v6_Sketch6
100
AcDbLine
 10
11.18450327985919
 20
-0.4999999999999534
 30
0.0
 11
11.18450327985926
 21
-3.69800573500513
 31
0.0
  0
LINE
  5
141
330
70
100
AcDbEntity
  8
vaso fingerjoints v6_Sketch6
100
AcDbLine
 10
13.1597138867823
 20
4.901994264994944
 30
0.0
 11
13.15971388678238
 21
1.401994264994944
 31
0.0
  0
LINE
  5
142
330
70
100
AcDbEntity
  8
vaso fingerjoints v6_Sketch6
100
AcDbLine
 10
-3.658165306886839
 20
1.345779949638026
 30
0.0
 11
-4.058857204730936
 21
1.347381183248942
 31
0.0
  0
LINE
  5
143
330
70
100
AcDbEntity
  8
vaso fingerjoints v6_Sketch6
100
AcDbLine
 10
15.58450327985919
 20
-0.4999999999998364
 30
0.0
 11
15.58450327985927
 21
-3.800000056624249
 31
0.0
  0
LINE
  5
144
330
70
100
AcDbEntity
  8
vaso fingerjoints v6_Sketch6
100
AcDbLine
 10
11.9597138867823
 20
4.901994264994915
 30
0.0
 11
11.95971388678238
 21
1.401994264994915
 31
0.0
  0
LINE
  5
145
330
70
100
AcDbEntity
  8
vaso fingerjoints v6_Sketch6
100
AcDbLine
 10
19.35971388678235
 20
2.732663943294035
 30
0.0
 11
19.35971388678246
 21
-1.750159340618466
 31
0.0
  0
LINE
  5
146
330
70
100
AcDbEntity
  8
vaso fingerjoints v6_Sketch6
100
AcDbLine
 10
16.15971388678235
 20
2.732663943293955
 30
0.0
 11
16.15971388678245
 21
-1.750159340618547
 31
0.0
  0
LINE
  5
147
330
70
100
AcDbEntity
  8
vaso fingerjoints v6_Sketch6
100
AcDbLine
 10
20.15971388678236
 20
2.732663943294059
 30
0.0
 11
20.15971388678246
 21
-1.750159340618443
 31
0.0
  0
LINE
  5
148
330
70
100
AcDbEntity
  8
vaso fingerjoints v6_Sketch6
100
AcDbLine
 10
21.75971388678236
 20
2.732663943294101
 30
0.0
 11
21.75971388678246
 21
-1.750159340618401
 31
0.0
  0
LINE
  5
149
330
70
100
AcDbEntity
  8
vaso fingerjoints v6_Sketch6
100
AcDbLine
 10
21.1845032798592
 20
-0.4999999999997052
 30
0.0
 11
21.18450327985927
 21
-3.698005735004324
 31
0.0
  0
LINE
  5
14A
330
70
100
AcDbEntity
  8
vaso fingerjoints v6_Sketch6
100
AcDbLine
 10
19.75971388678235
 20
2.732663943294049
 30
0.0
 11
19.75971388678246
 21
-1.750159340618453
 31
0.0
  0
LINE
  5
14B
330
70
100
AcDbEntity
  8
vaso fingerjoints v6_Sketch6
100
AcDbLine
 10
16.78450327985919
 20
-0.4999999999998178
 30
0.0
 11
16.78450327985927
 21
-3.80000005662423
 31
0.0
  0
LINE
  5
14C
330
70
100
AcDbEntity
  8
vaso fingerjoints v6_Sketch6
100
AcDbLine
 10
20.3845032798592
 20
-0.499999999999724
 30
0.0
 11
20.38450327985927
 21
-3.800000056624136
 31
0.0
  0
LINE
  5
14D
330
70
100
AcDbEntity
  8
vaso fingerjoints v6_Sketch6
100
AcDbLine
 10
21.95971388678239
 20
1.401994264995164
 30
0.0
 11
22.35971388678239
 21
1.401994264995173
 31
0.0
  0
LINE
  5
14E
330
70
100
AcDbEntity
  8
vaso fingerjoints v6_Sketch6
100
AcDbLine
 10
25.35971388678236
 20
2.732663943294203
 30
0.0
 11
25.35971388678247
 21
-1.750159340618298
 31
0.0
  0
LINE
  5
14F
330
70
100
AcDbEntity
  8
vaso fingerjoints v6_Sketch6
100
AcDbLine
 10
27.55971388678231
 20
4.901994264995309
 30
0.0
 11
27.55971388678239
 21
1.401994264995309
 31
0.0
  0
LINE
  5
150
330
70
100
AcDbEntity
  8
vaso fingerjoints v6_Sketch6
100
AcDbLine
 10
17.1597138867823
 20
4.901994264995042
 30
0.0
 11
17.15971388678238
 21
1.401994264995042
 31
0.0
  0
LINE
  5
151
330
70
100
AcDbEntity
  8
vaso fingerjoints v6_Sketch6
100
AcDbLine
 10
26.35971388678231
 20
4.901994264995276
 30
0.0
 11
26.35971388678239
 21
1.401994264995276
 31
0.0
  0
LINE
  5
152
330
70
100
AcDbEntity
  8
vaso fingerjoints v6_Sketch6
100
AcDbLine
 10
16.7597138867823
 20
4.901994264995027
 30
0.0
 11
16.75971388678238
 21
1.401994264995028
 31
0.0
  0
LINE
  5
153
330
70
100
AcDbEntity
  8
vaso fingerjoints v6_Sketch6
100
AcDbLine
 10
17.5597138867823
 20
4.901994264995046
 30
0.0
 11
17.55971388678238
 21
1.401994264995047
 31
0.0
  0
LINE
  5
154
330
70
100
AcDbEntity
  8
vaso fingerjoints v6_Sketch6
100
AcDbLine
 10
19.1845032798592
 20
-0.4999999999997613
 30
0.0
 11
19.18450327985927
 21
-3.800000056624173
 31
0.0
  0
LINE
  5
155
330
70
100
AcDbEntity
  8
vaso fingerjoints v6_Sketch6
100
AcDbLine
 10
20.95971388678235
 20
2.732663943294078
 30
0.0
 11
20.95971388678246
 21
-1.750159340618425
 31
0.0
  0
LINE
  5
156
330
70
100
AcDbEntity
  8
vaso fingerjoints v6_Sketch6
100
AcDbLine
 10
19.5845032798592
 20
-0.4999999999997474
 30
0.0
 11
19.58450327985928
 21
-3.800000056624159
 31
0.0
  0
LINE
  5
157
330
70
100
AcDbEntity
  8
vaso fingerjoints v6_Sketch6
100
AcDbLine
 10
21.9845032798592
 20
-0.4999999999996819
 30
0.0
 11
21.98450327985927
 21
-3.698005735003966
 31
0.0
  0
LINE
  5
158
330
70
100
AcDbEntity
  8
vaso fingerjoints v6_Sketch6
100
AcDbLine
 10
14.38450327985919
 20
-0.4999999999998737
 30
0.0
 11
14.38450327985927
 21
-3.69800573500505
 31
0.0
  0
LINE
  5
159
330
70
100
AcDbEntity
  8
vaso fingerjoints v6_Sketch6
100
AcDbLine
 10
19.9845032798592
 20
-0.499999999999738
 30
0.0
 11
19.98450327985927
 21
-3.698005735004864
 31
0.0
  0
LINE
  5
15A
330
70
100
AcDbEntity
  8
vaso fingerjoints v6_Sketch6
100
AcDbLine
 10
17.35971388678235
 20
2.732663943293992
 30
0.0
 11
17.35971388678246
 21
-1.750159340618509
 31
0.0
  0
LINE
  5
15B
330
70
100
AcDbEntity
  8
vaso fingerjoints v6_Sketch6
100
AcDbLine
 10
20.7845032798592
 20
-0.4999999999997192
 30
0.0
 11
20.78450327985927
 21
-3.698005735004896
 31
0.0
  0
LINE
  5
15C
330
70
100
AcDbEntity
  8
vaso fingerjoints v6_Sketch6
100
AcDbLine
 10
22.15971388678235
 20
2.732663943294114
 30
0.0
 11
22.15971388678246
 21
-1.750159340618387
 31
0.0
  0
LINE
  5
15D
330
70
100
AcDbEntity
  8
vaso fingerjoints v6_Sketch6
100
AcDbLine
 10
15.9597138867823
 20
4.901994264995004
 30
0.0
 11
15.95971388678238
 21
1.401994264995005
 31
0.0
  0
LINE
  5
15E
330
70
100
AcDbEntity
  8
vaso fingerjoints v6_Sketch6
100
AcDbLine
 10
26.15971388678236
 20
2.732663943294218
 30
0.0
 11
26.15971388678246
 21
-1.750159340618284
 31
0.0
  0
LINE
  5
15F
330
70
100
AcDbEntity
  8
vaso fingerjoints v6_Sketch6
100
AcDbLine
 10
16.38450327985919
 20
-0.499999999999827
 30
0.0
 11
16.38450327985927
 21
-3.800000056624239
 31
0.0
  0
LINE
  5
160
330
70
100
AcDbEntity
  8
vaso fingerjoints v6_Sketch6
100
AcDbLine
 10
17.1845032798592
 20
-0.4999999999998038
 30
0.0
 11
17.18450327985927
 21
-3.800000056624216
 31
0.0
  0
LINE
  5
161
330
70
100
AcDbEntity
  8
vaso fingerjoints v6_Sketch6
100
AcDbLine
 10
26.55971388678236
 20
2.732663943294228
 30
0.0
 11
26.55971388678247
 21
-1.750159340618275
 31
0.0
  0
LINE
  5
162
330
70
100
AcDbEntity
  8
vaso fingerjoints v6_Sketch6
100
AcDbLine
 10
26.95971388678236
 20
2.732663943294241
 30
0.0
 11
26.95971388678247
 21
-1.750159340618261
 31
0.0
  0
LINE
  5
163
330
70
100
AcDbEntity
  8
vaso fingerjoints v6_Sketch6
100
AcDbLine
 10
18.55971388678235
 20
2.732663943294021
 30
0.0
 11
18.55971388678246
 21
-1.750159340618481
 31
0.0
  0
LINE
  5
164
330
70
100
AcDbEntity
  8
vaso fingerjoints v6_Sketch6
100
AcDbLine
 10
21.95971388678231
 20
4.901994264995163
 30
0.0
 11
21.95971388678239
 21
1.401994264995164
 31
0.0
  0
LINE
  5
165
330
70
100
AcDbEntity
  8
vaso fingerjoints v6_Sketch6
100
AcDbLine
 10
20.75971388678231
 20
4.901994264995126
 30
0.0
 11
20.75971388678238
 21
1.401994264995127
 31
0.0
  0
LINE
  5
166
330
70
100
AcDbEntity
  8
vaso fingerjoints v6_Sketch6
100
AcDbLine
 10
13.75971388678235
 20
2.732663943293904
 30
0.0
 11
13.75971388678245
 21
-1.750159340618598
 31
0.0
  0
LINE
  5
167
330
70
100
AcDbEntity
  8
vaso fingerjoints v6_Sketch6
100
AcDbLine
 10
17.5845032798592
 20
-0.4999999999997989
 30
0.0
 11
17.58450327985927
 21
-3.698005735004976
 31
0.0
  0
LINE
  5
168
330
70
100
AcDbEntity
  8
vaso fingerjoints v6_Sketch6
100
AcDbLine
 10
16.55971388678235
 20
2.732663943293969
 30
0.0
 11
16.55971388678245
 21
-1.750159340618532
 31
0.0
  0
LINE
  5
169
330
70
100
AcDbEntity
  8
vaso fingerjoints v6_Sketch6
100
AcDbLine
 10
17.75971388678235
 20
2.732663943293998
 30
0.0
 11
17.75971388678246
 21
-1.750159340618504
 31
0.0
  0
LINE
  5
16A
330
70
100
AcDbEntity
  8
vaso fingerjoints v6_Sketch6
100
AcDbLine
 10
18.15971388678235
 20
2.732663943294011
 30
0.0
 11
18.15971388678245
 21
-1.75015934061849
 31
0.0
  0
LINE
  5
16B
330
70
100
AcDbEntity
  8
vaso fingerjoints v6_Sketch6
100
AcDbLine
 10
13.98450327985919
 20
-0.4999999999998785
 30
0.0
 11
13.98450327985927
 21
-3.80000005662429
 31
0.0
  0
LINE
  5
16C
330
70
100
AcDbEntity
  8
vaso fingerjoints v6_Sketch6
100
AcDbLine
 10
18.3597138867823
 20
4.901994264995069
 30
0.0
 11
18.35971388678238
 21
1.40199426499507
 31
0.0
  0
LINE
  5
16D
330
70
100
AcDbEntity
  8
vaso fingerjoints v6_Sketch6
100
AcDbLine
 10
19.9597138867823
 20
4.901994264995107
 30
0.0
 11
19.95971388678238
 21
1.401994264995108
 31
0.0
  0
LINE
  5
16E
330
70
100
AcDbEntity
  8
vaso fingerjoints v6_Sketch6
100
AcDbLine
 10
19.5597138867823
 20
4.901994264995098
 30
0.0
 11
19.55971388678238
 21
1.401994264995098
 31
0.0
  0
LINE
  5
16F
330
70
100
AcDbEntity
  8
vaso fingerjoints v6_Sketch6
100
AcDbLine
 10
21.35971388678235
 20
2.732663943294091
 30
0.0
 11
21.35971388678246
 21
-1.75015934061841
 31
0.0
  0
LINE
  5
170
330
70
100
AcDbEntity
  8
vaso fingerjoints v6_Sketch6
100
AcDbLine
 10
21.1597138867823
 20
4.90199426499514
 30
0.0
 11
21.15971388678238
 21
1.401994264995141
 31
0.0
  0
LINE
  5
171
330
70
100
AcDbEntity
  8
vaso fingerjoints v6_Sketch6
100
AcDbLine
 10
18.38450327985919
 20
-0.4999999999997755
 30
0.0
 11
18.38450327985927
 21
-3.698005735004972
 31
0.0
  0
LINE
  5
172
330
70
100
AcDbEntity
  8
vaso fingerjoints v6_Sketch6
100
AcDbLine
 10
15.98450327985919
 20
-0.4999999999998411
 30
0.0
 11
15.98450327985927
 21
-3.800000056624253
 31
0.0
  0
LINE
  5
173
330
70
100
AcDbEntity
  8
vaso fingerjoints v6_Sketch6
100
AcDbLine
 10
21.55971388678231
 20
4.901994264995149
 30
0.0
 11
21.55971388678239
 21
1.40199426499515
 31
0.0
  0
LINE
  5
174
330
70
100
AcDbEntity
  8
vaso fingerjoints v6_Sketch6
100
AcDbLine
 10
15.18450327985919
 20
-0.4999999999998504
 30
0.0
 11
15.18450327985927
 21
-3.698005735005048
 31
0.0
  0
LINE
  5
175
330
70
100
AcDbEntity
  8
vaso fingerjoints v6_Sketch6
100
AcDbLine
 10
28.35971388678231
 20
4.901994264995332
 30
0.0
 11
28.3597138867824
 21
1.401994264995332
 31
0.0
  0
LINE
  5
176
330
70
100
AcDbEntity
  8
vaso fingerjoints v6_Sketch6
100
AcDbLine
 10
18.95971388678235
 20
2.732663943294034
 30
0.0
 11
18.95971388678246
 21
-1.750159340618467
 31
0.0
  0
LINE
  5
177
330
70
100
AcDbEntity
  8
vaso fingerjoints v6_Sketch6
100
AcDbLine
 10
16.95971388678235
 20
2.732663943293979
 30
0.0
 11
16.95971388678245
 21
-1.750159340618523
 31
0.0
  0
LINE
  5
178
330
70
100
AcDbEntity
  8
vaso fingerjoints v6_Sketch6
100
AcDbLine
 10
24.75971388678231
 20
4.901994264995238
 30
0.0
 11
24.75971388678239
 21
1.401994264995239
 31
0.0
  0
LINE
  5
179
330
70
100
AcDbEntity
  8
vaso fingerjoints v6_Sketch6
100
AcDbLine
 10
18.7597138867823
 20
4.901994264995083
 30
0.0
 11
18.75971388678238
 21
1.401994264995084
 31
0.0
  0
LINE
  5
17A
330
70
100
AcDbEntity
  8
vaso fingerjoints v6_Sketch6
100
AcDbLine
 10
16.3597138867823
 20
4.901994264995019
 30
0.0
 11
16.35971388678238
 21
1.401994264995019
 31
0.0
  0
LINE
  5
17B
330
70
100
AcDbEntity
  8
vaso fingerjoints v6_Sketch6
100
AcDbLine
 10
15.5597138867823
 20
4.901994264995009
 30
0.0
 11
15.55971388678238
 21
1.40199426499501
 31
0.0
  0
LINE
  5
17C
330
70
100
AcDbEntity
  8
vaso fingerjoints v6_Sketch6
100
AcDbLine
 10
19.1597138867823
 20
4.901994264995084
 30
0.0
 11
19.15971388678238
 21
1.401994264995084
 31
0.0
  0
LINE
  5
17D
330
70
100
AcDbEntity
  8
vaso fingerjoints v6_Sketch6
100
AcDbLine
 10
18.7845032798592
 20
-0.4999999999997616
 30
0.0
 11
18.78450327985927
 21
-3.800000056624174
 31
0.0
  0
LINE
  5
17E
330
70
100
AcDbEntity
  8
vaso fingerjoints v6_Sketch6
100
AcDbLine
 10
20.3597138867823
 20
4.901994264995122
 30
0.0
 11
20.35971388678239
 21
1.401994264995122
 31
0.0
  0
LINE
  5
17F
330
70
100
AcDbEntity
  8
vaso fingerjoints v6_Sketch6
100
AcDbLine
 10
14.55971388678235
 20
2.732663943293923
 30
0.0
 11
14.55971388678245
 21
-1.750159340618579
 31
0.0
  0
LINE
  5
180
330
70
100
AcDbEntity
  8
vaso fingerjoints v6_Sketch6
100
AcDbLine
 10
17.9597138867823
 20
4.90199426499506
 30
0.0
 11
17.95971388678238
 21
1.401994264995061
 31
0.0
  0
LINE
  5
181
330
70
100
AcDbEntity
  8
vaso fingerjoints v6_Sketch6
100
AcDbLine
 10
13.5597138867823
 20
4.901994264994953
 30
0.0
 11
13.55971388678238
 21
1.401994264994953
 31
0.0
  0
LINE
  5
182
330
70
100
AcDbEntity
  8
vaso fingerjoints v6_Sketch6
100
AcDbLine
 10
20.55971388678235
 20
2.732663943294072
 30
0.0
 11
20.55971388678246
 21
-1.750159340618429
 31
0.0
  0
LINE
  5
183
330
70
100
AcDbEntity
  8
vaso fingerjoints v6_Sketch6
100
AcDbLine
 10
21.5845032798592
 20
-0.4999999999996958
 30
0.0
 11
21.58450327985928
 21
-3.698005735004893
 31
0.0
  0
LINE
  5
184
330
70
100
AcDbEntity
  8
vaso fingerjoints v6_Sketch6
100
AcDbLine
 10
17.9845032798592
 20
-0.4999999999997849
 30
0.0
 11
17.98450327985927
 21
-3.800000056624197
 31
0.0
  0
LINE
  5
185
330
70
100
AcDbEntity
  8
vaso fingerjoints v6_Sketch6
100
AcDbLine
 10
30.38450327985921
 20
-0.4999999999994758
 30
0.0
 11
30.38450327985928
 21
-3.698005735004652
 31
0.0
  0
LINE
  5
186
330
70
100
AcDbEntity
  8
vaso fingerjoints v6_Sketch6
100
AcDbLine
 10
33.58450327985921
 20
-0.4999999999993961
 30
0.0
 11
33.58450327985929
 21
-3.698005735004572
 31
0.0
  0
LINE
  5
187
330
70
100
AcDbEntity
  8
vaso fingerjoints v6_Sketch6
100
AcDbLine
 10
33.98450327985921
 20
-0.499999999999382
 30
0.0
 11
33.98450327985929
 21
-3.695343744057963
 31
0.0
  0
LINE
  5
188
330
70
100
AcDbEntity
  8
vaso fingerjoints v6_Sketch6
100
AcDbLine
 10
31.98450327985921
 20
-0.4999999999994383
 30
0.0
 11
31.98450327985928
 21
-3.695343744059246
 31
0.0
  0
LINE
  5
189
330
70
100
AcDbEntity
  8
vaso fingerjoints v6_Sketch6
100
AcDbLine
 10
29.75971388678237
 20
2.732663943294302
 30
0.0
 11
29.75971388678247
 21
-1.7501593406182
 31
0.0
  0
LINE
  5
18A
330
70
100
AcDbEntity
  8
vaso fingerjoints v6_Sketch6
100
AcDbLine
 10
31.18450327985921
 20
-0.4999999999994525
 30
0.0
 11
31.18450327985929
 21
-3.69800573500465
 31
0.0
  0
LINE
  5
18B
330
70
100
AcDbEntity
  8
vaso fingerjoints v6_Sketch6
100
AcDbLine
 10
28.38450327985921
 20
-0.4999999999995133
 30
0.0
 11
28.38450327985928
 21
-3.800000056623925
 31
0.0
  0
LINE
  5
18C
330
70
100
AcDbEntity
  8
vaso fingerjoints v6_Sketch6
100
AcDbLine
 10
27.15971388678231
 20
4.901994264995295
 30
0.0
 11
27.15971388678239
 21
1.401994264995295
 31
0.0
  0
LINE
  5
18D
330
70
100
AcDbEntity
  8
vaso fingerjoints v6_Sketch6
100
AcDbLine
 10
30.75971388678232
 20
4.901994264995384
 30
0.0
 11
30.75971388678239
 21
1.401994264995384
 31
0.0
  0
LINE
  5
18E
330
70
100
AcDbEntity
  8
vaso fingerjoints v6_Sketch6
100
AcDbLine
 10
27.95971388678231
 20
4.901994264995318
 30
0.0
 11
27.9597138867824
 21
1.401994264995319
 31
0.0
  0
LINE
  5
18F
330
70
100
AcDbEntity
  8
vaso fingerjoints v6_Sketch6
100
AcDbLine
 10
28.78450327985921
 20
-0.4999999999995179
 30
0.0
 11
28.78450327985929
 21
-3.80000005662393
 31
0.0
  0
LINE
  5
190
330
70
100
AcDbEntity
  8
vaso fingerjoints v6_Sketch6
100
AcDbLine
 10
28.55971388678236
 20
2.732663943294283
 30
0.0
 11
28.55971388678247
 21
-1.750159340618218
 31
0.0
  0
LINE
  5
191
330
70
100
AcDbEntity
  8
vaso fingerjoints v6_Sketch6
100
AcDbLine
 10
22.55971388678235
 20
2.732663943294124
 30
0.0
 11
22.55971388678246
 21
-1.750159340618377
 31
0.0
  0
LINE
  5
192
330
70
100
AcDbEntity
  8
vaso fingerjoints v6_Sketch6
100
AcDbLine
 10
25.95971388678231
 20
4.901994264995267
 30
0.0
 11
25.95971388678239
 21
1.401994264995267
 31
0.0
  0
LINE
  5
193
330
70
100
AcDbEntity
  8
vaso fingerjoints v6_Sketch6
100
AcDbLine
 10
31.55971388678232
 20
4.901994264995407
 30
0.0
 11
31.5597138867824
 21
1.401994264995408
 31
0.0
  0
LINE
  5
194
330
70
100
AcDbEntity
  8
vaso fingerjoints v6_Sketch6
100
AcDbLine
 10
23.1845032798592
 20
-0.4999999999996492
 30
0.0
 11
23.18450327985928
 21
-3.698005735003574
 31
0.0
  0
LINE
  5
195
330
70
100
AcDbEntity
  8
vaso fingerjoints v6_Sketch6
100
AcDbLine
 10
30.95971388678237
 20
2.732663943294334
 30
0.0
 11
30.95971388678247
 21
-1.750159340618167
 31
0.0
  0
LINE
  5
196
330
70
100
AcDbEntity
  8
vaso fingerjoints v6_Sketch6
100
AcDbLine
 10
23.35971388678236
 20
2.732663943294148
 30
0.0
 11
23.35971388678246
 21
-1.750159340618354
 31
0.0
  0
LINE
  5
197
330
70
100
AcDbEntity
  8
vaso fingerjoints v6_Sketch6
100
AcDbLine
 10
26.3845032798592
 20
-0.4999999999995694
 30
0.0
 11
26.38450327985928
 21
-3.800000056623981
 31
0.0
  0
LINE
  5
198
330
70
100
AcDbEntity
  8
vaso fingerjoints v6_Sketch6
100
AcDbLine
 10
22.95971388678236
 20
2.732663943294138
 30
0.0
 11
22.95971388678246
 21
-1.750159340618364
 31
0.0
  0
LINE
  5
199
330
70
100
AcDbEntity
  8
vaso fingerjoints v6_Sketch6
100
AcDbLine
 10
23.75971388678236
 20
2.732663943294161
 30
0.0
 11
23.75971388678246
 21
-1.75015934061834
 31
0.0
  0
LINE
  5
19A
330
70
100
AcDbEntity
  8
vaso fingerjoints v6_Sketch6
100
AcDbLine
 10
30.55971388678236
 20
2.732663943294321
 30
0.0
 11
30.55971388678247
 21
-1.750159340618181
 31
0.0
  0
LINE
  5
19B
330
70
100
AcDbEntity
  8
vaso fingerjoints v6_Sketch6
100
AcDbLine
 10
25.98450327985921
 20
-0.4999999999995789
 30
0.0
 11
25.98450327985928
 21
-3.696343429950094
 31
0.0
  0
LINE
  5
19C
330
70
100
AcDbEntity
  8
vaso fingerjoints v6_Sketch6
100
AcDbLine
 10
28.15971388678237
 20
2.732663943294269
 30
0.0
 11
28.15971388678247
 21
-1.750159340618233
 31
0.0
  0
LINE
  5
19D
330
70
100
AcDbEntity
  8
vaso fingerjoints v6_Sketch6
100
AcDbLine
 10
24.35971388678231
 20
4.901994264995229
 30
0.0
 11
24.35971388678239
 21
1.401994264995229
 31
0.0
  0
LINE
  5
19E
330
70
100
AcDbEntity
  8
vaso fingerjoints v6_Sketch6
100
AcDbLine
 10
22.75971388678231
 20
4.901994264995187
 30
0.0
 11
22.75971388678239
 21
1.401994264995187
 31
0.0
  0
LINE
  5
19F
330
70
100
AcDbEntity
  8
vaso fingerjoints v6_Sketch6
100
AcDbLine
 10
28.75971388678232
 20
4.901994264995328
 30
0.0
 11
28.7597138867824
 21
1.401994264995328
 31
0.0
  0
LINE
  5
1A0
330
70
100
AcDbEntity
  8
vaso fingerjoints v6_Sketch6
100
AcDbLine
 10
23.55971388678231
 20
4.90199426499521
 30
0.0
 11
23.55971388678239
 21
1.40199426499521
 31
0.0
  0
LINE
  5
1A1
330
70
100
AcDbEntity
  8
vaso fingerjoints v6_Sketch6
100
AcDbLine
 10
29.95971388678232
 20
4.901994264995365
 30
0.0
 11
29.9597138867824
 21
1.401994264995365
 31
0.0
  0
LINE
  5
1A2
330
70
100
AcDbEntity
  8
vaso fingerjoints v6_Sketch6
100
AcDbLine
 10
29.15971388678232
 20
4.901994264995342
 30
0.0
 11
29.15971388678239
 21
1.401994264995342
 31
0.0
  0
LINE
  5
1A3
330
70
100
AcDbEntity
  8
vaso fingerjoints v6_Sketch6
100
AcDbLine
 10
23.5845032798592
 20
-0.4999999999996352
 30
0.0
 11
23.58450327985928
 21
-3.800000056624047
 31
0.0
  0
LINE
  5
1A4
330
70
100
AcDbEntity
  8
vaso fingerjoints v6_Sketch6
100
AcDbLine
 10
27.9845032798592
 20
-0.4999999999995274
 30
0.0
 11
27.98450327985928
 21
-3.698005735004724
 31
0.0
  0
LINE
  5
1A5
330
70
100
AcDbEntity
  8
vaso fingerjoints v6_Sketch6
100
AcDbLine
 10
24.95971388678236
 20
2.732663943294189
 30
0.0
 11
24.95971388678246
 21
-1.750159340618313
 31
0.0
  0
LINE
  5
1A6
330
70
100
AcDbEntity
  8
vaso fingerjoints v6_Sketch6
100
AcDbLine
 10
27.75971388678236
 20
2.73266394329426
 30
0.0
 11
27.75971388678247
 21
-1.750159340618242
 31
0.0
  0
LINE
  5
1A7
330
70
100
AcDbEntity
  8
vaso fingerjoints v6_Sketch6
100
AcDbLine
 10
26.78450327985921
 20
-0.4999999999995555
 30
0.0
 11
26.78450327985928
 21
-3.800000056623967
 31
0.0
  0
LINE
  5
1A8
330
70
100
AcDbEntity
  8
vaso fingerjoints v6_Sketch6
100
AcDbLine
 10
27.35971388678236
 20
2.732663943294246
 30
0.0
 11
27.35971388678247
 21
-1.750159340618256
 31
0.0
  0
LINE
  5
1A9
330
70
100
AcDbEntity
  8
vaso fingerjoints v6_Sketch6
100
AcDbLine
 10
23.15971388678231
 20
4.901994264995196
 30
0.0
 11
23.15971388678239
 21
1.401994264995197
 31
0.0
  0
LINE
  5
1AA
330
70
100
AcDbEntity
  8
vaso fingerjoints v6_Sketch6
100
AcDbLine
 10
24.15971388678236
 20
2.732663943294166
 30
0.0
 11
24.15971388678246
 21
-1.750159340618336
 31
0.0
  0
LINE
  5
1AB
330
70
100
AcDbEntity
  8
vaso fingerjoints v6_Sketch6
100
AcDbLine
 10
29.55971388678231
 20
4.901994264995351
 30
0.0
 11
29.5597138867824
 21
1.401994264995351
 31
0.0
  0
LINE
  5
1AC
330
70
100
AcDbEntity
  8
vaso fingerjoints v6_Sketch6
100
AcDbLine
 10
27.58450327985921
 20
-0.4999999999995366
 30
0.0
 11
27.58450327985928
 21
-3.800000056623948
 31
0.0
  0
LINE
  5
1AD
330
70
100
AcDbEntity
  8
vaso fingerjoints v6_Sketch6
100
AcDbLine
 10
25.18450327985921
 20
-0.4999999999995931
 30
0.0
 11
25.18450327985928
 21
-3.698005735003039
 31
0.0
  0
LINE
  5
1AE
330
70
100
AcDbEntity
  8
vaso fingerjoints v6_Sketch6
100
AcDbLine
 10
30.78450327985921
 20
-0.4999999999994618
 30
0.0
 11
30.78450327985929
 21
-3.800000056623874
 31
0.0
  0
LINE
  5
1AF
330
70
100
AcDbEntity
  8
vaso fingerjoints v6_Sketch6
100
AcDbLine
 10
30.15971388678237
 20
2.732663943294316
 30
0.0
 11
30.15971388678247
 21
-1.750159340618186
 31
0.0
  0
LINE
  5
1B0
330
70
100
AcDbEntity
  8
vaso fingerjoints v6_Sketch6
100
AcDbLine
 10
22.35971388678231
 20
4.901994264995173
 30
0.0
 11
22.35971388678239
 21
1.401994264995173
 31
0.0
  0
LINE
  5
1B1
330
70
100
AcDbEntity
  8
vaso fingerjoints v6_Sketch6
100
AcDbLine
 10
23.95971388678231
 20
4.901994264995215
 30
0.0
 11
23.95971388678239
 21
1.401994264995216
 31
0.0
  0
LINE
  5
1B2
330
70
100
AcDbEntity
  8
vaso fingerjoints v6_Sketch6
100
AcDbLine
 10
25.55971388678231
 20
4.901994264995253
 30
0.0
 11
25.55971388678239
 21
1.401994264995253
 31
0.0
  0
LINE
  5
1B3
330
70
100
AcDbEntity
  8
vaso fingerjoints v6_Sketch6
100
AcDbLine
 10
25.15971388678231
 20
4.901994264995252
 30
0.0
 11
25.15971388678239
 21
1.401994264995253
 31
0.0
  0
LINE
  5
1B4
330
70
100
AcDbEntity
  8
vaso fingerjoints v6_Sketch6
100
AcDbLine
 10
27.18450327985921
 20
-0.4999999999995506
 30
0.0
 11
27.18450327985928
 21
-3.698005735004727
 31
0.0
  0
LINE
  5
1B5
330
70
100
AcDbEntity
  8
vaso fingerjoints v6_Sketch6
100
AcDbLine
 10
28.95971388678236
 20
2.732663943294278
 30
0.0
 11
28.95971388678247
 21
-1.750159340618223
 31
0.0
  0
LINE
  5
1B6
330
70
100
AcDbEntity
  8
vaso fingerjoints v6_Sketch6
100
AcDbLine
 10
25.58450327985921
 20
-0.4999999999995928
 30
0.0
 11
25.58450327985928
 21
-3.800000056624004
 31
0.0
  0
LINE
  5
1B7
330
70
100
AcDbEntity
  8
vaso fingerjoints v6_Sketch6
100
AcDbLine
 10
29.18450327985921
 20
-0.499999999999504
 30
0.0
 11
29.18450327985928
 21
-3.695343744060392
 31
0.0
  0
LINE
  5
1B8
330
70
100
AcDbEntity
  8
vaso fingerjoints v6_Sketch6
100
AcDbLine
 10
29.98450327985921
 20
-0.4999999999994806
 30
0.0
 11
29.98450327985928
 21
-3.695343744059978
 31
0.0
  0
LINE
  5
1B9
330
70
100
AcDbEntity
  8
vaso fingerjoints v6_Sketch6
100
AcDbLine
 10
29.58450327985921
 20
-0.4999999999994947
 30
0.0
 11
29.58450327985929
 21
-3.800000056623907
 31
0.0
  0
LINE
  5
1BA
330
70
100
AcDbEntity
  8
vaso fingerjoints v6_Sketch6
100
AcDbLine
 10
26.75971388678231
 20
4.90199426499529
 30
0.0
 11
26.75971388678239
 21
1.40199426499529
 31
0.0
  0
LINE
  5
1BB
330
70
100
AcDbEntity
  8
vaso fingerjoints v6_Sketch6
100
AcDbLine
 10
25.75971388678236
 20
2.732663943294204
 30
0.0
 11
25.75971388678246
 21
-1.750159340618298
 31
0.0
  0
LINE
  5
1BC
330
70
100
AcDbEntity
  8
vaso fingerjoints v6_Sketch6
100
AcDbLine
 10
24.38450327985921
 20
-0.4999999999996163
 30
0.0
 11
24.38450327985928
 21
-3.800000056624028
 31
0.0
  0
LINE
  5
1BD
330
70
100
AcDbEntity
  8
vaso fingerjoints v6_Sketch6
100
AcDbLine
 10
29.35971388678236
 20
2.732663943294292
 30
0.0
 11
29.35971388678247
 21
-1.75015934061821
 31
0.0
  0
LINE
  5
1BE
330
70
100
AcDbEntity
  8
vaso fingerjoints v6_Sketch6
100
AcDbLine
 10
24.55971388678236
 20
2.73266394329418
 30
0.0
 11
24.55971388678246
 21
-1.750159340618322
 31
0.0
  0
LINE
  5
1BF
330
70
100
AcDbEntity
  8
vaso fingerjoints v6_Sketch6
100
AcDbLine
 10
23.98450327985921
 20
-0.4999999999996304
 30
0.0
 11
23.98450327985928
 21
-3.698005735004807
 31
0.0
  0
LINE
  5
1C0
330
70
100
AcDbEntity
  8
vaso fingerjoints v6_Sketch6
100
AcDbLine
 10
30.35971388678232
 20
4.901994264995369
 30
0.0
 11
30.3597138867824
 21
1.40199426499537
 31
0.0
  0
LINE
  5
1C1
330
70
100
AcDbEntity
  8
vaso fingerjoints v6_Sketch6
100
AcDbLine
 10
22.7845032798592
 20
-0.4999999999996585
 30
0.0
 11
22.78450327985928
 21
-3.80000005662407
 31
0.0
  0
LINE
  5
1C2
330
70
100
AcDbEntity
  8
vaso fingerjoints v6_Sketch6
100
AcDbLine
 10
22.3845032798592
 20
-0.4999999999996725
 30
0.0
 11
22.38450327985928
 21
-3.800000056624084
 31
0.0
  0
LINE
  5
1C3
330
70
100
AcDbEntity
  8
vaso fingerjoints v6_Sketch6
100
AcDbLine
 10
24.7845032798592
 20
-0.499999999999607
 30
0.0
 11
24.78450327985928
 21
-3.698005735004804
 31
0.0
  0
LINE
  5
1C4
330
70
100
AcDbEntity
  8
vaso fingerjoints v6_Sketch6
100
AcDbLine
 10
31.58450327985921
 20
-0.4999999999994385
 30
0.0
 11
31.58450327985928
 21
-3.800000056623851
 31
0.0
  0
LINE
  5
1C5
330
70
100
AcDbEntity
  8
vaso fingerjoints v6_Sketch6
100
AcDbLine
 10
32.38450327985921
 20
-0.4999999999994243
 30
0.0
 11
32.38450327985929
 21
-3.800000056623836
 31
0.0
  0
LINE
  5
1C6
330
70
100
AcDbEntity
  8
vaso fingerjoints v6_Sketch6
100
AcDbLine
 10
33.18450327985921
 20
-0.499999999999401
 30
0.0
 11
33.18450327985928
 21
-3.695343744058634
 31
0.0
  0
LINE
  5
1C7
330
70
100
AcDbEntity
  8
vaso fingerjoints v6_Sketch6
100
AcDbLine
 10
32.55971388678236
 20
2.732663943294372
 30
0.0
 11
32.55971388678247
 21
-1.75015934061813
 31
0.0
  0
LINE
  5
1C8
330
70
100
AcDbEntity
  8
vaso fingerjoints v6_Sketch6
100
AcDbLine
 10
32.75971388678232
 20
4.901994264995431
 30
0.0
 11
32.7597138867824
 21
1.401994264995431
 31
0.0
  0
LINE
  5
1C9
330
70
100
AcDbEntity
  8
vaso fingerjoints v6_Sketch6
100
AcDbLine
 10
31.15971388678231
 20
4.901994264995392
 30
0.0
 11
31.1597138867824
 21
1.401994264995393
 31
0.0
  0
LINE
  5
1CA
330
70
100
AcDbEntity
  8
vaso fingerjoints v6_Sketch6
100
AcDbLine
 10
31.35971388678237
 20
2.732663943294344
 30
0.0
 11
31.35971388678247
 21
-1.750159340618158
 31
0.0
  0
LINE
  5
1CB
330
70
100
AcDbEntity
  8
vaso fingerjoints v6_Sketch6
100
AcDbLine
 10
33.35971388678237
 20
2.732663943294395
 30
0.0
 11
33.35971388678248
 21
-1.750159340618107
 31
0.0
  0
LINE
  5
1CC
330
70
100
AcDbEntity
  8
vaso fingerjoints v6_Sketch6
100
AcDbLine
 10
31.95971388678232
 20
4.901994264995408
 30
0.0
 11
31.9597138867824
 21
1.401994264995408
 31
0.0
  0
LINE
  5
1CD
330
70
100
AcDbEntity
  8
vaso fingerjoints v6_Sketch6
100
AcDbLine
 10
32.15971388678236
 20
2.732663943294358
 30
0.0
 11
32.15971388678247
 21
-1.750159340618144
 31
0.0
  0
LINE
  5
1CE
330
70
100
AcDbEntity
  8
vaso fingerjoints v6_Sketch6
100
AcDbLine
 10
32.78450327985921
 20
-0.4999999999994149
 30
0.0
 11
32.78450327985929
 21
-3.800000056623827
 31
0.0
  0
LINE
  5
1CF
330
70
100
AcDbEntity
  8
vaso fingerjoints v6_Sketch6
100
AcDbLine
 10
32.35971388678232
 20
4.901994264995422
 30
0.0
 11
32.35971388678239
 21
1.401994264995422
 31
0.0
  0
LINE
  5
1D0
330
70
100
AcDbEntity
  8
vaso fingerjoints v6_Sketch6
100
AcDbLine
 10
34.15971388678237
 20
2.732663943294414
 30
0.0
 11
34.15971388678247
 21
-1.750159340618087
 31
0.0
  0
LINE
  5
1D1
330
70
100
AcDbEntity
  8
vaso fingerjoints v6_Sketch6
100
AcDbLine
 10
33.95971388678232
 20
4.901994264995463
 30
0.0
 11
33.9597138867824
 21
1.401994264995463
 31
0.0
  0
LINE
  5
1D2
330
70
100
AcDbEntity
  8
vaso fingerjoints v6_Sketch6
100
AcDbLine
 10
31.75971388678237
 20
2.732663943294357
 30
0.0
 11
31.75971388678247
 21
-1.750159340618144
 31
0.0
  0
LINE
  5
1D3
330
70
100
AcDbEntity
  8
vaso fingerjoints v6_Sketch6
100
AcDbLine
 10
32.95971388678237
 20
2.732663943294382
 30
0.0
 11
32.95971388678247
 21
-1.750159340618121
 31
0.0
  0
LINE
  5
1D4
330
70
100
AcDbEntity
  8
vaso fingerjoints v6_Sketch6
100
AcDbLine
 10
33.55971388678232
 20
4.901994264995449
 30
0.0
 11
33.5597138867824
 21
1.40199426499545
 31
0.0
  0
LINE
  5
1D5
330
70
100
AcDbEntity
  8
vaso fingerjoints v6_Sketch6
100
AcDbLine
 10
33.75971388678236
 20
2.732663943294401
 30
0.0
 11
33.75971388678247
 21
-1.750159340618101
 31
0.0
  0
LINE
  5
1D6
330
70
100
AcDbEntity
  8
vaso fingerjoints v6_Sketch6
100
AcDbLine
 10
33.15971388678232
 20
4.901994264995445
 30
0.0
 11
33.1597138867824
 21
1.401994264995445
 31
0.0
  0
LINE
  5
1D7
330
70
100
AcDbEntity
  8
vaso fingerjoints v6_Sketch6
100
AcDbLine
 10
9.859713886782472
 20
-3.698005735005136
 30
0.0
 11
9.859713886782504
 21
-4.098005735005142
 31
0.0
  0
LINE
  5
1D8
330
70
100
AcDbEntity
  8
vaso fingerjoints v6_Sketch6
100
AcDbLine
 10
10.35971388678247
 20
-3.698005735005127
 30
0.0
 11
10.35971388678247
 21
-4.098005735005141
 31
0.0
  0
LINE
  5
1D9
330
70
100
AcDbEntity
  8
vaso fingerjoints v6_Sketch6
100
AcDbLine
 10
23.85971388678237
 20
-4.098005735003263
 30
0.0
 11
23.85971388678216
 21
-3.698005735003258
 31
0.0
  0
LINE
  5
1DA
330
70
100
AcDbEntity
  8
vaso fingerjoints v6_Sketch6
100
AcDbLine
 10
18.35971388678243
 20
-3.69800573500485
 30
0.0
 11
18.35971388678243
 21
-4.098005735004855
 31
0.0
  0
LINE
  5
1DB
330
70
100
AcDbEntity
  8
vaso fingerjoints v6_Sketch6
100
AcDbLine
 10
24.35971388678216
 20
-3.698005735002827
 30
0.0
 11
24.35971388678241
 21
-4.098005735002831
 31
0.0
  0
LINE
  5
1DC
330
70
100
AcDbEntity
  8
vaso fingerjoints v6_Sketch6
100
AcDbLine
 10
19.35971388678249
 20
-3.698005735004939
 30
0.0
 11
19.35971388678239
 21
-4.098005735004944
 31
0.0
  0
LINE
  5
1DD
330
70
100
AcDbEntity
  8
vaso fingerjoints v6_Sketch6
100
AcDbLine
 10
24.85971388678216
 20
-3.698005735003051
 30
0.0
 11
25.35971388678216
 21
-3.698005735003032
 31
0.0
  0
LINE
  5
1DE
330
70
100
AcDbEntity
  8
vaso fingerjoints v6_Sketch6
100
AcDbLine
 10
21.35971388678241
 20
-4.098005735004331
 30
0.0
 11
21.85971388678241
 21
-4.098005735004004
 31
0.0
  0
LINE
  5
1DF
330
70
100
AcDbEntity
  8
vaso fingerjoints v6_Sketch6
100
AcDbLine
 10
16.35971388678244
 20
-4.09800573500495
 30
0.0
 11
16.85971388678243
 21
-4.098005735004956
 31
0.0
  0
LINE
  5
1E0
330
70
100
AcDbEntity
  8
vaso fingerjoints v6_Sketch6
100
AcDbLine
 10
14.85971388678242
 20
-3.698005735005061
 30
0.0
 11
15.35971388678242
 21
-3.698005735005022
 31
0.0
  0
LINE
  5
1E1
330
70
100
AcDbEntity
  8
vaso fingerjoints v6_Sketch6
100
AcDbLine
 10
20.85971388678216
 20
-3.698005735004321
 30
0.0
 11
21.35971388678217
 21
-3.698005735004326
 31
0.0
  0
LINE
  5
1E2
330
70
100
AcDbEntity
  8
vaso fingerjoints v6_Sketch6
100
AcDbLine
 10
17.35971388678244
 20
-4.098005735004917
 30
0.0
 11
17.85971388678244
 21
-4.098005735004877
 31
0.0
  0
LINE
  5
1E3
330
70
100
AcDbEntity
  8
vaso fingerjoints v6_Sketch6
100
AcDbLine
 10
18.85971388678249
 20
-3.698005735004894
 30
0.0
 11
19.35971388678249
 21
-3.698005735004939
 31
0.0
  0
LINE
  5
1E4
330
70
100
AcDbEntity
  8
vaso fingerjoints v6_Sketch6
100
AcDbLine
 10
12.35971388678247
 20
-3.698005735005126
 30
0.0
 11
12.35971388678247
 21
-4.098005735005131
 31
0.0
  0
LINE
  5
1E5
330
70
100
AcDbEntity
  8
vaso fingerjoints v6_Sketch6
100
AcDbLine
 10
17.35971388678244
 20
-3.698005735004911
 30
0.0
 11
16.85971388678243
 21
-3.698005735004951
 31
0.0
  0
LINE
  5
1E6
330
70
100
AcDbEntity
  8
vaso fingerjoints v6_Sketch6
100
AcDbLine
 10
10.85971388678248
 20
-4.098005735005136
 30
0.0
 11
10.35971388678247
 21
-4.098005735005141
 31
0.0
  0
LINE
  5
1E7
330
70
100
AcDbEntity
  8
vaso fingerjoints v6_Sketch6
100
AcDbLine
 10
10.85971388678248
 20
-3.69800573500513
 30
0.0
 11
10.85971388678248
 21
-4.098005735005136
 31
0.0
  0
LINE
  5
1E8
330
70
100
AcDbEntity
  8
vaso fingerjoints v6_Sketch6
100
AcDbLine
 10
15.35971388678242
 20
-3.698005735005022
 30
0.0
 11
15.35971388678246
 21
-4.098005735005028
 31
0.0
  0
LINE
  5
1E9
330
70
100
AcDbEntity
  8
vaso fingerjoints v6_Sketch6
100
AcDbLine
 10
9.859713886782504
 20
-4.098005735005142
 30
0.0
 11
9.359713886782504
 21
-4.098005735005154
 31
0.0
  0
LINE
  5
1EA
330
70
100
AcDbEntity
  8
vaso fingerjoints v6_Sketch6
100
AcDbLine
 10
20.35971388678218
 20
-3.698005735004624
 30
0.0
 11
20.35971388678242
 21
-4.098005735004628
 31
0.0
  0
LINE
  5
1EB
330
70
100
AcDbEntity
  8
vaso fingerjoints v6_Sketch6
100
AcDbLine
 10
19.85971388678217
 20
-3.698005735004943
 30
0.0
 11
20.35971388678218
 21
-3.698005735004624
 31
0.0
  0
LINE
  5
1EC
330
70
100
AcDbEntity
  8
vaso fingerjoints v6_Sketch6
100
AcDbLine
 10
17.85971388678243
 20
-3.698005735004873
 30
0.0
 11
18.35971388678243
 21
-3.69800573500485
 31
0.0
  0
LINE
  5
1ED
330
70
100
AcDbEntity
  8
vaso fingerjoints v6_Sketch6
100
AcDbLine
 10
21.35971388678217
 20
-3.698005735004326
 30
0.0
 11
21.35971388678241
 21
-4.098005735004331
 31
0.0
  0
LINE
  5
1EE
330
70
100
AcDbEntity
  8
vaso fingerjoints v6_Sketch6
100
AcDbLine
 10
11.85971388678247
 20
-4.098005735005132
 30
0.0
 11
11.85971388678247
 21
-3.698005735005128
 31
0.0
  0
LINE
  5
1EF
330
70
100
AcDbEntity
  8
vaso fingerjoints v6_Sketch6
100
AcDbLine
 10
22.35971388678241
 20
-4.098005735003867
 30
0.0
 11
22.85971388678241
 21
-4.098005735003606
 31
0.0
  0
LINE
  5
1F0
330
70
100
AcDbEntity
  8
vaso fingerjoints v6_Sketch6
100
AcDbLine
 10
23.35971388678221
 20
-3.698005735003559
 30
0.0
 11
23.35971388678237
 21
-4.098005735003564
 31
0.0
  0
LINE
  5
1F1
330
70
100
AcDbEntity
  8
vaso fingerjoints v6_Sketch6
100
AcDbLine
 10
23.35971388678237
 20
-4.098005735003564
 30
0.0
 11
23.85971388678237
 21
-4.098005735003263
 31
0.0
  0
LINE
  5
1F2
330
70
100
AcDbEntity
  8
vaso fingerjoints v6_Sketch6
100
AcDbLine
 10
23.85971388678216
 20
-3.698005735003258
 30
0.0
 11
24.35971388678216
 21
-3.698005735002827
 31
0.0
  0
LINE
  5
1F3
330
70
100
AcDbEntity
  8
vaso fingerjoints v6_Sketch6
100
AcDbLine
 10
15.85971388678246
 20
-3.698005735005026
 30
0.0
 11
16.35971388678246
 21
-3.698005735004946
 31
0.0
  0
LINE
  5
1F4
330
70
100
AcDbEntity
  8
vaso fingerjoints v6_Sketch6
100
AcDbLine
 10
24.85971388678241
 20
-4.098005735003058
 30
0.0
 11
24.85971388678216
 21
-3.698005735003051
 31
0.0
  0
LINE
  5
1F5
330
70
100
AcDbEntity
  8
vaso fingerjoints v6_Sketch6
100
AcDbLine
 10
14.35971388678242
 20
-4.098005735005081
 30
0.0
 11
14.85971388678242
 21
-4.098005735005066
 31
0.0
  0
LINE
  5
1F6
330
70
100
AcDbEntity
  8
vaso fingerjoints v6_Sketch6
100
AcDbLine
 10
14.85971388678242
 20
-4.098005735005066
 30
0.0
 11
14.85971388678242
 21
-3.698005735005061
 31
0.0
  0
LINE
  5
1F7
330
70
100
AcDbEntity
  8
vaso fingerjoints v6_Sketch6
100
AcDbLine
 10
25.36077811686541
 20
-4.098004319268444
 30
0.0
 11
25.86077634719718
 21
-4.096674031664351
 31
0.0
  0
LINE
  5
1F8
330
70
100
AcDbEntity
  8
vaso fingerjoints v6_Sketch6
100
AcDbLine
 10
22.35971388678212
 20
-3.698005735003862
 30
0.0
 11
22.35971388678241
 21
-4.098005735003867
 31
0.0
  0
LINE
  5
1F9
330
70
100
AcDbEntity
  8
vaso fingerjoints v6_Sketch6
100
AcDbLine
 10
18.35971388678243
 20
-4.098005735004855
 30
0.0
 11
18.85971388678243
 21
-4.098005735004899
 31
0.0
  0
LINE
  5
1FA
330
70
100
AcDbEntity
  8
vaso fingerjoints v6_Sketch6
100
AcDbLine
 10
21.85971388678213
 20
-3.698005735004
 30
0.0
 11
22.35971388678212
 21
-3.698005735003862
 31
0.0
  0
LINE
  5
1FB
330
70
100
AcDbEntity
  8
vaso fingerjoints v6_Sketch6
100
AcDbLine
 10
13.85971388678246
 20
-4.098005735005115
 30
0.0
 11
13.85971388678243
 21
-3.69800573500511
 31
0.0
  0
LINE
  5
1FC
330
70
100
AcDbEntity
  8
vaso fingerjoints v6_Sketch6
100
AcDbLine
 10
11.35971388678248
 20
-3.69800573500513
 30
0.0
 11
11.35971388678247
 21
-4.098005735005134
 31
0.0
  0
LINE
  5
1FD
330
70
100
AcDbEntity
  8
vaso fingerjoints v6_Sketch6
100
AcDbLine
 10
13.35971388678246
 20
-4.098005735005133
 30
0.0
 11
13.85971388678246
 21
-4.098005735005115
 31
0.0
  0
LINE
  5
1FE
330
70
100
AcDbEntity
  8
vaso fingerjoints v6_Sketch6
100
AcDbLine
 10
15.85971388678246
 20
-4.098005735005032
 30
0.0
 11
15.85971388678246
 21
-3.698005735005026
 31
0.0
  0
LINE
  5
1FF
330
70
100
AcDbEntity
  8
vaso fingerjoints v6_Sketch6
100
AcDbLine
 10
10.85971388678248
 20
-3.69800573500513
 30
0.0
 11
11.35971388678248
 21
-3.69800573500513
 31
0.0
  0
LINE
  5
200
330
70
100
AcDbEntity
  8
vaso fingerjoints v6_Sketch6
100
AcDbLine
 10
13.85971388678243
 20
-3.69800573500511
 30
0.0
 11
14.35971388678243
 21
-3.698005735005076
 31
0.0
  0
LINE
  5
201
330
70
100
AcDbEntity
  8
vaso fingerjoints v6_Sketch6
100
AcDbLine
 10
15.35971388678246
 20
-4.098005735005028
 30
0.0
 11
15.85971388678246
 21
-4.098005735005032
 31
0.0
  0
LINE
  5
202
330
70
100
AcDbEntity
  8
vaso fingerjoints v6_Sketch6
100
AcDbLine
 10
19.85971388678239
 20
-4.098005735004948
 30
0.0
 11
19.85971388678217
 21
-3.698005735004943
 31
0.0
  0
LINE
  5
203
330
70
100
AcDbEntity
  8
vaso fingerjoints v6_Sketch6
100
AcDbLine
 10
22.85971388678222
 20
-3.698005735003601
 30
0.0
 11
23.35971388678221
 21
-3.698005735003559
 31
0.0
  0
LINE
  5
204
330
70
100
AcDbEntity
  8
vaso fingerjoints v6_Sketch6
100
AcDbLine
 10
18.85971388678243
 20
-4.098005735004899
 30
0.0
 11
18.85971388678249
 21
-3.698005735004894
 31
0.0
  0
LINE
  5
205
330
70
100
AcDbEntity
  8
vaso fingerjoints v6_Sketch6
100
AcDbLine
 10
25.86077634719718
 20
-4.096674031664351
 30
0.0
 11
25.85971211711391
 21
-3.696675447398938
 31
0.0
  0
LINE
  5
206
330
70
100
AcDbEntity
  8
vaso fingerjoints v6_Sketch6
100
AcDbLine
 10
25.85971211711391
 20
-3.696675447398938
 30
0.0
 11
26.35971034744567
 21
-3.695345159795161
 31
0.0
  0
LINE
  5
207
330
70
100
AcDbEntity
  8
vaso fingerjoints v6_Sketch6
100
AcDbLine
 10
16.85971388678243
 20
-3.698005735004951
 30
0.0
 11
16.85971388678243
 21
-4.098005735004956
 31
0.0
  0
LINE
  5
208
330
70
100
AcDbEntity
  8
vaso fingerjoints v6_Sketch6
100
AcDbLine
 10
25.35971388678216
 20
-3.698005735003032
 30
0.0
 11
25.36077811686541
 21
-4.098004319268444
 31
0.0
  0
LINE
  5
209
330
70
100
AcDbEntity
  8
vaso fingerjoints v6_Sketch6
100
AcDbLine
 10
26.35971034744567
 20
-3.695345159795161
 30
0.0
 11
26.36077457752901
 21
-4.095343744060572
 31
0.0
  0
LINE
  5
20A
330
70
100
AcDbEntity
  8
vaso fingerjoints v6_Sketch6
100
AcDbLine
 10
11.35971388678247
 20
-4.098005735005134
 30
0.0
 11
11.85971388678247
 21
-4.098005735005132
 31
0.0
  0
LINE
  5
20B
330
70
100
AcDbEntity
  8
vaso fingerjoints v6_Sketch6
100
AcDbLine
 10
13.35971388678246
 20
-3.698005735005128
 30
0.0
 11
13.35971388678246
 21
-4.098005735005133
 31
0.0
  0
LINE
  5
20C
330
70
100
AcDbEntity
  8
vaso fingerjoints v6_Sketch6
100
AcDbLine
 10
21.85971388678241
 20
-4.098005735004004
 30
0.0
 11
21.85971388678213
 21
-3.698005735004
 31
0.0
  0
LINE
  5
20D
330
70
100
AcDbEntity
  8
vaso fingerjoints v6_Sketch6
100
AcDbLine
 10
20.35971388678242
 20
-4.098005735004628
 30
0.0
 11
20.85971388678242
 21
-4.098005735004325
 31
0.0
  0
LINE
  5
20E
330
70
100
AcDbEntity
  8
vaso fingerjoints v6_Sketch6
100
AcDbLine
 10
9.859713886782472
 20
-3.698005735005136
 30
0.0
 11
10.35971388678247
 21
-3.698005735005127
 31
0.0
  0
LINE
  5
20F
330
70
100
AcDbEntity
  8
vaso fingerjoints v6_Sketch6
100
AcDbLine
 10
12.35971388678247
 20
-4.098005735005131
 30
0.0
 11
12.85971388678247
 21
-4.09800573500513
 31
0.0
  0
LINE
  5
210
330
70
100
AcDbEntity
  8
vaso fingerjoints v6_Sketch6
100
AcDbLine
 10
17.35971388678244
 20
-4.098005735004917
 30
0.0
 11
17.35971388678244
 21
-3.698005735004911
 31
0.0
  0
LINE
  5
211
330
70
100
AcDbEntity
  8
vaso fingerjoints v6_Sketch6
100
AcDbLine
 10
11.85971388678247
 20
-3.698005735005128
 30
0.0
 11
12.35971388678247
 21
-3.698005735005126
 31
0.0
  0
LINE
  5
212
330
70
100
AcDbEntity
  8
vaso fingerjoints v6_Sketch6
100
AcDbLine
 10
12.85971388678247
 20
-4.09800573500513
 30
0.0
 11
12.85971388678246
 21
-3.698005735005125
 31
0.0
  0
LINE
  5
213
330
70
100
AcDbEntity
  8
vaso fingerjoints v6_Sketch6
100
AcDbLine
 10
12.85971388678246
 20
-3.698005735005125
 30
0.0
 11
13.35971388678246
 21
-3.698005735005128
 31
0.0
  0
LINE
  5
214
330
70
100
AcDbEntity
  8
vaso fingerjoints v6_Sketch6
100
AcDbLine
 10
14.35971388678243
 20
-3.698005735005076
 30
0.0
 11
14.35971388678242
 21
-4.098005735005081
 31
0.0
  0
LINE
  5
215
330
70
100
AcDbEntity
  8
vaso fingerjoints v6_Sketch6
100
AcDbLine
 10
22.85971388678241
 20
-4.098005735003606
 30
0.0
 11
22.85971388678222
 21
-3.698005735003601
 31
0.0
  0
LINE
  5
216
330
70
100
AcDbEntity
  8
vaso fingerjoints v6_Sketch6
100
AcDbLine
 10
16.35971388678246
 20
-3.698005735004946
 30
0.0
 11
16.35971388678244
 21
-4.09800573500495
 31
0.0
  0
LINE
  5
217
330
70
100
AcDbEntity
  8
vaso fingerjoints v6_Sketch6
100
AcDbLine
 10
20.85971388678242
 20
-4.098005735004325
 30
0.0
 11
20.85971388678216
 21
-3.698005735004321
 31
0.0
  0
LINE
  5
218
330
70
100
AcDbEntity
  8
vaso fingerjoints v6_Sketch6
100
AcDbLine
 10
17.85971388678244
 20
-4.098005735004877
 30
0.0
 11
17.85971388678243
 21
-3.698005735004873
 31
0.0
  0
LINE
  5
219
330
70
100
AcDbEntity
  8
vaso fingerjoints v6_Sketch6
100
AcDbLine
 10
32.86077457752894
 20
-4.095343744058919
 30
0.0
 11
32.86077457752873
 21
-3.695343744058914
 31
0.0
  0
LINE
  5
21A
330
70
100
AcDbEntity
  8
vaso fingerjoints v6_Sketch6
100
AcDbLine
 10
29.86077457752898
 20
-4.095343744059981
 30
0.0
 11
29.86077457752873
 21
-3.695343744059977
 31
0.0
  0
LINE
  5
21B
330
70
100
AcDbEntity
  8
vaso fingerjoints v6_Sketch6
100
AcDbLine
 10
31.36077457752869
 20
-3.695343744059518
 30
0.0
 11
31.36077457752897
 21
-4.095343744059523
 31
0.0
  0
LINE
  5
21C
330
70
100
AcDbEntity
  8
vaso fingerjoints v6_Sketch6
100
AcDbLine
 10
32.36077457752877
 20
-3.695343744059215
 30
0.0
 11
32.36077457752894
 21
-4.09534374405922
 31
0.0
  0
LINE
  5
21D
330
70
100
AcDbEntity
  8
vaso fingerjoints v6_Sketch6
100
AcDbLine
 10
27.36077457752899
 20
-3.695343744060506
 30
0.0
 11
27.36077457752899
 21
-4.095343744060511
 31
0.0
  0
LINE
  5
21E
330
70
100
AcDbEntity
  8
vaso fingerjoints v6_Sketch6
100
AcDbLine
 10
31.86077457752878
 20
-3.695343744059257
 30
0.0
 11
32.36077457752877
 21
-3.695343744059215
 31
0.0
  0
LINE
  5
21F
330
70
100
AcDbEntity
  8
vaso fingerjoints v6_Sketch6
100
AcDbLine
 10
33.36077457752872
 20
-3.695343744058483
 30
0.0
 11
33.36077457752897
 21
-4.095343744058487
 31
0.0
  0
LINE
  5
220
330
70
100
AcDbEntity
  8
vaso fingerjoints v6_Sketch6
100
AcDbLine
 10
0.3351564535749212
 20
-2.423176077442317
 30
0.0
 11
0.8480944443688864
 21
-2.390151577442317
 31
0.0
  0
LINE
  5
221
330
70
100
AcDbEntity
  8
vaso fingerjoints v6_Sketch6
100
AcDbLine
 10
-0.1579008204610167
 20
-2.392671577442316
 30
0.0
 11
-0.182643742715187
 21
-2.792602007323945
 31
0.0
  0
LINE
  5
222
330
70
100
AcDbEntity
  8
vaso fingerjoints v6_Sketch6
100
AcDbLine
 10
26.86077457752901
 20
-4.095343744060533
 30
0.0
 11
26.860774577529
 21
-3.695343744060529
 31
0.0
  0
LINE
  5
223
330
70
100
AcDbEntity
  8
vaso fingerjoints v6_Sketch6
100
AcDbLine
 10
9.359713886782504
 20
-4.098005735005154
 30
0.0
 11
9.359713886782296
 21
4.901994264994845
 31
0.0
  0
LINE
  5
224
330
70
100
AcDbEntity
  8
vaso fingerjoints v6_Sketch6
100
AcDbLine
 10
19.35971388678239
 20
-4.098005735004944
 30
0.0
 11
19.85971388678239
 21
-4.098005735004948
 31
0.0
  0
LINE
  5
225
330
70
100
AcDbEntity
  8
vaso fingerjoints v6_Sketch6
100
AcDbLine
 10
9.359713886782296
 20
4.901994264994845
 30
0.0
 11
34.29097457752864
 21
4.901994264995421
 31
0.0
  0
LINE
  5
226
330
70
100
AcDbEntity
  8
vaso fingerjoints v6_Sketch6
100
AcDbLine
 10
1.33316924668318
 20
-2.296671974534794
 30
0.0
 11
1.408992766068567
 21
-2.690127632589159
 31
0.0
  0
LINE
  5
227
330
70
100
AcDbEntity
  8
vaso fingerjoints v6_Sketch6
100
AcDbLine
 10
-0.182643742715187
 20
-2.792602007323945
 30
0.0
 11
0.3104135313207509
 21
-2.823106507323945
 31
0.0
  0
LINE
  5
228
330
70
100
AcDbEntity
  8
vaso fingerjoints v6_Sketch6
100
AcDbLine
 10
32.36077457752894
 20
-4.09534374405922
 30
0.0
 11
32.86077457752894
 21
-4.095343744058919
 31
0.0
  0
LINE
  5
229
330
70
100
AcDbEntity
  8
vaso fingerjoints v6_Sketch6
100
AcDbLine
 10
1.821645329012501
 20
-2.136712239000505
 30
0.0
 11
1.333169246683181
 21
-2.296671974534794
 31
0.0
  0
LINE
  5
22A
330
70
100
AcDbEntity
  8
vaso fingerjoints v6_Sketch6
100
AcDbLine
 10
1.821645329012501
 20
-2.136712239000505
 30
0.0
 11
1.993239296887875
 21
-2.498806247699579
 31
0.0
  0
LINE
  5
22B
330
70
100
AcDbEntity
  8
vaso fingerjoints v6_Sketch6
100
AcDbLine
 10
2.439649651125619
 20
-2.287255318537516
 30
0.0
 11
1.993239296887875
 21
-2.498806247699579
 31
0.0
  0
LINE
  5
22C
330
70
100
AcDbEntity
  8
vaso fingerjoints v6_Sketch6
100
AcDbLine
 10
2.268055683250244
 20
-1.925161309838441
 30
0.0
 11
2.439649651125619
 21
-2.287255318537516
 31
0.0
  0
LINE
  5
22D
330
70
100
AcDbEntity
  8
vaso fingerjoints v6_Sketch6
100
AcDbLine
 10
4.044851425579413
 20
-0.7892198671225943
 30
0.0
 11
3.756247465550701
 21
-1.190148482035206
 31
0.0
  0
LINE
  5
22E
330
70
100
AcDbEntity
  8
vaso fingerjoints v6_Sketch6
100
AcDbLine
 10
27.36077457752899
 20
-4.095343744060511
 30
0.0
 11
27.86077457752899
 21
-4.095343744060555
 31
0.0
  0
LINE
  5
22F
330
70
100
AcDbEntity
  8
vaso fingerjoints v6_Sketch6
100
AcDbLine
 10
29.36077457752874
 20
-3.69534374406028
 30
0.0
 11
29.36077457752899
 21
-4.095343744060284
 31
0.0
  0
LINE
  5
230
330
70
100
AcDbEntity
  8
vaso fingerjoints v6_Sketch6
100
AcDbLine
 10
2.268055683250246
 20
-1.925161309838441
 30
0.0
 11
2.701172742821495
 21
-1.648384120192409
 31
0.0
  0
LINE
  5
231
330
70
100
AcDbEntity
  8
vaso fingerjoints v6_Sketch6
100
AcDbLine
 10
32.86077457752873
 20
-3.695343744058914
 30
0.0
 11
33.36077457752872
 21
-3.695343744058483
 31
0.0
  0
LINE
  5
232
330
70
100
AcDbEntity
  8
vaso fingerjoints v6_Sketch6
100
AcDbLine
 10
24.35971388678241
 20
-4.098005735002831
 30
0.0
 11
24.85971388678241
 21
-4.098005735003058
 31
0.0
  0
LINE
  5
233
330
70
100
AcDbEntity
  8
vaso fingerjoints v6_Sketch6
100
AcDbLine
 10
31.86077457752897
 20
-4.095343744059261
 30
0.0
 11
31.86077457752878
 21
-3.695343744059257
 31
0.0
  0
LINE
  5
234
330
70
100
AcDbEntity
  8
vaso fingerjoints v6_Sketch6
100
AcDbLine
 10
33.79097457752897
 20
-4.09534374405826
 30
0.0
 11
33.79097457752884
 21
-3.695343744058255
 31
0.0
  0
LINE
  5
235
330
70
100
AcDbEntity
  8
vaso fingerjoints v6_Sketch6
100
AcDbLine
 10
28.86077457752895
 20
-4.095343744060603
 30
0.0
 11
28.86077457752874
 21
-3.695343744060599
 31
0.0
  0
LINE
  5
236
330
70
100
AcDbEntity
  8
vaso fingerjoints v6_Sketch6
100
AcDbLine
 10
30.86077457752897
 20
-4.09534374405966
 30
0.0
 11
30.86077457752869
 21
-3.695343744059656
 31
0.0
  0
LINE
  5
237
330
70
100
AcDbEntity
  8
vaso fingerjoints v6_Sketch6
100
AcDbLine
 10
0.3351564535749212
 20
-2.423176077442317
 30
0.0
 11
0.3104135313207509
 21
-2.823106507323945
 31
0.0
  0
LINE
  5
238
330
70
100
AcDbEntity
  8
vaso fingerjoints v6_Sketch6
100
AcDbLine
 10
26.36077457752901
 20
-4.095343744060572
 30
0.0
 11
26.86077457752901
 21
-4.095343744060533
 31
0.0
  0
LINE
  5
239
330
70
100
AcDbEntity
  8
vaso fingerjoints v6_Sketch6
100
AcDbLine
 10
3.337193024167102
 20
-1.639972065506706
 30
0.0
 11
2.957683488701647
 21
-1.956213290666859
 31
0.0
  0
LINE
  5
23A
330
70
100
AcDbEntity
  8
vaso fingerjoints v6_Sketch6
100
AcDbLine
 10
30.86077457752869
 20
-3.695343744059656
 30
0.0
 11
31.36077457752869
 21
-3.695343744059518
 31
0.0
  0
LINE
  5
23B
330
70
100
AcDbEntity
  8
vaso fingerjoints v6_Sketch6
100
AcDbLine
 10
30.36077457752897
 20
-4.095343744059987
 30
0.0
 11
30.86077457752897
 21
-4.09534374405966
 31
0.0
  0
LINE
  5
23C
330
70
100
AcDbEntity
  8
vaso fingerjoints v6_Sketch6
100
AcDbLine
 10
30.36077457752873
 20
-3.695343744059982
 30
0.0
 11
30.36077457752897
 21
-4.095343744059987
 31
0.0
  0
LINE
  5
23D
330
70
100
AcDbEntity
  8
vaso fingerjoints v6_Sketch6
100
AcDbLine
 10
29.36077457752899
 20
-4.095343744060284
 30
0.0
 11
29.86077457752898
 21
-4.095343744059981
 31
0.0
  0
LINE
  5
23E
330
70
100
AcDbEntity
  8
vaso fingerjoints v6_Sketch6
100
AcDbLine
 10
27.86077457752906
 20
-3.69534374406055
 30
0.0
 11
28.36077457752906
 21
-3.695343744060595
 31
0.0
  0
LINE
  5
23F
330
70
100
AcDbEntity
  8
vaso fingerjoints v6_Sketch6
100
AcDbLine
 10
27.86077457752899
 20
-4.095343744060555
 30
0.0
 11
27.86077457752906
 21
-3.69534374406055
 31
0.0
  0
LINE
  5
240
330
70
100
AcDbEntity
  8
vaso fingerjoints v6_Sketch6
100
AcDbLine
 10
0.8480944443688864
 20
-2.390151577442317
 30
0.0
 11
0.9239179637542729
 21
-2.783607235496682
 31
0.0
  0
LINE
  5
241
330
70
100
AcDbEntity
  8
vaso fingerjoints v6_Sketch6
100
AcDbLine
 10
3.719648732591337
 20
-0.5551263614025867
 30
0.0
 11
4.044851425579413
 21
-0.7892198671225943
 31
0.0
  0
LINE
  5
242
330
70
100
AcDbEntity
  8
vaso fingerjoints v6_Sketch6
100
AcDbLine
 10
28.86077457752874
 20
-3.695343744060599
 30
0.0
 11
29.36077457752874
 21
-3.69534374406028
 31
0.0
  0
LINE
  5
243
330
70
100
AcDbEntity
  8
vaso fingerjoints v6_Sketch6
100
AcDbLine
 10
0.9239179637542729
 20
-2.783607235496682
 30
0.0
 11
1.408992766068567
 21
-2.690127632589159
 31
0.0
  0
LINE
  5
244
330
70
100
AcDbEntity
  8
vaso fingerjoints v6_Sketch6
100
AcDbLine
 10
3.431044772562625
 20
-0.9560549763151986
 30
0.0
 11
3.756247465550701
 21
-1.190148482035206
 31
0.0
  0
LINE
  5
245
330
70
100
AcDbEntity
  8
vaso fingerjoints v6_Sketch6
100
AcDbLine
 10
3.431044772562625
 20
-0.9560549763151986
 30
0.0
 11
3.080682278286951
 21
-1.332142895032256
 31
0.0
  0
LINE
  5
246
330
70
100
AcDbEntity
  8
vaso fingerjoints v6_Sketch6
100
AcDbLine
 10
33.36077457752897
 20
-4.095343744058487
 30
0.0
 11
33.79097457752897
 21
-4.09534374405826
 31
0.0
  0
LINE
  5
247
330
70
100
AcDbEntity
  8
vaso fingerjoints v6_Sketch6
100
AcDbLine
 10
28.36077457752906
 20
-3.695343744060595
 30
0.0
 11
28.36077457752896
 21
-4.0953437440606
 31
0.0
  0
LINE
  5
248
330
70
100
AcDbEntity
  8
vaso fingerjoints v6_Sketch6
100
AcDbLine
 10
31.36077457752897
 20
-4.095343744059523
 30
0.0
 11
31.86077457752897
 21
-4.095343744059261
 31
0.0
  0
LINE
  5
249
330
70
100
AcDbEntity
  8
vaso fingerjoints v6_Sketch6
100
AcDbLine
 10
33.79097457752884
 20
-3.695343744058255
 30
0.0
 11
34.29097457752884
 21
-3.695343744057499
 31
0.0
  0
LINE
  5
24A
330
70
100
AcDbEntity
  8
vaso fingerjoints v6_Sketch6
100
AcDbLine
 10
26.860774577529
 20
-3.695343744060529
 30
0.0
 11
27.36077457752899
 21
-3.695343744060506
 31
0.0
  0
LINE
  5
24B
330
70
100
AcDbEntity
  8
vaso fingerjoints v6_Sketch6
100
AcDbLine
 10
29.86077457752873
 20
-3.695343744059977
 30
0.0
 11
30.36077457752873
 21
-3.695343744059982
 31
0.0
  0
LINE
  5
24C
330
70
100
AcDbEntity
  8
vaso fingerjoints v6_Sketch6
100
AcDbLine
 10
28.36077457752896
 20
-4.0953437440606
 30
0.0
 11
28.86077457752895
 21
-4.095343744060603
 31
0.0
  0
ENDSEC
  0
SECTION
  2
OBJECTS
  0
DICTIONARY
  5
C
330
0
100
AcDbDictionary
281
     1
  3
ACAD_COLOR
350
63
  3
ACAD_DETAILVIEWSTYLE
350
6A
  3
ACAD_GROUP
350
D
  3
ACAD_LAYOUT
350
62
  3
ACAD_MATERIAL
350
10
  3
ACAD_MLEADERSTYLE
350
66
  3
ACAD_MLINESTYLE
350
5F
  3
ACAD_PLOTSETTINGS
350
61
  3
ACAD_PLOTSTYLENAME
350
E
  3
ACAD_SCALELIST
350
42
  3
ACAD_SECTIONVIEWSTYLE
350
68
  3
ACAD_TABLESTYLE
350
64
  3
ACAD_VISUALSTYLE
350
29
  3
ACDB_RECOMPOSE_DATA
350
255
  3
AcDbVariableDictionary
350
24D
  0
DICTIONARY
  5
63
102
{ACAD_REACTORS
330
C
102
}
330
C
100
AcDbDictionary
281
     1
  0
DICTIONARY
  5
6A
102
{ACAD_REACTORS
330
C
102
}
330
C
100
AcDbDictionary
281
     1
  3
Imperial24
350
6B
  0
DICTIONARY
  5
D
102
{ACAD_REACTORS
330
C
102
}
330
C
100
AcDbDictionary
281
     1
  0
DICTIONARY
  5
62
102
{ACAD_REACTORS
330
C
102
}
330
C
100
AcDbDictionary
281
     1
  3
Layout1
350
6F
  3
Layout2
350
77
  3
Model
350
73
  0
DICTIONARY
  5
10
102
{ACAD_REACTORS
330
C
102
}
330
C
100
AcDbDictionary
281
     1
  3
ByBlock
350
19
  3
ByLayer
350
11
  3
Global
350
21
  0
DICTIONARY
  5
66
102
{ACAD_REACTORS
330
C
102
}
330
C
100
AcDbDictionary
281
     1
  3
Standard
350
67
  0
DICTIONARY
  5
5F
102
{ACAD_REACTORS
330
C
102
}
330
C
100
AcDbDictionary
281
     1
  3
Standard
350
60
  0
DICTIONARY
  5
61
102
{ACAD_REACTORS
330
C
102
}
330
C
100
AcDbDictionary
281
     1
  0
ACDBDICTIONARYWDFLT
  5
E
102
{ACAD_REACTORS
330
C
102
}
330
C
100
AcDbDictionary
281
     1
  3
Normal
350
F
100
AcDbDictionaryWithDefault
340
F
  0
DICTIONARY
  5
42
102
{ACAD_REACTORS
330
C
102
}
330
C
100
AcDbDictionary
281
     1
  3
A0
350
43
  3
A1
350
44
  3
A2
350
45
  3
A3
350
46
  3
A4
350
47
  3
A5
350
48
  3
A6
350
49
  3
A7
350
4A
  3
A8
350
4B
  3
A9
350
4C
  3
B0
350
4D
  3
B1
350
4E
  3
B2
350
4F
  3
B3
350
50
  3
B4
350
51
  3
B5
350
52
  3
B6
350
53
  0
DICTIONARY
  5
68
102
{ACAD_REACTORS
330
C
102
}
330
C
100
AcDbDictionary
281
     1
  3
Imperial24
350
69
  0
DICTIONARY
  5
64
102
{ACAD_REACTORS
330
C
102
}
330
C
100
AcDbDictionary
281
     1
  3
Standard
350
65
  0
DICTIONARY
  5
29
102
{ACAD_REACTORS
330
C
102
}
330
C
100
AcDbDictionary
281
     1
  3
2dWireframe
350
2F
  3
Basic
350
2E
  3
Brighten
350
35
  3
ColorChange
350
39
  3
Conceptual
350
32
  3
Dim
350
34
  3
EdgeColorOff
350
41
  3
Facepattern
350
38
  3
Flat
350
2A
  3
FlatWithEdges
350
2B
  3
Gouraud
350
2C
  3
GouraudWithEdges
350
2D
  3
Hidden
350
31
  3
JitterOff
350
3F
  3
Linepattern
350
37
  3
OverhangOff
350
40
  3
Realistic
350
33
  3
Shaded
350
3E
  3
Shaded with edges
350
3D
  3
Shades of Gray
350
3A
  3
Sketchy
350
3B
  3
Thicken
350
36
  3
Wireframe
350
30
  3
X-Ray
350
3C
  0
XRECORD
  5
255
102
{ACAD_REACTORS
330
C
102
}
330
C
100
AcDbXrecord
280
     1
 90
        1
330
65
  0
DICTIONARY
  5
24D
102
{ACAD_REACTORS
330
C
102
}
330
C
100
AcDbDictionary
281
     1
  3
CANNOSCALE
350
252
  3
CMLEADERSTYLE
350
24F
  3
CTABLESTYLE
350
24E
  3
CVIEWDETAILSTYLE
350
250
  3
CVIEWSECTIONSTYLE
350
251
  0
ACDBDETAILVIEWSTYLE
  5
6B
102
{ACAD_XDICTIONARY
360
258
102
}
102
{ACAD_REACTORS
330
6A
102
}
330
6A
100
AcDbModelDocViewStyle
 70
     0
  3
Imperial24
290
     0
100
AcDbDetailViewStyle
 70
     0
 71
     0
 90
        3
 71
     1
340
55
 62
   256
 40
0.24
340
0
 62
   256
 40
0.24
300

 40
0.36
280
     3
 71
     2
340
5D
 90
       25
 62
   256
 71
     3
340
55
 62
   256
 40
0.24
 90
        1
 40
0.75
 90
        1
300
%<\AcVar ViewType \f "%tc1">% %<\AcVar ViewDetailId>%\PSCALE %<\AcVar ViewScale \f "%sn">%
 71
     4
340
5D
 90
       25
 62
   256
340
5D
 90
       25
 62
   256
280
     0
  0
LAYOUT
  5
6F
102
{ACAD_REACTORS
330
62
102
}
330
62
100
AcDbPlotSettings
  1

  2

  4

  6

 40
0.0
 41
0.0
 42
0.0
 43
0.0
 44
0.0
 45
0.0
 46
0.0
 47
0.0
 48
0.0
 49
0.0
140
0.0
141
0.0
142
1.0
143
1.0
 70
   688
 72
     0
 73
     0
 74
     5
  7

 75
    16
147
1.0
 76
     0
 77
     2
 78
   300
148
0.0
149
0.0
100
AcDbLayout
  1
Layout1
 70
     1
 71
     1
 10
0.0
 20
0.0
 11
12.0
 21
9.0
 12
0.0
 22
0.0
 32
0.0
 14
0.0
 24
0.0
 34
0.0
 15
0.0
 25
0.0
 35
0.0
146
0.0
 13
0.0
 23
0.0
 33
0.0
 16
1.0
 26
0.0
 36
0.0
 17
0.0
 27
1.0
 37
0.0
 76
     0
330
6C
  0
LAYOUT
  5
77
102
{ACAD_REACTORS
330
62
102
}
330
62
100
AcDbPlotSettings
  1

  2

  4

  6

 40
0.0
 41
0.0
 42
0.0
 43
0.0
 44
0.0
 45
0.0
 46
0.0
 47
0.0
 48
0.0
 49
0.0
140
0.0
141
0.0
142
1.0
143
1.0
 70
   688
 72
     0
 73
     0
 74
     5
  7

 75
    16
147
1.0
 76
     0
 77
     2
 78
   300
148
0.0
149
0.0
100
AcDbLayout
  1
Layout2
 70
     1
 71
     2
 10
0.0
 20
0.0
 11
12.0
 21
9.0
 12
0.0
 22
0.0
 32
0.0
 14
0.0
 24
0.0
 34
0.0
 15
0.0
 25
0.0
 35
0.0
146
0.0
 13
0.0
 23
0.0
 33
0.0
 16
1.0
 26
0.0
 36
0.0
 17
0.0
 27
1.0
 37
0.0
 76
     0
330
74
  0
LAYOUT
  5
73
102
{ACAD_REACTORS
330
62
102
}
330
62
100
AcDbPlotSettings
  1

  2

  4

  6

 40
0.0
 41
0.0
 42
0.0
 43
0.0
 44
0.0
 45
0.0
 46
0.0
 47
0.0
 48
0.0
 49
0.0
140
0.0
141
0.0
142
1.0
143
1.0
 70
  1712
 72
     0
 73
     0
 74
     0
  7

 75
     0
147
1.0
 76
     0
 77
     2
 78
   300
148
0.0
149
0.0
100
AcDbLayout
  1
Model
 70
     1
 71
     0
 10
0.0
 20
0.0
 11
12.0
 21
9.0
 12
0.0
 22
0.0
 32
0.0
 14
0.0
 24
0.0
 34
0.0
 15
0.0
 25
0.0
 35
0.0
146
0.0
 13
0.0
 23
0.0
 33
0.0
 16
1.0
 26
0.0
 36
0.0
 17
0.0
 27
1.0
 37
0.0
 76
     0
330
70
  0
MATERIAL
  5
19
102
{ACAD_XDICTIONARY
360
1A
102
}
102
{ACAD_REACTORS
330
10
102
}
330
10
100
AcDbMaterial
  1
ByBlock
 72
     0
 43
0.0208333333333333
 43
0.0
 43
0.0
 43
0.0
 43
0.0
 43
0.0208333333333333
 43
0.0
 43
0.0
 43
0.0
 43
0.0
 43
1.0
 43
0.0
 43
0.0
 43
0.0
 43
0.0
 43
1.0
 77
     0
 47
0.0208333333333333
 47
0.0
 47
0.0
 47
0.0
 47
0.0
 47
0.0208333333333333
 47
0.0
 47
0.0
 47
0.0
 47
0.0
 47
1.0
 47
0.0
 47
0.0
 47
0.0
 47
0.0
 47
1.0
171
     0
 49
0.0208333333333333
 49
0.0
 49
0.0
 49
0.0
 49
0.0
 49
0.0208333333333333
 49
0.0
 49
0.0
 49
0.0
 49
0.0
 49
1.0
 49
0.0
 49
0.0
 49
0.0
 49
0.0
 49
1.0
175
     0
142
0.0208333333333333
142
0.0
142
0.0
142
0.0
142
0.0
142
0.0208333333333333
142
0.0
142
0.0
142
0.0
142
0.0
142
1.0
142
0.0
142
0.0
142
0.0
142
0.0
142
1.0
179
     0
144
0.0208333333333333
144
0.0
144
0.0
144
0.0
144
0.0
144
0.0208333333333333
144
0.0
144
0.0
144
0.0
144
0.0
144
1.0
144
0.0
144
0.0
144
0.0
144
0.0
144
1.0
147
0.0208333333333333
147
0.0
147
0.0
147
0.0
147
0.0
147
0.0208333333333333
147
0.0
147
0.0
147
0.0
147
0.0
147
1.0
147
0.0
147
0.0
147
0.0
147
0.0
147
1.0
  0
MATERIAL
  5
11
102
{ACAD_XDICTIONARY
360
12
102
}
102
{ACAD_REACTORS
330
10
102
}
330
10
100
AcDbMaterial
  1
ByLayer
 72
     0
 43
0.0208333333333333
 43
0.0
 43
0.0
 43
0.0
 43
0.0
 43
0.0208333333333333
 43
0.0
 43
0.0
 43
0.0
 43
0.0
 43
1.0
 43
0.0
 43
0.0
 43
0.0
 43
0.0
 43
1.0
 77
     0
 47
0.0208333333333333
 47
0.0
 47
0.0
 47
0.0
 47
0.0
 47
0.0208333333333333
 47
0.0
 47
0.0
 47
0.0
 47
0.0
 47
1.0
 47
0.0
 47
0.0
 47
0.0
 47
0.0
 47
1.0
171
     0
 49
0.0208333333333333
 49
0.0
 49
0.0
 49
0.0
 49
0.0
 49
0.0208333333333333
 49
0.0
 49
0.0
 49
0.0
 49
0.0
 49
1.0
 49
0.0
 49
0.0
 49
0.0
 49
0.0
 49
1.0
175
     0
142
0.0208333333333333
142
0.0
142
0.0
142
0.0
142
0.0
142
0.0208333333333333
142
0.0
142
0.0
142
0.0
142
0.0
142
1.0
142
0.0
142
0.0
142
0.0
142
0.0
142
1.0
179
     0
144
0.0208333333333333
144
0.0
144
0.0
144
0.0
144
0.0
144
0.0208333333333333
144
0.0
144
0.0
144
0.0
144
0.0
144
1.0
144
0.0
144
0.0
144
0.0
144
0.0
144
1.0
147
0.0208333333333333
147
0.0
147
0.0
147
0.0
147
0.0
147
0.0208333333333333
147
0.0
147
0.0
147
0.0
147
0.0
147
1.0
147
0.0
147
0.0
147
0.0
147
0.0
147
1.0
  0
MATERIAL
  5
21
102
{ACAD_XDICTIONARY
360
22
102
}
102
{ACAD_REACTORS
330
10
102
}
330
10
100
AcDbMaterial
  1
Global
 72
     0
 43
0.0208333333333333
 43
0.0
 43
0.0
 43
0.0
 43
0.0
 43
0.0208333333333333
 43
0.0
 43
0.0
 43
0.0
 43
0.0
 43
1.0
 43
0.0
 43
0.0
 43
0.0
 43
0.0
 43
1.0
 77
     0
 47
0.0208333333333333
 47
0.0
 47
0.0
 47
0.0
 47
0.0
 47
0.0208333333333333
 47
0.0
 47
0.0
 47
0.0
 47
0.0
 47
1.0
 47
0.0
 47
0.0
 47
0.0
 47
0.0
 47
1.0
171
     0
 49
0.0208333333333333
 49
0.0
 49
0.0
 49
0.0
 49
0.0
 49
0.0208333333333333
 49
0.0
 49
0.0
 49
0.0
 49
0.0
 49
1.0
 49
0.0
 49
0.0
 49
0.0
 49
0.0
 49
1.0
175
     0
142
0.0208333333333333
142
0.0
142
0.0
142
0.0
142
0.0
142
0.0208333333333333
142
0.0
142
0.0
142
0.0
142
0.0
142
1.0
142
0.0
142
0.0
142
0.0
142
0.0
142
1.0
179
     0
144
0.0208333333333333
144
0.0
144
0.0
144
0.0
144
0.0
144
0.0208333333333333
144
0.0
144
0.0
144
0.0
144
0.0
144
1.0
144
0.0
144
0.0
144
0.0
144
0.0
144
1.0
147
0.0208333333333333
147
0.0
147
0.0
147
0.0
147
0.0
147
0.0208333333333333
147
0.0
147
0.0
147
0.0
147
0.0
147
1.0
147
0.0
147
0.0
147
0.0
147
0.0
147
1.0
  0
MLEADERSTYLE
  5
67
102
{ACAD_REACTORS
330
66
102
}
330
66
100
AcDbMLeaderStyle
179
     2
170
     2
171
     1
172
     0
 90
        2
 40
0.0
 41
0.0
173
     1
 91
-1056964608
340
5B
 92
       -2
290
     1
 42
0.09
291
     1
 43
0.36
  3
Standard
 44
0.18
300

342
55
174
     1
178
     6
175
     1
176
     0
 93
-1056964608
 45
0.18
292
     0
297
     0
 46
0.18
 94
-1056964608
 47
1.0
 49
1.0
140
1.0
293
     1
141
0.0
294
     1
177
     0
142
1.0
295
     0
296
     0
143
0.125
271
     0
272
     9
273
     9
298
     1
  0
MLINESTYLE
  5
60
102
{ACAD_REACTORS
330
5F
102
}
330
5F
100
AcDbMlineStyle
  2
STANDARD
 70
     0
  3

 62
   256
 51
90.0
 52
90.0
 71
     2
 49
0.5
 62
   256
  6
BYLAYER
 49
-0.5
 62
   256
  6
BYLAYER
  0
ACDBPLACEHOLDER
  5
F
102
{ACAD_REACTORS
330
E
102
}
330
E
  0
SCALE
  5
43
102
{ACAD_REACTORS
330
42
102
}
330
42
100
AcDbScale
 70
     0
300
1:1
140
1.0
141
1.0
290
     1
  0
SCALE
  5
44
102
{ACAD_REACTORS
330
42
102
}
330
42
100
AcDbScale
 70
     0
300
1/128" = 1'-0"
140
0.0078125
141
12.0
290
     0
  0
SCALE
  5
45
102
{ACAD_REACTORS
330
42
102
}
330
42
100
AcDbScale
 70
     0
300
1/64" = 1'-0"
140
0.015625
141
12.0
290
     0
  0
SCALE
  5
46
102
{ACAD_REACTORS
330
42
102
}
330
42
100
AcDbScale
 70
     0
300
1/32" = 1'-0"
140
0.03125
141
12.0
290
     0
  0
SCALE
  5
47
102
{ACAD_REACTORS
330
42
102
}
330
42
100
AcDbScale
 70
     0
300
1/16" = 1'-0"
140
0.0625
141
12.0
290
     0
  0
SCALE
  5
48
102
{ACAD_REACTORS
330
42
102
}
330
42
100
AcDbScale
 70
     0
300
3/32" = 1'-0"
140
0.09375
141
12.0
290
     0
  0
SCALE
  5
49
102
{ACAD_REACTORS
330
42
102
}
330
42
100
AcDbScale
 70
     0
300
1/8" = 1'-0"
140
0.125
141
12.0
290
     0
  0
SCALE
  5
4A
102
{ACAD_REACTORS
330
42
102
}
330
42
100
AcDbScale
 70
     0
300
3/16" = 1'-0"
140
0.1875
141
12.0
290
     0
  0
SCALE
  5
4B
102
{ACAD_REACTORS
330
42
102
}
330
42
100
AcDbScale
 70
     0
300
1/4" = 1'-0"
140
0.25
141
12.0
290
     0
  0
SCALE
  5
4C
102
{ACAD_REACTORS
330
42
102
}
330
42
100
AcDbScale
 70
     0
300
3/8" = 1'-0"
140
0.375
141
12.0
290
     0
  0
SCALE
  5
4D
102
{ACAD_REACTORS
330
42
102
}
330
42
100
AcDbScale
 70
     0
300
1/2" = 1'-0"
140
0.5
141
12.0
290
     0
  0
SCALE
  5
4E
102
{ACAD_REACTORS
330
42
102
}
330
42
100
AcDbScale
 70
     0
300
3/4" = 1'-0"
140
0.75
141
12.0
290
     0
  0
SCALE
  5
4F
102
{ACAD_REACTORS
330
42
102
}
330
42
100
AcDbScale
 70
     0
300
1" = 1'-0"
140
1.0
141
12.0
290
     0
  0
SCALE
  5
50
102
{ACAD_REACTORS
330
42
102
}
330
42
100
AcDbScale
 70
     0
300
1-1/2" = 1'-0"
140
1.5
141
12.0
290
     0
  0
SCALE
  5
51
102
{ACAD_REACTORS
330
42
102
}
330
42
100
AcDbScale
 70
     0
300
3" = 1'-0"
140
3.0
141
12.0
290
     0
  0
SCALE
  5
52
102
{ACAD_REACTORS
330
42
102
}
330
42
100
AcDbScale
 70
     0
300
6" = 1'-0"
140
6.0
141
12.0
290
     0
  0
SCALE
  5
53
102
{ACAD_REACTORS
330
42
102
}
330
42
100
AcDbScale
 70
     0
300
1'-0" = 1'-0"
140
12.0
141
12.0
290
     0
  0
ACDBSECTIONVIEWSTYLE
  5
69
102
{ACAD_XDICTIONARY
360
256
102
}
102
{ACAD_REACTORS
330
68
102
}
330
68
100
AcDbModelDocViewStyle
 70
     0
  3
Imperial24
290
     0
100
AcDbSectionViewStyle
 70
     0
 71
     0
 90
       78
 71
     1
340
55
 62
   256
 40
0.24
340
0
340
0
 62
   256
 40
0.24
300
I, O, Q, S, X, Z
 40
0.48
 90
        3
 40
0.18
 90
        1
 71
     2
340
5D
 90
       25
 62
   256
340
5D
 90
       50
 62
   256
 40
0.24
 40
0.0
 40
0.24
 71
     3
340
55
 62
   256
 40
0.24
 90
        1
 40
0.75
 90
        1
300
%<\AcVar ViewType \f "%tc1">% %<\AcVar ViewSectionStartId>%-%<\AcVar ViewSectionEndId>%\PSCALE %<\AcVar ViewScale \f "%sn">%
 71
     4
 62
   256
 62
   257
300
ANSI31
 40
1.0
 90
        0
290
     0
290
     0
 90
        6
 40
0.0
 40
1.570796326794896
 40
0.2617993877991494
 40
1.308996938995747
 40
-0.2617993877991494
 40
1.832595714594046
  0
TABLESTYLE
  5
65
102
{ACAD_XDICTIONARY
360
253
102
}
102
{ACAD_REACTORS
330
64
102
}
330
64
100
AcDbTableStyle
280
     0
  3
Standard
 70
     0
 71
     0
 40
0.06
 41
0.06
280
     0
281
     0
  7
Standard
140
0.18
170
     2
 62
     0
 63
     7
283
     0
 90
      512
 91
        0
  1

274
    -2
284
     1
 64
     0
275
    -2
285
     1
 65
     0
276
    -2
286
     1
 66
     0
277
    -2
287
     1
 67
     0
278
    -2
288
     1
 68
     0
279
    -2
289
     1
 69
     0
  7
Standard
140
0.25
170
     5
 62
     0
 63
     7
283
     0
 90
      512
 91
        0
  1

274
    -2
284
     1
 64
     0
275
    -2
285
     1
 65
     0
276
    -2
286
     1
 66
     0
277
    -2
287
     1
 67
     0
278
    -2
288
     1
 68
     0
279
    -2
289
     1
 69
     0
  7
Standard
140
0.18
170
     5
 62
     0
 63
     7
283
     0
 90
      512
 91
        0
  1

274
    -2
284
     1
 64
     0
275
    -2
285
     1
 65
     0
276
    -2
286
     1
 66
     0
277
    -2
287
     1
 67
     0
278
    -2
288
     1
 68
     0
279
    -2
289
     1
 69
     0
  0
VISUALSTYLE
  5
2F
102
{ACAD_REACTORS
330
29
102
}
330
29
100
AcDbVisualStyle
  2
2dWireframe
 70
     4
177
     3
291
     0
 70
    58
 90
        0
176
     1
 90
        2
176
     1
 90
        0
176
     1
 90
        0
176
     1
 40
0.6
176
     1
 40
30.0
176
     1
 62
     7
420
 16777215
176
     1
 90
        1
176
     1
 90
        4
176
     1
 62
     7
176
     1
 62
   257
176
     1
 90
        1
176
     1
 90
        1
176
     1
 40
1.0
176
     1
 90
        0
176
     1
 62
   257
176
     1
 40
1.0
176
     1
 90
        1
176
     1
 90
        6
176
     1
 90
        2
176
     1
 62
     7
176
     1
 90
        5
176
     1
 90
        0
176
     1
 90
        0
176
     1
290
     0
176
     1
 90
        1
176
     1
 40
0.0
176
     1
 90
        0
176
     1
290
     1
176
     1
290
     1
176
     1
290
     0
176
     1
290
     0
176
     1
290
     0
176
     1
290
     0
176
     1
290
     0
176
     1
290
     0
176
     1
290
     0
176
     1
 90
       50
176
     1
 40
0.0
176
     1
 40
1.0
176
     1
 90
        0
176
     1
 62
    18
420
        0
176
     1
 90
       50
176
     1
 90
        3
176
     1
 62
     5
420
      255
176
     1
290
     0
176
     1
 90
       50
176
     1
 90
       50
176
     1
 90
       50
176
     1
290
     0
176
     1
 90
       50
176
     1
 62
   256
176
     0
 40
1.0
176
     0
 90
        2
176
     1
  1
strokes_ogs.tif
176
     1
290
     0
176
     1
 40
1.0
176
     1
 40
1.0
176
     1
1001
ACAD
1000
AcDbSavedByObjectVersion
1070
     0
  0
VISUALSTYLE
  5
2E
102
{ACAD_REACTORS
330
29
102
}
330
29
100
AcDbVisualStyle
  2
Basic
 70
     7
177
     3
291
     1
 70
    58
 90
        1
176
     1
 90
        0
176
     1
 90
        1
176
     1
 90
        0
176
     1
 40
0.6
176
     1
 40
30.0
176
     1
 62
     7
420
 16777215
176
     1
 90
        0
176
     1
 90
        4
176
     1
 62
     7
176
     1
 62
   257
176
     1
 90
        1
176
     1
 90
        1
176
     1
 40
1.0
176
     1
 90
        8
176
     1
 62
     7
176
     1
 40
1.0
176
     1
 90
        1
176
     1
 90
        6
176
     1
 90
        2
176
     1
 62
     7
176
     1
 90
        5
176
     1
 90
        0
176
     1
 90
        0
176
     1
290
     0
176
     1
 90
        1
176
     1
 40
0.0
176
     1
 90
        0
176
     1
290
     0
176
     1
290
     1
176
     1
290
     1
176
     1
290
     0
176
     1
290
     0
176
     1
290
     0
176
     1
290
     0
176
     1
290
     0
176
     1
290
     0
176
     1
 90
       50
176
     1
 40
0.0
176
     1
 40
1.0
176
     1
 90
        0
176
     1
 62
    18
420
        0
176
     1
 90
       50
176
     1
 90
        3
176
     1
 62
     5
420
      255
176
     1
290
     0
176
     1
 90
       50
176
     1
 90
       50
176
     1
 90
       50
176
     1
290
     0
176
     1
 90
       50
176
     1
 62
   256
176
     0
 40
1.0
176
     0
 90
        2
176
     1
  1
strokes_ogs.tif
176
     1
290
     0
176
     1
 40
1.0
176
     1
 40
1.0
176
     1
1001
ACAD
1000
AcDbSavedByObjectVersion
1070
     0
  0
VISUALSTYLE
  5
35
102
{ACAD_REACTORS
330
29
102
}
330
29
100
AcDbVisualStyle
  2
Brighten
 70
    12
177
     3
291
     1
 70
    58
 90
        2
176
     1
 90
        2
176
     1
 90
        0
176
     1
 90
        0
176
     1
 40
0.6
176
     1
 40
30.0
176
     1
 62
     7
420
 16777215
176
     1
 90
        1
176
     1
 90
        4
176
     1
 62
     7
176
     1
 62
   257
176
     1
 90
        1
176
     1
 90
        1
176
     1
 40
1.0
176
     1
 90
        8
176
     1
 62
     7
176
     1
 40
1.0
176
     1
 90
        1
176
     1
 90
        6
176
     1
 90
        2
176
     1
 62
     7
176
     1
 90
        5
176
     1
 90
        0
176
     1
 90
        0
176
     1
290
     0
176
     1
 90
        1
176
     1
 40
50.0
176
     1
 90
        0
176
     1
290
     0
176
     1
290
     1
176
     1
290
     1
176
     1
290
     0
176
     1
290
     0
176
     1
290
     0
176
     1
290
     0
176
     1
290
     0
176
     1
290
     0
176
     1
 90
       50
176
     1
 40
0.0
176
     1
 40
1.0
176
     1
 90
        0
176
     1
 62
    18
420
        0
176
     1
 90
       50
176
     1
 90
        3
176
     1
 62
     5
420
      255
176
     1
290
     0
176
     1
 90
       50
176
     1
 90
       50
176
     1
 90
       50
176
     1
290
     0
176
     1
 90
       50
176
     1
 62
   256
176
     0
 40
1.0
176
     0
 90
        2
176
     1
  1
strokes_ogs.tif
176
     1
290
     0
176
     1
 40
1.0
176
     1
 40
1.0
176
     1
1001
ACAD
1000
AcDbSavedByObjectVersion
1070
     0
  0
VISUALSTYLE
  5
39
102
{ACAD_REACTORS
330
29
102
}
330
29
100
AcDbVisualStyle
  2
ColorChange
 70
    16
177
     3
291
     1
 70
    58
 90
        2
176
     1
 90
        2
176
     1
 90
        3
176
     1
 90
        0
176
     1
 40
0.6
176
     1
 40
30.0
176
     1
 62
     8
420
  8421504
176
     1
 90
        1
176
     1
 90
        4
176
     1
 62
     7
176
     1
 62
   257
176
     1
 90
        1
176
     1
 90
        1
176
     1
 40
1.0
176
     1
 90
        8
176
     1
 62
     8
420
  8421504
176
     1
 40
1.0
176
     1
 90
        1
176
     1
 90
        6
176
     1
 90
        2
176
     1
 62
     7
176
     1
 90
        5
176
     1
 90
        0
176
     1
 90
        0
176
     1
290
     0
176
     1
 90
        1
176
     1
 40
0.0
176
     1
 90
        0
176
     1
290
     0
176
     1
290
     1
176
     1
290
     1
176
     1
290
     0
176
     1
290
     0
176
     1
290
     0
176
     1
290
     0
176
     1
290
     0
176
     1
290
     0
176
     1
 90
       50
176
     1
 40
0.0
176
     1
 40
1.0
176
     1
 90
        0
176
     1
 62
    18
420
        0
176
     1
 90
       50
176
     1
 90
        3
176
     1
 62
     5
420
      255
176
     1
290
     0
176
     1
 90
       50
176
     1
 90
       50
176
     1
 90
       50
176
     1
290
     0
176
     1
 90
       50
176
     1
 62
   256
176
     0
 40
1.0
176
     0
 90
        2
176
     1
  1
strokes_ogs.tif
176
     1
290
     0
176
     1
 40
1.0
176
     1
 40
1.0
176
     1
1001
ACAD
1000
AcDbSavedByObjectVersion
1070
     0
  0
VISUALSTYLE
  5
32
102
{ACAD_REACTORS
330
29
102
}
330
29
100
AcDbVisualStyle
  2
Conceptual
 70
     9
177
     3
291
     0
 70
    58
 90
        3
176
     1
 90
        2
176
     1
 90
        0
176
     1
 90
        0
176
     1
 40
0.6
176
     1
 40
30.0
176
     1
 62
     7
420
 16777215
176
     1
 90
        2
176
     1
 90
        2
176
     1
 62
     7
176
     1
 62
   257
176
     1
 90
        1
176
     1
 90
        1
176
     1
 40
179.0
176
     1
 90
        8
176
     1
 62
     7
176
     1
 40
1.0
176
     1
 90
        1
176
     1
 90
        6
176
     1
 90
        2
176
     1
 62
     7
176
     1
 90
        3
176
     1
 90
        0
176
     1
 90
        0
176
     1
290
     0
176
     1
 90
        1
176
     1
 40
0.0
176
     1
 90
        0
176
     1
290
     0
176
     1
290
     1
176
     1
290
     1
176
     1
290
     0
176
     1
290
     0
176
     1
290
     0
176
     1
290
     0
176
     1
290
     0
176
     1
290
     0
176
     1
 90
       50
176
     1
 40
0.0
176
     1
 40
1.0
176
     1
 90
        0
176
     1
 62
    18
420
        0
176
     1
 90
       50
176
     1
 90
        3
176
     1
 62
     5
420
      255
176
     1
290
     0
176
     1
 90
       50
176
     1
 90
       50
176
     1
 90
       50
176
     1
290
     0
176
     1
 90
       50
176
     1
 62
   256
176
     0
 40
1.0
176
     0
 90
        2
176
     1
  1
strokes_ogs.tif
176
     1
290
     0
176
     1
 40
1.0
176
     1
 40
1.0
176
     1
1001
ACAD
1000
AcDbSavedByObjectVersion
1070
     0
  0
VISUALSTYLE
  5
34
102
{ACAD_REACTORS
330
29
102
}
330
29
100
AcDbVisualStyle
  2
Dim
 70
    11
177
     3
291
     1
 70
    58
 90
        2
176
     1
 90
        2
176
     1
 90
        0
176
     1
 90
        0
176
     1
 40
0.6
176
     1
 40
30.0
176
     1
 62
     7
420
 16777215
176
     1
 90
        1
176
     1
 90
        4
176
     1
 62
     7
176
     1
 62
   257
176
     1
 90
        1
176
     1
 90
        1
176
     1
 40
1.0
176
     1
 90
        8
176
     1
 62
     7
176
     1
 40
1.0
176
     1
 90
        1
176
     1
 90
        6
176
     1
 90
        2
176
     1
 62
     7
176
     1
 90
        5
176
     1
 90
        0
176
     1
 90
        0
176
     1
290
     0
176
     1
 90
        1
176
     1
 40
-50.0
176
     1
 90
        0
176
     1
290
     0
176
     1
290
     1
176
     1
290
     1
176
     1
290
     0
176
     1
290
     0
176
     1
290
     0
176
     1
290
     0
176
     1
290
     0
176
     1
290
     0
176
     1
 90
       50
176
     1
 40
0.0
176
     1
 40
1.0
176
     1
 90
        0
176
     1
 62
    18
420
        0
176
     1
 90
       50
176
     1
 90
        3
176
     1
 62
     5
420
      255
176
     1
290
     0
176
     1
 90
       50
176
     1
 90
       50
176
     1
 90
       50
176
     1
290
     0
176
     1
 90
       50
176
     1
 62
   256
176
     0
 40
1.0
176
     0
 90
        2
176
     1
  1
strokes_ogs.tif
176
     1
290
     0
176
     1
 40
1.0
176
     1
 40
1.0
176
     1
1001
ACAD
1000
AcDbSavedByObjectVersion
1070
     0
  0
VISUALSTYLE
  5
41
102
{ACAD_REACTORS
330
29
102
}
330
29
100
AcDbVisualStyle
  2
EdgeColorOff
 70
    22
177
     3
291
     1
 70
    58
 90
        2
176
     0
 90
        2
176
     0
 90
        0
176
     0
 90
        0
176
     0
 40
0.6
176
     0
 40
30.0
176
     0
 62
     7
420
 16777215
176
     0
 90
        1
176
     0
 90
        4
176
     0
 62
     7
176
     0
 62
   257
176
     0
 90
        1
176
     0
 90
        1
176
     0
 40
1.0
176
     0
 90
        8
176
     2
 62
     7
176
     0
 40
1.0
176
     0
 90
        1
176
     0
 90
        6
176
     0
 90
        2
176
     0
 62
     7
176
     0
 90
        5
176
     0
 90
        0
176
     0
 90
        0
176
     0
290
     0
176
     0
 90
        1
176
     0
 40
0.0
176
     0
 90
        0
176
     0
290
     0
176
     0
290
     1
176
     0
290
     1
176
     0
290
     0
176
     0
290
     0
176
     0
290
     0
176
     0
290
     0
176
     0
290
     0
176
     0
290
     0
176
     0
 90
       50
176
     0
 40
0.0
176
     0
 40
1.0
176
     0
 90
        0
176
     0
 62
    18
420
        0
176
     0
 90
       50
176
     0
 90
        3
176
     0
 62
     5
420
      255
176
     0
290
     0
176
     0
 90
       50
176
     0
 90
       50
176
     0
 90
       50
176
     0
290
     0
176
     0
 90
       50
176
     0
 62
   256
176
     0
 40
1.0
176
     0
 90
        2
176
     0
  1
strokes_ogs.tif
176
     0
290
     0
176
     0
 40
1.0
176
     0
 40
1.0
176
     0
1001
ACAD
1000
AcDbSavedByObjectVersion
1070
     0
  0
VISUALSTYLE
  5
38
102
{ACAD_REACTORS
330
29
102
}
330
29
100
AcDbVisualStyle
  2
Facepattern
 70
    15
177
     3
291
     1
 70
    58
 90
        2
176
     1
 90
        2
176
     1
 90
        0
176
     1
 90
        0
176
     1
 40
0.6
176
     1
 40
30.0
176
     1
 62
     7
420
 16777215
176
     1
 90
        1
176
     1
 90
        4
176
     1
 62
     7
176
     1
 62
   257
176
     1
 90
        1
176
     1
 90
        1
176
     1
 40
1.0
176
     1
 90
        8
176
     1
 62
     7
176
     1
 40
1.0
176
     1
 90
        1
176
     1
 90
        6
176
     1
 90
        2
176
     1
 62
     7
176
     1
 90
        5
176
     1
 90
        0
176
     1
 90
        0
176
     1
290
     0
176
     1
 90
        1
176
     1
 40
0.0
176
     1
 90
        0
176
     1
290
     0
176
     1
290
     1
176
     1
290
     1
176
     1
290
     0
176
     1
290
     0
176
     1
290
     0
176
     1
290
     0
176
     1
290
     0
176
     1
290
     0
176
     1
 90
       50
176
     1
 40
0.0
176
     1
 40
1.0
176
     1
 90
        0
176
     1
 62
    18
420
        0
176
     1
 90
       50
176
     1
 90
        3
176
     1
 62
     5
420
      255
176
     1
290
     0
176
     1
 90
       50
176
     1
 90
       50
176
     1
 90
       50
176
     1
290
     0
176
     1
 90
       50
176
     1
 62
   256
176
     0
 40
1.0
176
     0
 90
        2
176
     1
  1
strokes_ogs.tif
176
     1
290
     0
176
     1
 40
1.0
176
     1
 40
1.0
176
     1
1001
ACAD
1000
AcDbSavedByObjectVersion
1070
     0
  0
VISUALSTYLE
  5
2A
102
{ACAD_REACTORS
330
29
102
}
330
29
100
AcDbVisualStyle
  2
Flat
 70
     0
177
     3
291
     1
 70
    58
 90
        2
176
     1
 90
        1
176
     1
 90
        1
176
     1
 90
        2
176
     1
 40
0.6
176
     1
 40
30.0
176
     1
 62
     7
420
 16777215
176
     1
 90
        0
176
     1
 90
        0
176
     1
 62
     7
176
     1
 62
   257
176
     1
 90
        1
176
     1
 90
        1
176
     1
 40
1.0
176
     1
 90
        8
176
     1
 62
     7
176
     1
 40
1.0
176
     1
 90
        1
176
     1
 90
        6
176
     1
 90
        2
176
     1
 62
     7
176
     1
 90
        5
176
     1
 90
        0
176
     1
 90
        0
176
     1
290
     0
176
     1
 90
       13
176
     1
 40
0.0
176
     1
 90
        0
176
     1
290
     0
176
     1
290
     1
176
     1
290
     1
176
     1
290
     0
176
     1
290
     0
176
     1
290
     0
176
     1
290
     0
176
     1
290
     0
176
     1
290
     0
176
     1
 90
       50
176
     1
 40
0.0
176
     1
 40
1.0
176
     1
 90
        0
176
     1
 62
    18
420
        0
176
     1
 90
       50
176
     1
 90
        3
176
     1
 62
     5
420
      255
176
     1
290
     0
176
     1
 90
       50
176
     1
 90
       50
176
     1
 90
       50
176
     1
290
     0
176
     1
 90
       50
176
     1
 62
   256
176
     0
 40
1.0
176
     0
 90
        2
176
     1
  1
strokes_ogs.tif
176
     1
290
     0
176
     1
 40
1.0
176
     1
 40
1.0
176
     1
1001
ACAD
1000
AcDbSavedByObjectVersion
1070
     0
  0
VISUALSTYLE
  5
2B
102
{ACAD_REACTORS
330
29
102
}
330
29
100
AcDbVisualStyle
  2
FlatWithEdges
 70
     1
177
     3
291
     1
 70
    58
 90
        2
176
     1
 90
        1
176
     1
 90
        1
176
     1
 90
        2
176
     1
 40
0.6
176
     1
 40
30.0
176
     1
 62
     7
420
 16777215
176
     1
 90
        1
176
     1
 90
        0
176
     1
 62
     7
176
     1
 62
   257
176
     1
 90
        1
176
     1
 90
        1
176
     1
 40
1.0
176
     1
 90
        0
176
     1
 62
   257
176
     1
 40
1.0
176
     1
 90
        1
176
     1
 90
        6
176
     1
 90
        2
176
     1
 62
     7
176
     1
 90
        5
176
     1
 90
        0
176
     1
 90
        0
176
     1
290
     0
176
     1
 90
       13
176
     1
 40
0.0
176
     1
 90
        0
176
     1
290
     0
176
     1
290
     1
176
     1
290
     1
176
     1
290
     0
176
     1
290
     0
176
     1
290
     0
176
     1
290
     0
176
     1
290
     0
176
     1
290
     0
176
     1
 90
       50
176
     1
 40
0.0
176
     1
 40
1.0
176
     1
 90
        0
176
     1
 62
    18
420
        0
176
     1
 90
       50
176
     1
 90
        3
176
     1
 62
     5
420
      255
176
     1
290
     0
176
     1
 90
       50
176
     1
 90
       50
176
     1
 90
       50
176
     1
290
     0
176
     1
 90
       50
176
     1
 62
   256
176
     0
 40
1.0
176
     0
 90
        2
176
     1
  1
strokes_ogs.tif
176
     1
290
     0
176
     1
 40
1.0
176
     1
 40
1.0
176
     1
1001
ACAD
1000
AcDbSavedByObjectVersion
1070
     0
  0
VISUALSTYLE
  5
2C
102
{ACAD_REACTORS
330
29
102
}
330
29
100
AcDbVisualStyle
  2
Gouraud
 70
     2
177
     3
291
     1
 70
    58
 90
        2
176
     1
 90
        2
176
     1
 90
        1
176
     1
 90
        2
176
     1
 40
0.6
176
     1
 40
30.0
176
     1
 62
     7
420
 16777215
176
     1
 90
        0
176
     1
 90
        0
176
     1
 62
     7
176
     1
 62
   257
176
     1
 90
        1
176
     1
 90
        1
176
     1
 40
1.0
176
     1
 90
        0
176
     1
 62
     7
176
     1
 40
1.0
176
     1
 90
        1
176
     1
 90
        6
176
     1
 90
        2
176
     1
 62
     7
176
     1
 90
        5
176
     1
 90
        0
176
     1
 90
        0
176
     1
290
     0
176
     1
 90
       13
176
     1
 40
0.0
176
     1
 90
        0
176
     1
290
     0
176
     1
290
     1
176
     1
290
     1
176
     1
290
     0
176
     1
290
     0
176
     1
290
     0
176
     1
290
     0
176
     1
290
     0
176
     1
290
     0
176
     1
 90
       50
176
     1
 40
0.0
176
     1
 40
1.0
176
     1
 90
        0
176
     1
 62
    18
420
        0
176
     1
 90
       50
176
     1
 90
        3
176
     1
 62
     5
420
      255
176
     1
290
     0
176
     1
 90
       50
176
     1
 90
       50
176
     1
 90
       50
176
     1
290
     0
176
     1
 90
       50
176
     1
 62
   256
176
     0
 40
1.0
176
     0
 90
        2
176
     1
  1
strokes_ogs.tif
176
     1
290
     0
176
     1
 40
1.0
176
     1
 40
1.0
176
     1
1001
ACAD
1000
AcDbSavedByObjectVersion
1070
     0
  0
VISUALSTYLE
  5
2D
102
{ACAD_REACTORS
330
29
102
}
330
29
100
AcDbVisualStyle
  2
GouraudWithEdges
 70
     3
177
     3
291
     1
 70
    58
 90
        2
176
     1
 90
        2
176
     1
 90
        1
176
     1
 90
        2
176
     1
 40
0.6
176
     1
 40
30.0
176
     1
 62
     7
420
 16777215
176
     1
 90
        1
176
     1
 90
        0
176
     1
 62
     7
176
     1
 62
   257
176
     1
 90
        1
176
     1
 90
        1
176
     1
 40
1.0
176
     1
 90
        0
176
     1
 62
   257
176
     1
 40
1.0
176
     1
 90
        1
176
     1
 90
        6
176
     1
 90
        2
176
     1
 62
     7
176
     1
 90
        5
176
     1
 90
        0
176
     1
 90
        0
176
     1
290
     0
176
     1
 90
       13
176
     1
 40
0.0
176
     1
 90
        0
176
     1
290
     0
176
     1
290
     1
176
     1
290
     1
176
     1
290
     0
176
     1
290
     0
176
     1
290
     0
176
     1
290
     0
176
     1
290
     0
176
     1
290
     0
176
     1
 90
       50
176
     1
 40
0.0
176
     1
 40
1.0
176
     1
 90
        0
176
     1
 62
    18
420
        0
176
     1
 90
       50
176
     1
 90
        3
176
     1
 62
     5
420
      255
176
     1
290
     0
176
     1
 90
       50
176
     1
 90
       50
176
     1
 90
       50
176
     1
290
     0
176
     1
 90
       50
176
     1
 62
   256
176
     0
 40
1.0
176
     0
 90
        2
176
     1
  1
strokes_ogs.tif
176
     1
290
     0
176
     1
 40
1.0
176
     1
 40
1.0
176
     1
1001
ACAD
1000
AcDbSavedByObjectVersion
1070
     0
  0
VISUALSTYLE
  5
31
102
{ACAD_REACTORS
330
29
102
}
330
29
100
AcDbVisualStyle
  2
Hidden
 70
     6
177
     3
291
     0
 70
    58
 90
        1
176
     1
 90
        2
176
     1
 90
        2
176
     1
 90
        0
176
     1
 40
0.6
176
     1
 40
30.0
176
     1
 62
     7
420
 16777215
176
     1
 90
        2
176
     1
 90
        2
176
     1
 62
     7
176
     1
 62
   257
176
     1
 90
        2
176
     1
 90
        1
176
     1
 40
40.0
176
     1
 90
        0
176
     1
 62
   257
176
     1
 40
1.0
176
     1
 90
        1
176
     1
 90
        6
176
     1
 90
        2
176
     1
 62
     7
176
     1
 90
        3
176
     1
 90
        0
176
     1
 90
        0
176
     1
290
     0
176
     1
 90
        1
176
     1
 40
0.0
176
     1
 90
        0
176
     1
290
     0
176
     1
290
     1
176
     1
290
     1
176
     1
290
     0
176
     1
290
     0
176
     1
290
     0
176
     1
290
     0
176
     1
290
     0
176
     1
290
     0
176
     1
 90
       50
176
     1
 40
0.0
176
     1
 40
1.0
176
     1
 90
        0
176
     1
 62
    18
420
        0
176
     1
 90
       50
176
     1
 90
        3
176
     1
 62
     5
420
      255
176
     1
290
     0
176
     1
 90
       50
176
     1
 90
       50
176
     1
 90
       50
176
     1
290
     0
176
     1
 90
       50
176
     1
 62
   256
176
     0
 40
1.0
176
     0
 90
        2
176
     1
  1
strokes_ogs.tif
176
     1
290
     0
176
     1
 40
1.0
176
     1
 40
1.0
176
     1
1001
ACAD
1000
AcDbSavedByObjectVersion
1070
     0
  0
VISUALSTYLE
  5
3F
102
{ACAD_REACTORS
330
29
102
}
330
29
100
AcDbVisualStyle
  2
JitterOff
 70
    20
177
     3
291
     1
 70
    58
 90
        2
176
     0
 90
        2
176
     0
 90
        0
176
     0
 90
        0
176
     0
 40
0.6
176
     0
 40
30.0
176
     0
 62
     7
420
 16777215
176
     0
 90
        1
176
     0
 90
        4
176
     0
 62
     7
176
     0
 62
   257
176
     0
 90
        1
176
     0
 90
        1
176
     0
 40
1.0
176
     0
 90
       10
176
     2
 62
     7
176
     0
 40
1.0
176
     0
 90
        1
176
     0
 90
        6
176
     0
 90
        2
176
     0
 62
     7
176
     0
 90
        5
176
     0
 90
        0
176
     0
 90
        0
176
     0
290
     0
176
     0
 90
        1
176
     0
 40
0.0
176
     0
 90
        0
176
     0
290
     0
176
     0
290
     1
176
     0
290
     1
176
     0
290
     0
176
     0
290
     0
176
     0
290
     0
176
     0
290
     0
176
     0
290
     0
176
     0
290
     0
176
     0
 90
       50
176
     0
 40
0.0
176
     0
 40
1.0
176
     0
 90
        0
176
     0
 62
    18
420
        0
176
     0
 90
       50
176
     0
 90
        3
176
     0
 62
     5
420
      255
176
     0
290
     0
176
     0
 90
       50
176
     0
 90
       50
176
     0
 90
       50
176
     0
290
     0
176
     0
 90
       50
176
     0
 62
   256
176
     0
 40
1.0
176
     0
 90
        2
176
     0
  1
strokes_ogs.tif
176
     0
290
     0
176
     0
 40
1.0
176
     0
 40
1.0
176
     0
1001
ACAD
1000
AcDbSavedByObjectVersion
1070
     0
  0
VISUALSTYLE
  5
37
102
{ACAD_REACTORS
330
29
102
}
330
29
100
AcDbVisualStyle
  2
Linepattern
 70
    14
177
     3
291
     1
 70
    58
 90
        2
176
     1
 90
        2
176
     1
 90
        0
176
     1
 90
        0
176
     1
 40
0.6
176
     1
 40
30.0
176
     1
 62
     7
420
 16777215
176
     1
 90
        1
176
     1
 90
        4
176
     1
 62
     7
176
     1
 62
   257
176
     1
 90
        7
176
     1
 90
        7
176
     1
 40
1.0
176
     1
 90
        8
176
     1
 62
     7
176
     1
 40
1.0
176
     1
 90
        1
176
     1
 90
        6
176
     1
 90
        2
176
     1
 62
     7
176
     1
 90
        5
176
     1
 90
        0
176
     1
 90
        0
176
     1
290
     0
176
     1
 90
        1
176
     1
 40
0.0
176
     1
 90
        0
176
     1
290
     0
176
     1
290
     1
176
     1
290
     1
176
     1
290
     0
176
     1
290
     0
176
     1
290
     0
176
     1
290
     0
176
     1
290
     0
176
     1
290
     0
176
     1
 90
       50
176
     1
 40
0.0
176
     1
 40
1.0
176
     1
 90
        0
176
     1
 62
    18
420
        0
176
     1
 90
       50
176
     1
 90
        3
176
     1
 62
     5
420
      255
176
     1
290
     0
176
     1
 90
       50
176
     1
 90
       50
176
     1
 90
       50
176
     1
290
     0
176
     1
 90
       50
176
     1
 62
   256
176
     0
 40
1.0
176
     0
 90
        2
176
     1
  1
strokes_ogs.tif
176
     1
290
     0
176
     1
 40
1.0
176
     1
 40
1.0
176
     1
1001
ACAD
1000
AcDbSavedByObjectVersion
1070
     0
  0
VISUALSTYLE
  5
40
102
{ACAD_REACTORS
330
29
102
}
330
29
100
AcDbVisualStyle
  2
OverhangOff
 70
    21
177
     3
291
     1
 70
    58
 90
        2
176
     0
 90
        2
176
     0
 90
        0
176
     0
 90
        0
176
     0
 40
0.6
176
     0
 40
30.0
176
     0
 62
     7
420
 16777215
176
     0
 90
        1
176
     0
 90
        4
176
     0
 62
     7
176
     0
 62
   257
176
     0
 90
        1
176
     0
 90
        1
176
     0
 40
1.0
176
     0
 90
        9
176
     2
 62
     7
176
     0
 40
1.0
176
     0
 90
        1
176
     0
 90
        6
176
     0
 90
        2
176
     0
 62
     7
176
     0
 90
        5
176
     0
 90
        0
176
     0
 90
        0
176
     0
290
     0
176
     0
 90
        1
176
     0
 40
0.0
176
     0
 90
        0
176
     0
290
     0
176
     0
290
     1
176
     0
290
     1
176
     0
290
     0
176
     0
290
     0
176
     0
290
     0
176
     0
290
     0
176
     0
290
     0
176
     0
290
     0
176
     0
 90
       50
176
     0
 40
0.0
176
     0
 40
1.0
176
     0
 90
        0
176
     0
 62
    18
420
        0
176
     0
 90
       50
176
     0
 90
        3
176
     0
 62
     5
420
      255
176
     0
290
     0
176
     0
 90
       50
176
     0
 90
       50
176
     0
 90
       50
176
     0
290
     0
176
     0
 90
       50
176
     0
 62
   256
176
     0
 40
1.0
176
     0
 90
        2
176
     0
  1
strokes_ogs.tif
176
     0
290
     0
176
     0
 40
1.0
176
     0
 40
1.0
176
     0
1001
ACAD
1000
AcDbSavedByObjectVersion
1070
     0
  0
VISUALSTYLE
  5
33
102
{ACAD_REACTORS
330
29
102
}
330
29
100
AcDbVisualStyle
  2
Realistic
 70
     8
177
     3
291
     0
 70
    58
 90
        2
176
     1
 90
        3
176
     1
 90
        0
176
     1
 90
        2
176
     1
 40
0.6
176
     1
 40
30.0
176
     1
 62
     7
420
 16777215
176
     1
 90
        0
176
     1
 90
        0
176
     1
 62
     7
176
     1
 62
   257
176
     1
 90
        1
176
     1
 90
        1
176
     1
 40
1.0
176
     1
 90
        8
176
     1
 62
   257
176
     1
 40
1.0
176
     1
 90
        1
176
     1
 90
        6
176
     1
 90
        2
176
     1
 62
     7
176
     1
 90
        3
176
     1
 90
        0
176
     1
 90
        0
176
     1
290
     0
176
     1
 90
       13
176
     1
 40
0.0
176
     1
 90
        0
176
     1
290
     0
176
     1
290
     1
176
     1
290
     1
176
     1
290
     0
176
     1
290
     0
176
     1
290
     0
176
     1
290
     0
176
     1
290
     0
176
     1
290
     0
176
     1
 90
       50
176
     1
 40
0.0
176
     1
 40
1.0
176
     1
 90
        0
176
     1
 62
    18
420
        0
176
     1
 90
       50
176
     1
 90
        3
176
     1
 62
     5
420
      255
176
     1
290
     0
176
     1
 90
       50
176
     1
 90
       50
176
     1
 90
       50
176
     1
290
     0
176
     1
 90
       50
176
     1
 62
   256
176
     0
 40
1.0
176
     0
 90
        2
176
     1
  1
strokes_ogs.tif
176
     1
290
     0
176
     1
 40
1.0
176
     1
 40
1.0
176
     1
1001
ACAD
1000
AcDbSavedByObjectVersion
1070
     0
  0
VISUALSTYLE
  5
3E
102
{ACAD_REACTORS
330
29
102
}
330
29
100
AcDbVisualStyle
  2
Shaded
 70
    27
177
     3
291
     0
 70
    58
 90
        2
176
     1
 90
        2
176
     1
 90
        1
176
     1
 90
        2
176
     1
 40
0.6
176
     1
 40
30.0
176
     1
 62
     7
420
 16777215
176
     1
 90
        0
176
     1
 90
        4
176
     1
 62
     7
176
     1
 62
   257
176
     1
 90
        1
176
     1
 90
        1
176
     1
 40
1.0
176
     1
 90
        8
176
     1
 62
   257
176
     1
 40
1.0
176
     1
 90
        1
176
     1
 90
        6
176
     1
 90
        2
176
     1
 62
     8
420
  7895160
176
     1
 90
        3
176
     1
 90
        0
176
     1
 90
        0
176
     1
290
     0
176
     1
 90
        5
176
     1
 40
0.0
176
     1
 90
        0
176
     1
290
     0
176
     1
290
     1
176
     1
290
     1
176
     1
290
     0
176
     1
290
     0
176
     1
290
     0
176
     1
290
     0
176
     1
290
     0
176
     1
290
     0
176
     1
 90
       50
176
     1
 40
0.0
176
     1
 40
1.0
176
     1
 90
        0
176
     1
 62
    18
420
        0
176
     1
 90
       50
176
     1
 90
        3
176
     1
 62
     5
420
      255
176
     1
290
     0
176
     1
 90
       50
176
     1
 90
       50
176
     1
 90
       50
176
     1
290
     0
176
     1
 90
       50
176
     1
 62
   256
176
     0
 40
1.0
176
     0
 90
        2
176
     1
  1
strokes_ogs.tif
176
     1
290
     0
176
     1
 40
1.0
176
     1
 40
1.0
176
     1
1001
ACAD
1000
AcDbSavedByObjectVersion
1070
     0
  0
VISUALSTYLE
  5
3D
102
{ACAD_REACTORS
330
29
102
}
330
29
100
AcDbVisualStyle
  2
Shaded with edges
 70
    26
177
     3
291
     0
 70
    58
 90
        2
176
     1
 90
        2
176
     1
 90
        1
176
     1
 90
        2
176
     1
 40
0.6
176
     1
 40
30.0
176
     1
 62
     7
420
 16777215
176
     1
 90
        1
176
     1
 90
        2
176
     1
 62
     7
176
     1
 62
   257
176
     1
 90
        2
176
     1
 90
        1
176
     1
 40
1.0
176
     1
 90
        8
176
     1
 62
   257
176
     1
 40
1.0
176
     1
 90
        1
176
     1
 90
        6
176
     1
 90
        2
176
     1
 62
     7
176
     1
 90
        3
176
     1
 90
        0
176
     1
 90
        0
176
     1
290
     0
176
     1
 90
        5
176
     1
 40
0.0
176
     1
 90
        0
176
     1
290
     0
176
     1
290
     1
176
     1
290
     1
176
     1
290
     0
176
     1
290
     0
176
     1
290
     0
176
     1
290
     0
176
     1
290
     0
176
     1
290
     0
176
     1
 90
       50
176
     1
 40
0.0
176
     1
 40
1.0
176
     1
 90
        0
176
     1
 62
    18
420
        0
176
     1
 90
       50
176
     1
 90
        3
176
     1
 62
     5
420
      255
176
     1
290
     0
176
     1
 90
       50
176
     1
 90
       50
176
     1
 90
       50
176
     1
290
     0
176
     1
 90
       50
176
     1
 62
   256
176
     0
 40
1.0
176
     0
 90
        2
176
     1
  1
strokes_ogs.tif
176
     1
290
     0
176
     1
 40
1.0
176
     1
 40
1.0
176
     1
1001
ACAD
1000
AcDbSavedByObjectVersion
1070
     0
  0
VISUALSTYLE
  5
3A
102
{ACAD_REACTORS
330
29
102
}
330
29
100
AcDbVisualStyle
  2
Shades of Gray
 70
    23
177
     3
291
     0
 70
    58
 90
        2
176
     1
 90
        2
176
     1
 90
        3
176
     1
 90
        0
176
     1
 40
0.6
176
     1
 40
30.0
176
     1
 62
     7
420
 16777215
176
     1
 90
        2
176
     1
 90
        2
176
     1
 62
     7
176
     1
 62
     7
176
     1
 90
        1
176
     1
 90
        1
176
     1
 40
40.0
176
     1
 90
        8
176
     1
 62
     7
176
     1
 40
1.0
176
     1
 90
        1
176
     1
 90
        6
176
     1
 90
        2
176
     1
 62
     7
176
     1
 90
        3
176
     1
 90
        0
176
     1
 90
        0
176
     1
290
     0
176
     1
 90
        1
176
     1
 40
0.0
176
     1
 90
        0
176
     1
290
     0
176
     1
290
     1
176
     1
290
     1
176
     1
290
     0
176
     1
290
     0
176
     1
290
     0
176
     1
290
     0
176
     1
290
     0
176
     1
290
     0
176
     1
 90
       50
176
     1
 40
0.0
176
     1
 40
1.0
176
     1
 90
        0
176
     1
 62
    18
420
        0
176
     1
 90
       50
176
     1
 90
        3
176
     1
 62
     5
420
      255
176
     1
290
     0
176
     1
 90
       50
176
     1
 90
       50
176
     1
 90
       50
176
     1
290
     0
176
     1
 90
       50
176
     1
 62
   256
176
     0
 40
1.0
176
     0
 90
        2
176
     1
  1
strokes_ogs.tif
176
     1
290
     0
176
     1
 40
1.0
176
     1
 40
1.0
176
     1
1001
ACAD
1000
AcDbSavedByObjectVersion
1070
     0
  0
VISUALSTYLE
  5
3B
102
{ACAD_REACTORS
330
29
102
}
330
29
100
AcDbVisualStyle
  2
Sketchy
 70
    24
177
     3
291
     0
 70
    58
 90
        1
176
     1
 90
        2
176
     1
 90
        2
176
     1
 90
        0
176
     1
 40
0.6
176
     1
 40
30.0
176
     1
 62
     7
420
 16777215
176
     1
 90
        2
176
     1
 90
        2
176
     1
 62
     7
176
     1
 62
     7
176
     1
 90
        1
176
     1
 90
        1
176
     1
 40
40.0
176
     1
 90
       11
176
     1
 62
     7
176
     1
 40
1.0
176
     1
 90
        1
176
     1
 90
        6
176
     1
 90
        2
176
     1
 62
     7
176
     1
 90
        6
176
     1
 90
        0
176
     1
 90
        0
176
     1
290
     0
176
     1
 90
        1
176
     1
 40
0.0
176
     1
 90
        0
176
     1
290
     0
176
     1
290
     1
176
     1
290
     1
176
     1
290
     0
176
     1
290
     0
176
     1
290
     0
176
     1
290
     0
176
     1
290
     0
176
     1
290
     0
176
     1
 90
       50
176
     1
 40
0.0
176
     1
 40
1.0
176
     1
 90
        0
176
     1
 62
    18
420
        0
176
     1
 90
       50
176
     1
 90
        3
176
     1
 62
     5
420
      255
176
     1
290
     0
176
     1
 90
       50
176
     1
 90
       50
176
     1
 90
       50
176
     1
290
     0
176
     1
 90
       50
176
     1
 62
   256
176
     0
 40
1.0
176
     0
 90
        2
176
     1
  1
strokes_ogs.tif
176
     1
290
     0
176
     1
 40
1.0
176
     1
 40
1.0
176
     1
1001
ACAD
1000
AcDbSavedByObjectVersion
1070
     0
  0
VISUALSTYLE
  5
36
102
{ACAD_REACTORS
330
29
102
}
330
29
100
AcDbVisualStyle
  2
Thicken
 70
    13
177
     3
291
     1
 70
    58
 90
        2
176
     1
 90
        2
176
     1
 90
        0
176
     1
 90
        0
176
     1
 40
0.6
176
     1
 40
30.0
176
     1
 62
     7
420
 16777215
176
     1
 90
        1
176
     1
 90
        4
176
     1
 62
     7
176
     1
 62
   257
176
     1
 90
        1
176
     1
 90
        1
176
     1
 40
1.0
176
     1
 90
       12
176
     1
 62
     7
176
     1
 40
1.0
176
     1
 90
        1
176
     1
 90
        6
176
     1
 90
        2
176
     1
 62
     7
176
     1
 90
        5
176
     1
 90
        0
176
     1
 90
        0
176
     1
290
     0
176
     1
 90
        1
176
     1
 40
0.0
176
     1
 90
        0
176
     1
290
     0
176
     1
290
     1
176
     1
290
     1
176
     1
290
     0
176
     1
290
     0
176
     1
290
     0
176
     1
290
     0
176
     1
290
     0
176
     1
290
     0
176
     1
 90
       50
176
     1
 40
0.0
176
     1
 40
1.0
176
     1
 90
        0
176
     1
 62
    18
420
        0
176
     1
 90
       50
176
     1
 90
        3
176
     1
 62
     5
420
      255
176
     1
290
     0
176
     1
 90
       50
176
     1
 90
       50
176
     1
 90
       50
176
     1
290
     0
176
     1
 90
       50
176
     1
 62
   256
176
     0
 40
1.0
176
     0
 90
        2
176
     1
  1
strokes_ogs.tif
176
     1
290
     0
176
     1
 40
1.0
176
     1
 40
1.0
176
     1
1001
ACAD
1000
AcDbSavedByObjectVersion
1070
     0
  0
VISUALSTYLE
  5
30
102
{ACAD_REACTORS
330
29
102
}
330
29
100
AcDbVisualStyle
  2
Wireframe
 70
     5
177
     3
291
     0
 70
    58
 90
        0
176
     1
 90
        2
176
     1
 90
        0
176
     1
 90
        0
176
     1
 40
0.6
176
     1
 40
30.0
176
     1
 62
     7
420
 16777215
176
     1
 90
        1
176
     1
 90
        4
176
     1
 62
     7
176
     1
 62
   257
176
     1
 90
        1
176
     1
 90
        1
176
     1
 40
1.0
176
     1
 90
        0
176
     1
 62
   257
176
     1
 40
1.0
176
     1
 90
        1
176
     1
 90
        6
176
     1
 90
        2
176
     1
 62
     7
176
     1
 90
        3
176
     1
 90
        0
176
     1
 90
        0
176
     1
290
     0
176
     1
 90
        1
176
     1
 40
0.0
176
     1
 90
        0
176
     1
290
     0
176
     1
290
     1
176
     1
290
     1
176
     1
290
     0
176
     1
290
     0
176
     1
290
     0
176
     1
290
     0
176
     1
290
     0
176
     1
290
     0
176
     1
 90
       50
176
     1
 40
0.0
176
     1
 40
1.0
176
     1
 90
        0
176
     1
 62
    18
420
        0
176
     1
 90
       50
176
     1
 90
        3
176
     1
 62
     5
420
      255
176
     1
290
     0
176
     1
 90
       50
176
     1
 90
       50
176
     1
 90
       50
176
     1
290
     0
176
     1
 90
       50
176
     1
 62
   256
176
     0
 40
1.0
176
     0
 90
        2
176
     1
  1
strokes_ogs.tif
176
     1
290
     0
176
     1
 40
1.0
176
     1
 40
1.0
176
     1
1001
ACAD
1000
AcDbSavedByObjectVersion
1070
     0
  0
VISUALSTYLE
  5
3C
102
{ACAD_REACTORS
330
29
102
}
330
29
100
AcDbVisualStyle
  2
X-Ray
 70
    25
177
     3
291
     0
 70
    58
 90
        2
176
     1
 90
        2
176
     1
 90
        1
176
     1
 90
        1
176
     1
 40
0.5
176
     1
 40
30.0
176
     1
 62
     7
420
 16777215
176
     1
 90
        1
176
     1
 90
        0
176
     1
 62
     7
176
     1
 62
   257
176
     1
 90
        1
176
     1
 90
        1
176
     1
 40
1.0
176
     1
 90
        8
176
     1
 62
     7
176
     1
 40
1.0
176
     1
 90
        1
176
     1
 90
        6
176
     1
 90
        2
176
     1
 62
     7
176
     1
 90
        3
176
     1
 90
        0
176
     1
 90
        0
176
     1
290
     0
176
     1
 90
       13
176
     1
 40
0.0
176
     1
 90
        0
176
     1
290
     0
176
     1
290
     1
176
     1
290
     1
176
     1
290
     0
176
     1
290
     0
176
     1
290
     0
176
     1
290
     0
176
     1
290
     0
176
     1
290
     0
176
     1
 90
       50
176
     1
 40
0.0
176
     1
 40
1.0
176
     1
 90
        0
176
     1
 62
    18
420
        0
176
     1
 90
       50
176
     1
 90
        3
176
     1
 62
     5
420
      255
176
     1
290
     0
176
     1
 90
       50
176
     1
 90
       50
176
     1
 90
       50
176
     1
290
     0
176
     1
 90
       50
176
     1
 62
   256
176
     0
 40
1.0
176
     0
 90
        2
176
     1
  1
strokes_ogs.tif
176
     1
290
     0
176
     1
 40
1.0
176
     1
 40
1.0
176
     1
1001
ACAD
1000
AcDbSavedByObjectVersion
1070
     0
  0
DICTIONARYVAR
  5
252
102
{ACAD_REACTORS
330
24D
102
}
330
24D
100
DictionaryVariables
280
     0
  1
1:1
  0
DICTIONARYVAR
  5
24F
102
{ACAD_REACTORS
330
24D
102
}
330
24D
100
DictionaryVariables
280
     0
  1
STANDARD
  0
DICTIONARYVAR
  5
24E
102
{ACAD_REACTORS
330
24D
102
}
330
24D
100
DictionaryVariables
280
     0
  1
STANDARD
  0
DICTIONARYVAR
  5
250
102
{ACAD_REACTORS
330
24D
102
}
330
24D
100
DictionaryVariables
280
     0
  1
Imperial24
  0
DICTIONARYVAR
  5
251
102
{ACAD_REACTORS
330
24D
102
}
330
24D
100
DictionaryVariables
280
     0
  1
Imperial24
  0
DICTIONARY
  5
258
330
6B
100
AcDbDictionary
280
     1
281
     1
  3
ACAD_XREC_ROUNDTRIP
360
259
  0
DICTIONARY
  5
1A
330
19
100
AcDbDictionary
280
     1
281
     1
  3
BUMPTILE
360
1C
  3
DIFFUSETILE
360
1B
  3
OPACITYTILE
360
1F
  3
REFLECTIONTILE
360
1E
  3
REFRACTIONTILE
360
20
  3
SPECULARTILE
360
1D
  0
DICTIONARY
  5
12
330
11
100
AcDbDictionary
280
     1
281
     1
  3
BUMPTILE
360
14
  3
DIFFUSETILE
360
13
  3
OPACITYTILE
360
17
  3
REFLECTIONTILE
360
16
  3
REFRACTIONTILE
360
18
  3
SPECULARTILE
360
15
  0
DICTIONARY
  5
22
330
21
100
AcDbDictionary
280
     1
281
     1
  3
BUMPTILE
360
24
  3
DIFFUSETILE
360
23
  3
OPACITYTILE
360
27
  3
REFLECTIONTILE
360
26
  3
REFRACTIONTILE
360
28
  3
SPECULARTILE
360
25
  0
DICTIONARY
  5
256
330
69
100
AcDbDictionary
280
     1
281
     1
  3
ACAD_XREC_ROUNDTRIP
360
257
  0
DICTIONARY
  5
253
330
65
100
AcDbDictionary
280
     1
281
     1
  3
ACAD_ROUNDTRIP_2008_TABLESTYLE_CELLSTYLEMAP
360
254
  0
XRECORD
  5
259
102
{ACAD_REACTORS
330
258
102
}
330
258
100
AcDbXrecord
280
     1
102
DISPLAYNAME
  1
Imperial24
102
FLAGS
 90
        0
  0
XRECORD
  5
1C
102
{ACAD_REACTORS
330
1A
102
}
330
1A
100
AcDbXrecord
280
     1
270
     1
271
     1
  0
XRECORD
  5
1B
102
{ACAD_REACTORS
330
1A
102
}
330
1A
100
AcDbXrecord
280
     1
270
     1
271
     1
  0
XRECORD
  5
1F
102
{ACAD_REACTORS
330
1A
102
}
330
1A
100
AcDbXrecord
280
     1
270
     1
271
     1
  0
XRECORD
  5
1E
102
{ACAD_REACTORS
330
1A
102
}
330
1A
100
AcDbXrecord
280
     1
270
     1
271
     1
  0
XRECORD
  5
20
102
{ACAD_REACTORS
330
1A
102
}
330
1A
100
AcDbXrecord
280
     1
270
     1
271
     1
  0
XRECORD
  5
1D
102
{ACAD_REACTORS
330
1A
102
}
330
1A
100
AcDbXrecord
280
     1
270
     1
271
     1
  0
XRECORD
  5
14
102
{ACAD_REACTORS
330
12
102
}
330
12
100
AcDbXrecord
280
     1
270
     1
271
     1
  0
XRECORD
  5
13
102
{ACAD_REACTORS
330
12
102
}
330
12
100
AcDbXrecord
280
     1
270
     1
271
     1
  0
XRECORD
  5
17
102
{ACAD_REACTORS
330
12
102
}
330
12
100
AcDbXrecord
280
     1
270
     1
271
     1
  0
XRECORD
  5
16
102
{ACAD_REACTORS
330
12
102
}
330
12
100
AcDbXrecord
280
     1
270
     1
271
     1
  0
XRECORD
  5
18
102
{ACAD_REACTORS
330
12
102
}
330
12
100
AcDbXrecord
280
     1
270
     1
271
     1
  0
XRECORD
  5
15
102
{ACAD_REACTORS
330
12
102
}
330
12
100
AcDbXrecord
280
     1
270
     1
271
     1
  0
XRECORD
  5
24
102
{ACAD_REACTORS
330
22
102
}
330
22
100
AcDbXrecord
280
     1
270
     1
271
     1
  0
XRECORD
  5
23
102
{ACAD_REACTORS
330
22
102
}
330
22
100
AcDbXrecord
280
     1
270
     1
271
     1
  0
XRECORD
  5
27
102
{ACAD_REACTORS
330
22
102
}
330
22
100
AcDbXrecord
280
     1
270
     1
271
     1
  0
XRECORD
  5
26
102
{ACAD_REACTORS
330
22
102
}
330
22
100
AcDbXrecord
280
     1
270
     1
271
     1
  0
XRECORD
  5
28
102
{ACAD_REACTORS
330
22
102
}
330
22
100
AcDbXrecord
280
     1
270
     1
271
     1
  0
XRECORD
  5
25
102
{ACAD_REACTORS
330
22
102
}
330
22
100
AcDbXrecord
280
     1
270
     1
271
     1
  0
XRECORD
  5
257
102
{ACAD_REACTORS
330
256
102
}
330
256
100
AcDbXrecord
280
     1
102
DISPLAYNAME
  1
Imperial24
102
FLAGS
 90
        0
  0
CELLSTYLEMAP
  5
254
102
{ACAD_REACTORS
330
253
102
}
330
253
100
AcDbCellStyleMap
 90
        3
300
CELLSTYLE
  1
TABLEFORMAT_BEGIN
 90
        5
170
     1
 91
        0
 92
    32768
 62
   257
 93
        1
300
CONTENTFORMAT
  1
CONTENTFORMAT_BEGIN
 90
        0
 91
        0
 92
      512
 93
        0
300

 40
0.0
140
1.0
 94
        5
 62
     0
340
55
144
0.25
309
CONTENTFORMAT_END
171
     0
 94
        0
309
TABLEFORMAT_END
  1
CELLSTYLE_BEGIN
 90
        1
 91
        1
300
_TITLE
309
CELLSTYLE_END
300
CELLSTYLE
  1
TABLEFORMAT_BEGIN
 90
        5
170
     1
 91
        0
 92
        0
 62
   257
 93
        1
300
CONTENTFORMAT
  1
CONTENTFORMAT_BEGIN
 90
        0
 91
        0
 92
      512
 93
        0
300

 40
0.0
140
1.0
 94
        5
 62
     0
340
55
144
0.18
309
CONTENTFORMAT_END
171
     0
 94
        0
309
TABLEFORMAT_END
  1
CELLSTYLE_BEGIN
 90
        2
 91
        1
300
_HEADER
309
CELLSTYLE_END
300
CELLSTYLE
  1
TABLEFORMAT_BEGIN
 90
        5
170
     1
 91
        0
 92
        0
 62
   257
 93
        1
300
CONTENTFORMAT
  1
CONTENTFORMAT_BEGIN
 90
        0
 91
        0
 92
      512
 93
        0
300

 40
0.0
140
1.0
 94
        2
 62
     0
340
55
144
0.18
309
CONTENTFORMAT_END
171
     0
 94
        0
309
TABLEFORMAT_END
  1
CELLSTYLE_BEGIN
 90
        3
 91
        2
300
_DATA
309
CELLSTYLE_END
  0
ENDSEC
  0
EOF
