  0
SECTION
  2
HEADER
  9
$ACADVER
  1
AC1014
  9
$HANDSEED
  5
FFFF
  9
$MEASUREMENT
 70
     1
  0
ENDSEC
  0
SECTION
  2
TABLES
  0
TABLE
  2
VPORT
  5
8
330
0
100
AcDbSymbolTable
 70
     4
  0
VPORT
  5
2E
330
8
100
AcDbSymbolTableRecord
100
AcDbViewportTableRecord
  2
*ACTIVE
 70
     0
 10
0.0
 20
0.0
 11
1.0
 21
1.0
 12
210.0
 22
148.5
 13
0.0
 23
0.0
 14
10.0
 24
10.0
 15
10.0
 25
10.0
 16
0.0
 26
0.0
 36
1.0
 17
0.0
 27
0.0
 37
0.0
 40
341.0
 41
1.24
 42
50.0
 43
0.0
 44
0.0
 50
0.0
 51
0.0
 71
     0
 72
   100
 73
     1
 74
     3
 75
     0
 76
     0
 77
     0
 78
     0
  0
ENDTAB
  0
TABLE
  2
LTYPE
  5
5
330
0
100
AcDbSymbolTable
 70
     1
  0
LTYPE
  5
14
330
5
100
AcDbSymbolTableRecord
100
AcDbLinetypeTableRecord
  2
BYBLOCK
 70
     0
  3

 72
    65
 73
     0
 40
0.0
  0
LTYPE
  5
15
330
5
100
AcDbSymbolTableRecord
100
AcDbLinetypeTableRecord
  2
BYLAYER
 70
     0
  3

 72
    65
 73
     0
 40
0.0
  0
LTYPE
  5
16
330
5
100
AcDbSymbolTableRecord
100
AcDbLinetypeTableRecord
  2
CONTINUOUS
 70
     0
  3
Solid line
 72
    65
 73
     0
 40
0.0
  0
ENDTAB
  0
TABLE
  2
LAYER
  5
2
100
AcDbSymbolTable
 70
2
  0
LAYER
  5
50
100
AcDbSymbolTableRecord
100
AcDbLayerTableRecord
  2
0
 70
0
  6
CONTINUOUS
  0
LAYER
  5
51
100
AcDbSymbolTableRecord
100
AcDbLayerTableRecord
  2
Layer_1
 70
0
  6
CONTINUOUS
  0
ENDTAB
  0
TABLE
  2
STYLE
  5
3
330
0
100
AcDbSymbolTable
 70
     1
  0
STYLE
  5
11
330
3
100
AcDbSymbolTableRecord
100
AcDbTextStyleTableRecord
  2
STANDARD
 70
     0
 40
0.0
 41
1.0
 50
0.0
 71
     0
 42
2.5
  3
txt
  4

  0
ENDTAB
  0
TABLE
  2
VIEW
  5
6
330
0
100
AcDbSymbolTable
 70
     0
  0
ENDTAB
  0
TABLE
  2
UCS
  5
7
330
0
100
AcDbSymbolTable
 70
     0
  0
ENDTAB
  0
TABLE
  2
APPID
  5
9
330
0
100
AcDbSymbolTable
 70
     2
  0
APPID
  5
12
330
9
100
AcDbSymbolTableRecord
100
AcDbRegAppTableRecord
  2
ACAD
 70
     0
  0
ENDTAB
  0
TABLE
  2
DIMSTYLE
  5
A
330
0
100
AcDbSymbolTable
 70
     1
  0
DIMSTYLE
105
27
330
A
100
AcDbSymbolTableRecord
100
AcDbDimStyleTableRecord
  2
ISO-25
 70
     0
  3

  4

  5

  6

  7

 40
1.0
 41
2.5
 42
0.625
 43
3.75
 44
1.25
 45
0.0
 46
0.0
 47
0.0
 48
0.0
140
2.5
141
2.5
142
0.0
143
0.03937007874016
144
1.0
145
0.0
146
1.0
147
0.625
 71
     0
 72
     0
 73
     0
 74
     0
 75
     0
 76
     0
 77
     1
 78
     8
170
     0
171
     3
172
     1
173
     0
174
     0
175
     0
176
     0
177
     0
178
     0
270
     2
271
     2
272
     2
273
     2
274
     3
340
11
275
     0
280
     0
281
     0
282
     0
283
     0
284
     8
285
     0
286
     0
287
     3
288
     0
  0
ENDTAB
  0
TABLE
  2
BLOCK_RECORD
  5
1
330
0
100
AcDbSymbolTable
 70
     1
  0
BLOCK_RECORD
  5
1F
330
1
100
AcDbSymbolTableRecord
100
AcDbBlockTableRecord
  2
*MODEL_SPACE
  0
BLOCK_RECORD
  5
1B
330
1
100
AcDbSymbolTableRecord
100
AcDbBlockTableRecord
  2
*PAPER_SPACE
  0
ENDTAB
  0
ENDSEC
  0
SECTION
  2
BLOCKS
  0
BLOCK
  5
20
330
1F
100
AcDbEntity
  8
0
100
AcDbBlockBegin
  2
*MODEL_SPACE
 70
     0
 10
0.0
 20
0.0
 30
0.0
  3
*MODEL_SPACE
  1

  0
ENDBLK
  5
21
330
1F
100
AcDbEntity
  8
0
100
AcDbBlockEnd
  0
BLOCK
  5
1C
330
1B
100
AcDbEntity
 67
     1
  8
0
100
AcDbBlockBegin
  2
*PAPER_SPACE
  1

  0
ENDBLK
  5
1D
330
1B
100
AcDbEntity
 67
     1
  8
0
100
AcDbBlockEnd
  0
ENDSEC
  0
SECTION
  2
ENTITIES
  0
LWPOLYLINE
  5
100
100
AcDbEntity
  8
Layer_1
 62
7
100
AcDbPolyline
 90
6
 70
0
 10
17.314529
 20
331.951557
 30
0.0
 10
16.607419
 20
331.244449
 30
0.0
 10
13.546030
 20
331.244449
 30
0.0
 10
13.546030
 20
391.244445
 30
0.0
 10
16.607419
 20
391.244445
 30
0.0
 10
17.314529
 20
390.537346
 30
0.0
  0
LWPOLYLINE
  5
101
100
AcDbEntity
  8
Layer_1
 62
7
100
AcDbPolyline
 90
2
 70
0
 10
17.314529
 20
381.244445
 30
0.0
 10
17.314529
 20
390.537346
 30
0.0
  0
LWPOLYLINE
  5
102
100
AcDbEntity
  8
Layer_1
 62
7
100
AcDbPolyline
 90
2
 70
0
 10
19.777530
 20
381.244445
 30
0.0
 10
17.314529
 20
381.244445
 30
0.0
  0
LWPOLYLINE
  5
103
100
AcDbEntity
  8
Layer_1
 62
7
100
AcDbPolyline
 90
2
 70
0
 10
19.777530
 20
390.537346
 30
0.0
 10
19.777530
 20
381.244445
 30
0.0
  0
LWPOLYLINE
  5
104
100
AcDbEntity
  8
Layer_1
 62
7
100
AcDbPolyline
 90
2
 70
0
 10
20.484640
 20
391.244445
 30
0.0
 10
19.777530
 20
390.537346
 30
0.0
  0
LWPOLYLINE
  5
105
100
AcDbEntity
  8
Layer_1
 62
7
100
AcDbPolyline
 90
4
 70
0
 10
20.484640
 20
391.244445
 30
0.0
 10
23.546029
 20
391.244445
 30
0.0
 10
23.546029
 20
331.244449
 30
0.0
 10
20.484640
 20
331.244449
 30
0.0
  0
LWPOLYLINE
  5
106
100
AcDbEntity
  8
Layer_1
 62
7
100
AcDbPolyline
 90
2
 70
0
 10
19.777530
 20
331.951557
 30
0.0
 10
20.484640
 20
331.244449
 30
0.0
  0
LWPOLYLINE
  5
107
100
AcDbEntity
  8
Layer_1
 62
7
100
AcDbPolyline
 90
2
 70
0
 10
19.777530
 20
331.951557
 30
0.0
 10
19.777530
 20
341.244458
 30
0.0
  0
LWPOLYLINE
  5
108
100
AcDbEntity
  8
Layer_1
 62
7
100
AcDbPolyline
 90
2
 70
0
 10
17.314529
 20
341.244458
 30
0.0
 10
19.777530
 20
341.244458
 30
0.0
  0
LWPOLYLINE
  5
109
100
AcDbEntity
  8
Layer_1
 62
7
100
AcDbPolyline
 90
2
 70
0
 10
17.314529
 20
331.951557
 30
0.0
 10
17.314529
 20
341.244458
 30
0.0
  0
LWPOLYLINE
  5
10a
100
AcDbEntity
  8
Layer_1
 62
7
100
AcDbPolyline
 90
6
 70
0
 10
17.314529
 20
331.951557
 30
0.0
 10
16.607419
 20
331.244449
 30
0.0
 10
13.546030
 20
331.244449
 30
0.0
 10
13.546030
 20
391.244445
 30
0.0
 10
16.607419
 20
391.244445
 30
0.0
 10
17.314529
 20
390.537346
 30
0.0
  0
LWPOLYLINE
  5
10b
100
AcDbEntity
  8
Layer_1
 62
7
100
AcDbPolyline
 90
2
 70
0
 10
17.314529
 20
381.244445
 30
0.0
 10
17.314529
 20
390.537346
 30
0.0
  0
LWPOLYLINE
  5
10c
100
AcDbEntity
  8
Layer_1
 62
7
100
AcDbPolyline
 90
2
 70
0
 10
19.777530
 20
381.244445
 30
0.0
 10
17.314529
 20
381.244445
 30
0.0
  0
LWPOLYLINE
  5
10d
100
AcDbEntity
  8
Layer_1
 62
7
100
AcDbPolyline
 90
2
 70
0
 10
19.777530
 20
390.537346
 30
0.0
 10
19.777530
 20
381.244445
 30
0.0
  0
LWPOLYLINE
  5
10e
100
AcDbEntity
  8
Layer_1
 62
7
100
AcDbPolyline
 90
2
 70
0
 10
20.484640
 20
391.244445
 30
0.0
 10
19.777530
 20
390.537346
 30
0.0
  0
LWPOLYLINE
  5
10f
100
AcDbEntity
  8
Layer_1
 62
7
100
AcDbPolyline
 90
4
 70
0
 10
20.484640
 20
391.244445
 30
0.0
 10
23.546029
 20
391.244445
 30
0.0
 10
23.546029
 20
331.244449
 30
0.0
 10
20.484640
 20
331.244449
 30
0.0
  0
LWPOLYLINE
  5
110
100
AcDbEntity
  8
Layer_1
 62
7
100
AcDbPolyline
 90
2
 70
0
 10
19.777530
 20
331.951557
 30
0.0
 10
20.484640
 20
331.244449
 30
0.0
  0
LWPOLYLINE
  5
111
100
AcDbEntity
  8
Layer_1
 62
7
100
AcDbPolyline
 90
2
 70
0
 10
19.777530
 20
331.951557
 30
0.0
 10
19.777530
 20
341.244458
 30
0.0
  0
LWPOLYLINE
  5
112
100
AcDbEntity
  8
Layer_1
 62
7
100
AcDbPolyline
 90
2
 70
0
 10
17.314529
 20
341.244458
 30
0.0
 10
19.777530
 20
341.244458
 30
0.0
  0
LWPOLYLINE
  5
113
100
AcDbEntity
  8
Layer_1
 62
7
100
AcDbPolyline
 90
2
 70
0
 10
17.314529
 20
331.951557
 30
0.0
 10
17.314529
 20
341.244458
 30
0.0
  0
LWPOLYLINE
  5
114
100
AcDbEntity
  8
Layer_1
 62
7
100
AcDbPolyline
 90
6
 70
0
 10
177.778002
 20
333.758212
 30
0.0
 10
177.070892
 20
333.051104
 30
0.0
 10
174.009502
 20
333.051104
 30
0.0
 10
174.009502
 20
393.051100
 30
0.0
 10
177.070892
 20
393.051100
 30
0.0
 10
177.778002
 20
392.344001
 30
0.0
  0
LWPOLYLINE
  5
115
100
AcDbEntity
  8
Layer_1
 62
7
100
AcDbPolyline
 90
2
 70
0
 10
177.778002
 20
383.051100
 30
0.0
 10
177.778002
 20
392.344001
 30
0.0
  0
LWPOLYLINE
  5
116
100
AcDbEntity
  8
Layer_1
 62
7
100
AcDbPolyline
 90
2
 70
0
 10
180.241002
 20
383.051100
 30
0.0
 10
177.778002
 20
383.051100
 30
0.0
  0
LWPOLYLINE
  5
117
100
AcDbEntity
  8
Layer_1
 62
7
100
AcDbPolyline
 90
2
 70
0
 10
180.241002
 20
392.344001
 30
0.0
 10
180.241002
 20
383.051100
 30
0.0
  0
LWPOLYLINE
  5
118
100
AcDbEntity
  8
Layer_1
 62
7
100
AcDbPolyline
 90
2
 70
0
 10
180.948112
 20
393.051100
 30
0.0
 10
180.241002
 20
392.344001
 30
0.0
  0
LWPOLYLINE
  5
119
100
AcDbEntity
  8
Layer_1
 62
7
100
AcDbPolyline
 90
4
 70
0
 10
180.948112
 20
393.051100
 30
0.0
 10
184.009502
 20
393.051100
 30
0.0
 10
184.009502
 20
333.051104
 30
0.0
 10
180.948112
 20
333.051104
 30
0.0
  0
LWPOLYLINE
  5
11a
100
AcDbEntity
  8
Layer_1
 62
7
100
AcDbPolyline
 90
2
 70
0
 10
180.241002
 20
333.758212
 30
0.0
 10
180.948112
 20
333.051104
 30
0.0
  0
LWPOLYLINE
  5
11b
100
AcDbEntity
  8
Layer_1
 62
7
100
AcDbPolyline
 90
2
 70
0
 10
180.241002
 20
333.758212
 30
0.0
 10
180.241002
 20
343.051113
 30
0.0
  0
LWPOLYLINE
  5
11c
100
AcDbEntity
  8
Layer_1
 62
7
100
AcDbPolyline
 90
2
 70
0
 10
177.778002
 20
343.051113
 30
0.0
 10
180.241002
 20
343.051113
 30
0.0
  0
LWPOLYLINE
  5
11d
100
AcDbEntity
  8
Layer_1
 62
7
100
AcDbPolyline
 90
2
 70
0
 10
177.778002
 20
333.758212
 30
0.0
 10
177.778002
 20
343.051113
 30
0.0
  0
LWPOLYLINE
  5
11e
100
AcDbEntity
  8
Layer_1
 62
7
100
AcDbPolyline
 90
6
 70
0
 10
160.844672
 20
331.533125
 30
0.0
 10
160.137562
 20
330.826017
 30
0.0
 10
157.076172
 20
330.826017
 30
0.0
 10
157.076172
 20
390.826012
 30
0.0
 10
160.137562
 20
390.826012
 30
0.0
 10
160.844672
 20
390.118913
 30
0.0
  0
LWPOLYLINE
  5
11f
100
AcDbEntity
  8
Layer_1
 62
7
100
AcDbPolyline
 90
2
 70
0
 10
160.844672
 20
380.826013
 30
0.0
 10
160.844672
 20
390.118913
 30
0.0
  0
LWPOLYLINE
  5
120
100
AcDbEntity
  8
Layer_1
 62
7
100
AcDbPolyline
 90
2
 70
0
 10
163.307672
 20
380.826013
 30
0.0
 10
160.844672
 20
380.826013
 30
0.0
  0
LWPOLYLINE
  5
121
100
AcDbEntity
  8
Layer_1
 62
7
100
AcDbPolyline
 90
2
 70
0
 10
163.307672
 20
390.118913
 30
0.0
 10
163.307672
 20
380.826013
 30
0.0
  0
LWPOLYLINE
  5
122
100
AcDbEntity
  8
Layer_1
 62
7
100
AcDbPolyline
 90
2
 70
0
 10
164.014782
 20
390.826012
 30
0.0
 10
163.307672
 20
390.118913
 30
0.0
  0
LWPOLYLINE
  5
123
100
AcDbEntity
  8
Layer_1
 62
7
100
AcDbPolyline
 90
4
 70
0
 10
164.014782
 20
390.826012
 30
0.0
 10
167.076172
 20
390.826012
 30
0.0
 10
167.076172
 20
330.826017
 30
0.0
 10
164.014782
 20
330.826017
 30
0.0
  0
LWPOLYLINE
  5
124
100
AcDbEntity
  8
Layer_1
 62
7
100
AcDbPolyline
 90
2
 70
0
 10
163.307672
 20
331.533125
 30
0.0
 10
164.014782
 20
330.826017
 30
0.0
  0
LWPOLYLINE
  5
125
100
AcDbEntity
  8
Layer_1
 62
7
100
AcDbPolyline
 90
2
 70
0
 10
163.307672
 20
331.533125
 30
0.0
 10
163.307672
 20
340.826025
 30
0.0
  0
LWPOLYLINE
  5
126
100
AcDbEntity
  8
Layer_1
 62
7
100
AcDbPolyline
 90
2
 70
0
 10
160.844672
 20
340.826025
 30
0.0
 10
163.307672
 20
340.826025
 30
0.0
  0
LWPOLYLINE
  5
127
100
AcDbEntity
  8
Layer_1
 62
7
100
AcDbPolyline
 90
2
 70
0
 10
160.844672
 20
331.533125
 30
0.0
 10
160.844672
 20
340.826025
 30
0.0
  0
LWPOLYLINE
  5
128
100
AcDbEntity
  8
Layer_1
 62
7
100
AcDbPolyline
 90
6
 70
0
 10
6.025642
 20
263.187407
 30
0.0
 10
5.318532
 20
262.480299
 30
0.0
 10
2.257142
 20
262.480299
 30
0.0
 10
2.257142
 20
322.480295
 30
0.0
 10
5.318532
 20
322.480295
 30
0.0
 10
6.025642
 20
321.773196
 30
0.0
  0
LWPOLYLINE
  5
129
100
AcDbEntity
  8
Layer_1
 62
7
100
AcDbPolyline
 90
2
 70
0
 10
6.025642
 20
312.480295
 30
0.0
 10
6.025642
 20
321.773196
 30
0.0
  0
LWPOLYLINE
  5
12a
100
AcDbEntity
  8
Layer_1
 62
7
100
AcDbPolyline
 90
2
 70
0
 10
8.488642
 20
312.480295
 30
0.0
 10
6.025642
 20
312.480295
 30
0.0
  0
LWPOLYLINE
  5
12b
100
AcDbEntity
  8
Layer_1
 62
7
100
AcDbPolyline
 90
2
 70
0
 10
8.488642
 20
321.773196
 30
0.0
 10
8.488642
 20
312.480295
 30
0.0
  0
LWPOLYLINE
  5
12c
100
AcDbEntity
  8
Layer_1
 62
7
100
AcDbPolyline
 90
2
 70
0
 10
9.195752
 20
322.480295
 30
0.0
 10
8.488642
 20
321.773196
 30
0.0
  0
LWPOLYLINE
  5
12d
100
AcDbEntity
  8
Layer_1
 62
7
100
AcDbPolyline
 90
4
 70
0
 10
9.195752
 20
322.480295
 30
0.0
 10
12.257142
 20
322.480295
 30
0.0
 10
12.257142
 20
262.480299
 30
0.0
 10
9.195752
 20
262.480299
 30
0.0
  0
LWPOLYLINE
  5
12e
100
AcDbEntity
  8
Layer_1
 62
7
100
AcDbPolyline
 90
2
 70
0
 10
8.488642
 20
263.187407
 30
0.0
 10
9.195752
 20
262.480299
 30
0.0
  0
LWPOLYLINE
  5
12f
100
AcDbEntity
  8
Layer_1
 62
7
100
AcDbPolyline
 90
2
 70
0
 10
8.488642
 20
263.187407
 30
0.0
 10
8.488642
 20
272.480308
 30
0.0
  0
LWPOLYLINE
  5
130
100
AcDbEntity
  8
Layer_1
 62
7
100
AcDbPolyline
 90
2
 70
0
 10
6.025642
 20
272.480308
 30
0.0
 10
8.488642
 20
272.480308
 30
0.0
  0
LWPOLYLINE
  5
131
100
AcDbEntity
  8
Layer_1
 62
7
100
AcDbPolyline
 90
2
 70
0
 10
6.025642
 20
263.187407
 30
0.0
 10
6.025642
 20
272.480308
 30
0.0
  0
LWPOLYLINE
  5
132
100
AcDbEntity
  8
Layer_1
 62
7
100
AcDbPolyline
 90
6
 70
0
 10
53.399923
 20
334.370604
 30
0.0
 10
52.692813
 20
333.663497
 30
0.0
 10
49.631423
 20
333.663497
 30
0.0
 10
49.631423
 20
393.663492
 30
0.0
 10
52.692813
 20
393.663492
 30
0.0
 10
53.399923
 20
392.956393
 30
0.0
  0
LWPOLYLINE
  5
133
100
AcDbEntity
  8
Layer_1
 62
7
100
AcDbPolyline
 90
2
 70
0
 10
53.399923
 20
383.663493
 30
0.0
 10
53.399923
 20
392.956393
 30
0.0
  0
LWPOLYLINE
  5
134
100
AcDbEntity
  8
Layer_1
 62
7
100
AcDbPolyline
 90
2
 70
0
 10
55.862923
 20
383.663493
 30
0.0
 10
53.399923
 20
383.663493
 30
0.0
  0
LWPOLYLINE
  5
135
100
AcDbEntity
  8
Layer_1
 62
7
100
AcDbPolyline
 90
2
 70
0
 10
55.862923
 20
392.956393
 30
0.0
 10
55.862923
 20
383.663493
 30
0.0
  0
LWPOLYLINE
  5
136
100
AcDbEntity
  8
Layer_1
 62
7
100
AcDbPolyline
 90
2
 70
0
 10
56.570033
 20
393.663492
 30
0.0
 10
55.862923
 20
392.956393
 30
0.0
  0
LWPOLYLINE
  5
137
100
AcDbEntity
  8
Layer_1
 62
7
100
AcDbPolyline
 90
4
 70
0
 10
56.570033
 20
393.663492
 30
0.0
 10
59.631423
 20
393.663492
 30
0.0
 10
59.631423
 20
333.663497
 30
0.0
 10
56.570033
 20
333.663497
 30
0.0
  0
LWPOLYLINE
  5
138
100
AcDbEntity
  8
Layer_1
 62
7
100
AcDbPolyline
 90
2
 70
0
 10
55.862923
 20
334.370604
 30
0.0
 10
56.570033
 20
333.663497
 30
0.0
  0
LWPOLYLINE
  5
139
100
AcDbEntity
  8
Layer_1
 62
7
100
AcDbPolyline
 90
2
 70
0
 10
55.862923
 20
334.370604
 30
0.0
 10
55.862923
 20
343.663505
 30
0.0
  0
LWPOLYLINE
  5
13a
100
AcDbEntity
  8
Layer_1
 62
7
100
AcDbPolyline
 90
2
 70
0
 10
53.399923
 20
343.663505
 30
0.0
 10
55.862923
 20
343.663505
 30
0.0
  0
LWPOLYLINE
  5
13b
100
AcDbEntity
  8
Layer_1
 62
7
100
AcDbPolyline
 90
2
 70
0
 10
53.399923
 20
334.370604
 30
0.0
 10
53.399923
 20
343.663505
 30
0.0
  0
LWPOLYLINE
  5
13c
100
AcDbEntity
  8
Layer_1
 62
7
100
AcDbPolyline
 90
6
 70
0
 10
35.660244
 20
331.339165
 30
0.0
 10
34.953134
 20
330.632057
 30
0.0
 10
31.891744
 20
330.632057
 30
0.0
 10
31.891744
 20
390.632053
 30
0.0
 10
34.953134
 20
390.632053
 30
0.0
 10
35.660244
 20
389.924953
 30
0.0
  0
LWPOLYLINE
  5
13d
100
AcDbEntity
  8
Layer_1
 62
7
100
AcDbPolyline
 90
2
 70
0
 10
35.660244
 20
380.632053
 30
0.0
 10
35.660244
 20
389.924953
 30
0.0
  0
LWPOLYLINE
  5
13e
100
AcDbEntity
  8
Layer_1
 62
7
100
AcDbPolyline
 90
2
 70
0
 10
38.123244
 20
380.632053
 30
0.0
 10
35.660244
 20
380.632053
 30
0.0
  0
LWPOLYLINE
  5
13f
100
AcDbEntity
  8
Layer_1
 62
7
100
AcDbPolyline
 90
2
 70
0
 10
38.123244
 20
389.924953
 30
0.0
 10
38.123244
 20
380.632053
 30
0.0
  0
LWPOLYLINE
  5
140
100
AcDbEntity
  8
Layer_1
 62
7
100
AcDbPolyline
 90
2
 70
0
 10
38.830354
 20
390.632053
 30
0.0
 10
38.123244
 20
389.924953
 30
0.0
  0
LWPOLYLINE
  5
141
100
AcDbEntity
  8
Layer_1
 62
7
100
AcDbPolyline
 90
4
 70
0
 10
38.830354
 20
390.632053
 30
0.0
 10
41.891744
 20
390.632053
 30
0.0
 10
41.891744
 20
330.632057
 30
0.0
 10
38.830354
 20
330.632057
 30
0.0
  0
LWPOLYLINE
  5
142
100
AcDbEntity
  8
Layer_1
 62
7
100
AcDbPolyline
 90
2
 70
0
 10
38.123244
 20
331.339165
 30
0.0
 10
38.830354
 20
330.632057
 30
0.0
  0
LWPOLYLINE
  5
143
100
AcDbEntity
  8
Layer_1
 62
7
100
AcDbPolyline
 90
2
 70
0
 10
38.123244
 20
331.339165
 30
0.0
 10
38.123244
 20
340.632065
 30
0.0
  0
LWPOLYLINE
  5
144
100
AcDbEntity
  8
Layer_1
 62
7
100
AcDbPolyline
 90
2
 70
0
 10
35.660244
 20
340.632065
 30
0.0
 10
38.123244
 20
340.632065
 30
0.0
  0
LWPOLYLINE
  5
145
100
AcDbEntity
  8
Layer_1
 62
7
100
AcDbPolyline
 90
2
 70
0
 10
35.660244
 20
331.339165
 30
0.0
 10
35.660244
 20
340.632065
 30
0.0
  0
LWPOLYLINE
  5
146
100
AcDbEntity
  8
Layer_1
 62
7
100
AcDbPolyline
 90
6
 70
0
 10
38.079291
 20
261.380753
 30
0.0
 10
37.372181
 20
260.673645
 30
0.0
 10
34.310791
 20
260.673645
 30
0.0
 10
34.310791
 20
320.673641
 30
0.0
 10
37.372181
 20
320.673641
 30
0.0
 10
38.079291
 20
319.966542
 30
0.0
  0
LWPOLYLINE
  5
147
100
AcDbEntity
  8
Layer_1
 62
7
100
AcDbPolyline
 90
2
 70
0
 10
38.079291
 20
310.673641
 30
0.0
 10
38.079291
 20
319.966542
 30
0.0
  0
LWPOLYLINE
  5
148
100
AcDbEntity
  8
Layer_1
 62
7
100
AcDbPolyline
 90
2
 70
0
 10
40.542291
 20
310.673641
 30
0.0
 10
38.079291
 20
310.673641
 30
0.0
  0
LWPOLYLINE
  5
149
100
AcDbEntity
  8
Layer_1
 62
7
100
AcDbPolyline
 90
2
 70
0
 10
40.542291
 20
319.966542
 30
0.0
 10
40.542291
 20
310.673641
 30
0.0
  0
LWPOLYLINE
  5
14a
100
AcDbEntity
  8
Layer_1
 62
7
100
AcDbPolyline
 90
2
 70
0
 10
41.249401
 20
320.673641
 30
0.0
 10
40.542291
 20
319.966542
 30
0.0
  0
LWPOLYLINE
  5
14b
100
AcDbEntity
  8
Layer_1
 62
7
100
AcDbPolyline
 90
4
 70
0
 10
41.249401
 20
320.673641
 30
0.0
 10
44.310791
 20
320.673641
 30
0.0
 10
44.310791
 20
260.673645
 30
0.0
 10
41.249401
 20
260.673645
 30
0.0
  0
LWPOLYLINE
  5
14c
100
AcDbEntity
  8
Layer_1
 62
7
100
AcDbPolyline
 90
2
 70
0
 10
40.542291
 20
261.380753
 30
0.0
 10
41.249401
 20
260.673645
 30
0.0
  0
LWPOLYLINE
  5
14d
100
AcDbEntity
  8
Layer_1
 62
7
100
AcDbPolyline
 90
2
 70
0
 10
40.542291
 20
261.380753
 30
0.0
 10
40.542291
 20
270.673654
 30
0.0
  0
LWPOLYLINE
  5
14e
100
AcDbEntity
  8
Layer_1
 62
7
100
AcDbPolyline
 90
2
 70
0
 10
38.079291
 20
270.673654
 30
0.0
 10
40.542291
 20
270.673654
 30
0.0
  0
LWPOLYLINE
  5
14f
100
AcDbEntity
  8
Layer_1
 62
7
100
AcDbPolyline
 90
2
 70
0
 10
38.079291
 20
261.380753
 30
0.0
 10
38.079291
 20
270.673654
 30
0.0
  0
LWPOLYLINE
  5
150
100
AcDbEntity
  8
Layer_1
 62
7
100
AcDbPolyline
 90
6
 70
0
 10
21.952309
 20
264.800104
 30
0.0
 10
21.245199
 20
264.092996
 30
0.0
 10
18.183809
 20
264.092996
 30
0.0
 10
18.183809
 20
324.092992
 30
0.0
 10
21.245199
 20
324.092992
 30
0.0
 10
21.952309
 20
323.385893
 30
0.0
  0
LWPOLYLINE
  5
151
100
AcDbEntity
  8
Layer_1
 62
7
100
AcDbPolyline
 90
2
 70
0
 10
21.952309
 20
314.092992
 30
0.0
 10
21.952309
 20
323.385893
 30
0.0
  0
LWPOLYLINE
  5
152
100
AcDbEntity
  8
Layer_1
 62
7
100
AcDbPolyline
 90
2
 70
0
 10
24.415309
 20
314.092992
 30
0.0
 10
21.952309
 20
314.092992
 30
0.0
  0
LWPOLYLINE
  5
153
100
AcDbEntity
  8
Layer_1
 62
7
100
AcDbPolyline
 90
2
 70
0
 10
24.415309
 20
323.385893
 30
0.0
 10
24.415309
 20
314.092992
 30
0.0
  0
LWPOLYLINE
  5
154
100
AcDbEntity
  8
Layer_1
 62
7
100
AcDbPolyline
 90
2
 70
0
 10
25.122419
 20
324.092992
 30
0.0
 10
24.415309
 20
323.385893
 30
0.0
  0
LWPOLYLINE
  5
155
100
AcDbEntity
  8
Layer_1
 62
7
100
AcDbPolyline
 90
4
 70
0
 10
25.122419
 20
324.092992
 30
0.0
 10
28.183809
 20
324.092992
 30
0.0
 10
28.183809
 20
264.092996
 30
0.0
 10
25.122419
 20
264.092996
 30
0.0
  0
LWPOLYLINE
  5
156
100
AcDbEntity
  8
Layer_1
 62
7
100
AcDbPolyline
 90
2
 70
0
 10
24.415309
 20
264.800104
 30
0.0
 10
25.122419
 20
264.092996
 30
0.0
  0
LWPOLYLINE
  5
157
100
AcDbEntity
  8
Layer_1
 62
7
100
AcDbPolyline
 90
2
 70
0
 10
24.415309
 20
264.800104
 30
0.0
 10
24.415309
 20
274.093004
 30
0.0
  0
LWPOLYLINE
  5
158
100
AcDbEntity
  8
Layer_1
 62
7
100
AcDbPolyline
 90
2
 70
0
 10
21.952309
 20
274.093004
 30
0.0
 10
24.415309
 20
274.093004
 30
0.0
  0
LWPOLYLINE
  5
159
100
AcDbEntity
  8
Layer_1
 62
7
100
AcDbPolyline
 90
2
 70
0
 10
21.952309
 20
264.800104
 30
0.0
 10
21.952309
 20
274.093004
 30
0.0
  0
LWPOLYLINE
  5
15a
100
AcDbEntity
  8
Layer_1
 62
7
100
AcDbPolyline
 90
6
 70
0
 10
81.421827
 20
334.370604
 30
0.0
 10
80.714717
 20
333.663497
 30
0.0
 10
77.653327
 20
333.663497
 30
0.0
 10
77.653327
 20
393.663492
 30
0.0
 10
80.714717
 20
393.663492
 30
0.0
 10
81.421827
 20
392.956393
 30
0.0
  0
LWPOLYLINE
  5
15b
100
AcDbEntity
  8
Layer_1
 62
7
100
AcDbPolyline
 90
2
 70
0
 10
81.421827
 20
383.663493
 30
0.0
 10
81.421827
 20
392.956393
 30
0.0
  0
LWPOLYLINE
  5
15c
100
AcDbEntity
  8
Layer_1
 62
7
100
AcDbPolyline
 90
2
 70
0
 10
83.884827
 20
383.663493
 30
0.0
 10
81.421827
 20
383.663493
 30
0.0
  0
LWPOLYLINE
  5
15d
100
AcDbEntity
  8
Layer_1
 62
7
100
AcDbPolyline
 90
2
 70
0
 10
83.884827
 20
392.956393
 30
0.0
 10
83.884827
 20
383.663493
 30
0.0
  0
LWPOLYLINE
  5
15e
100
AcDbEntity
  8
Layer_1
 62
7
100
AcDbPolyline
 90
2
 70
0
 10
84.591937
 20
393.663492
 30
0.0
 10
83.884827
 20
392.956393
 30
0.0
  0
LWPOLYLINE
  5
15f
100
AcDbEntity
  8
Layer_1
 62
7
100
AcDbPolyline
 90
4
 70
0
 10
84.591937
 20
393.663492
 30
0.0
 10
87.653327
 20
393.663492
 30
0.0
 10
87.653327
 20
333.663497
 30
0.0
 10
84.591937
 20
333.663497
 30
0.0
  0
LWPOLYLINE
  5
160
100
AcDbEntity
  8
Layer_1
 62
7
100
AcDbPolyline
 90
2
 70
0
 10
83.884827
 20
334.370604
 30
0.0
 10
84.591937
 20
333.663497
 30
0.0
  0
LWPOLYLINE
  5
161
100
AcDbEntity
  8
Layer_1
 62
7
100
AcDbPolyline
 90
2
 70
0
 10
83.884827
 20
334.370604
 30
0.0
 10
83.884827
 20
343.663505
 30
0.0
  0
LWPOLYLINE
  5
162
100
AcDbEntity
  8
Layer_1
 62
7
100
AcDbPolyline
 90
2
 70
0
 10
81.421827
 20
343.663505
 30
0.0
 10
83.884827
 20
343.663505
 30
0.0
  0
LWPOLYLINE
  5
163
100
AcDbEntity
  8
Layer_1
 62
7
100
AcDbPolyline
 90
2
 70
0
 10
81.421827
 20
334.370604
 30
0.0
 10
81.421827
 20
343.663505
 30
0.0
  0
LWPOLYLINE
  5
164
100
AcDbEntity
  8
Layer_1
 62
7
100
AcDbPolyline
 90
6
 70
0
 10
54.005958
 20
267.234409
 30
0.0
 10
53.298848
 20
266.527301
 30
0.0
 10
50.237459
 20
266.527301
 30
0.0
 10
50.237459
 20
326.527297
 30
0.0
 10
53.298848
 20
326.527297
 30
0.0
 10
54.005958
 20
325.820197
 30
0.0
  0
LWPOLYLINE
  5
165
100
AcDbEntity
  8
Layer_1
 62
7
100
AcDbPolyline
 90
2
 70
0
 10
54.005958
 20
316.527297
 30
0.0
 10
54.005958
 20
325.820197
 30
0.0
  0
LWPOLYLINE
  5
166
100
AcDbEntity
  8
Layer_1
 62
7
100
AcDbPolyline
 90
2
 70
0
 10
56.468959
 20
316.527297
 30
0.0
 10
54.005958
 20
316.527297
 30
0.0
  0
LWPOLYLINE
  5
167
100
AcDbEntity
  8
Layer_1
 62
7
100
AcDbPolyline
 90
2
 70
0
 10
56.468959
 20
325.820197
 30
0.0
 10
56.468959
 20
316.527297
 30
0.0
  0
LWPOLYLINE
  5
168
100
AcDbEntity
  8
Layer_1
 62
7
100
AcDbPolyline
 90
2
 70
0
 10
57.176069
 20
326.527297
 30
0.0
 10
56.468959
 20
325.820197
 30
0.0
  0
LWPOLYLINE
  5
169
100
AcDbEntity
  8
Layer_1
 62
7
100
AcDbPolyline
 90
4
 70
0
 10
57.176069
 20
326.527297
 30
0.0
 10
60.237458
 20
326.527297
 30
0.0
 10
60.237458
 20
266.527301
 30
0.0
 10
57.176069
 20
266.527301
 30
0.0
  0
LWPOLYLINE
  5
16a
100
AcDbEntity
  8
Layer_1
 62
7
100
AcDbPolyline
 90
2
 70
0
 10
56.468959
 20
267.234409
 30
0.0
 10
57.176069
 20
266.527301
 30
0.0
  0
LWPOLYLINE
  5
16b
100
AcDbEntity
  8
Layer_1
 62
7
100
AcDbPolyline
 90
2
 70
0
 10
56.468959
 20
267.234409
 30
0.0
 10
56.468959
 20
276.527309
 30
0.0
  0
LWPOLYLINE
  5
16c
100
AcDbEntity
  8
Layer_1
 62
7
100
AcDbPolyline
 90
2
 70
0
 10
54.005958
 20
276.527309
 30
0.0
 10
56.468959
 20
276.527309
 30
0.0
  0
LWPOLYLINE
  5
16d
100
AcDbEntity
  8
Layer_1
 62
7
100
AcDbPolyline
 90
2
 70
0
 10
54.005958
 20
267.234409
 30
0.0
 10
54.005958
 20
276.527309
 30
0.0
  0
LWPOLYLINE
  5
16e
100
AcDbEntity
  8
Layer_1
 62
7
100
AcDbPolyline
 90
6
 70
0
 10
145.123407
 20
331.533125
 30
0.0
 10
144.416297
 20
330.826017
 30
0.0
 10
141.354907
 20
330.826017
 30
0.0
 10
141.354907
 20
390.826012
 30
0.0
 10
144.416297
 20
390.826012
 30
0.0
 10
145.123407
 20
390.118913
 30
0.0
  0
LWPOLYLINE
  5
16f
100
AcDbEntity
  8
Layer_1
 62
7
100
AcDbPolyline
 90
2
 70
0
 10
145.123407
 20
380.826013
 30
0.0
 10
145.123407
 20
390.118913
 30
0.0
  0
LWPOLYLINE
  5
170
100
AcDbEntity
  8
Layer_1
 62
7
100
AcDbPolyline
 90
2
 70
0
 10
147.586407
 20
380.826013
 30
0.0
 10
145.123407
 20
380.826013
 30
0.0
  0
LWPOLYLINE
  5
171
100
AcDbEntity
  8
Layer_1
 62
7
100
AcDbPolyline
 90
2
 70
0
 10
147.586407
 20
390.118913
 30
0.0
 10
147.586407
 20
380.826013
 30
0.0
  0
LWPOLYLINE
  5
172
100
AcDbEntity
  8
Layer_1
 62
7
100
AcDbPolyline
 90
2
 70
0
 10
148.293517
 20
390.826012
 30
0.0
 10
147.586407
 20
390.118913
 30
0.0
  0
LWPOLYLINE
  5
173
100
AcDbEntity
  8
Layer_1
 62
7
100
AcDbPolyline
 90
4
 70
0
 10
148.293517
 20
390.826012
 30
0.0
 10
151.354907
 20
390.826012
 30
0.0
 10
151.354907
 20
330.826017
 30
0.0
 10
148.293517
 20
330.826017
 30
0.0
  0
LWPOLYLINE
  5
174
100
AcDbEntity
  8
Layer_1
 62
7
100
AcDbPolyline
 90
2
 70
0
 10
147.586407
 20
331.533125
 30
0.0
 10
148.293517
 20
330.826017
 30
0.0
  0
LWPOLYLINE
  5
175
100
AcDbEntity
  8
Layer_1
 62
7
100
AcDbPolyline
 90
2
 70
0
 10
147.586407
 20
331.533125
 30
0.0
 10
147.586407
 20
340.826025
 30
0.0
  0
LWPOLYLINE
  5
176
100
AcDbEntity
  8
Layer_1
 62
7
100
AcDbPolyline
 90
2
 70
0
 10
145.123407
 20
340.826025
 30
0.0
 10
147.586407
 20
340.826025
 30
0.0
  0
LWPOLYLINE
  5
177
100
AcDbEntity
  8
Layer_1
 62
7
100
AcDbPolyline
 90
2
 70
0
 10
145.123407
 20
331.533125
 30
0.0
 10
145.123407
 20
340.826025
 30
0.0
  0
LWPOLYLINE
  5
178
100
AcDbEntity
  8
Layer_1
 62
7
100
AcDbPolyline
 90
6
 70
0
 10
87.872622
 20
265.606455
 30
0.0
 10
87.165512
 20
264.899347
 30
0.0
 10
84.104122
 20
264.899347
 30
0.0
 10
84.104122
 20
324.899343
 30
0.0
 10
87.165512
 20
324.899343
 30
0.0
 10
87.872622
 20
324.192244
 30
0.0
  0
LWPOLYLINE
  5
179
100
AcDbEntity
  8
Layer_1
 62
7
100
AcDbPolyline
 90
2
 70
0
 10
87.872622
 20
314.899343
 30
0.0
 10
87.872622
 20
324.192244
 30
0.0
  0
LWPOLYLINE
  5
17a
100
AcDbEntity
  8
Layer_1
 62
7
100
AcDbPolyline
 90
2
 70
0
 10
90.335622
 20
314.899343
 30
0.0
 10
87.872622
 20
314.899343
 30
0.0
  0
LWPOLYLINE
  5
17b
100
AcDbEntity
  8
Layer_1
 62
7
100
AcDbPolyline
 90
2
 70
0
 10
90.335622
 20
324.192244
 30
0.0
 10
90.335622
 20
314.899343
 30
0.0
  0
LWPOLYLINE
  5
17c
100
AcDbEntity
  8
Layer_1
 62
7
100
AcDbPolyline
 90
2
 70
0
 10
91.042732
 20
324.899343
 30
0.0
 10
90.335622
 20
324.192244
 30
0.0
  0
LWPOLYLINE
  5
17d
100
AcDbEntity
  8
Layer_1
 62
7
100
AcDbPolyline
 90
4
 70
0
 10
91.042732
 20
324.899343
 30
0.0
 10
94.104122
 20
324.899343
 30
0.0
 10
94.104122
 20
264.899347
 30
0.0
 10
91.042732
 20
264.899347
 30
0.0
  0
LWPOLYLINE
  5
17e
100
AcDbEntity
  8
Layer_1
 62
7
100
AcDbPolyline
 90
2
 70
0
 10
90.335622
 20
265.606455
 30
0.0
 10
91.042732
 20
264.899347
 30
0.0
  0
LWPOLYLINE
  5
17f
100
AcDbEntity
  8
Layer_1
 62
7
100
AcDbPolyline
 90
2
 70
0
 10
90.335622
 20
265.606455
 30
0.0
 10
90.335622
 20
274.899356
 30
0.0
  0
LWPOLYLINE
  5
180
100
AcDbEntity
  8
Layer_1
 62
7
100
AcDbPolyline
 90
2
 70
0
 10
87.872622
 20
274.899356
 30
0.0
 10
90.335622
 20
274.899356
 30
0.0
  0
LWPOLYLINE
  5
181
100
AcDbEntity
  8
Layer_1
 62
7
100
AcDbPolyline
 90
2
 70
0
 10
87.872622
 20
265.606455
 30
0.0
 10
87.872622
 20
274.899356
 30
0.0
  0
LWPOLYLINE
  5
182
100
AcDbEntity
  8
Layer_1
 62
7
100
AcDbPolyline
 90
6
 70
0
 10
102.992937
 20
331.951557
 30
0.0
 10
102.285827
 20
331.244449
 30
0.0
 10
99.224438
 20
331.244449
 30
0.0
 10
99.224438
 20
391.244445
 30
0.0
 10
102.285827
 20
391.244445
 30
0.0
 10
102.992937
 20
390.537346
 30
0.0
  0
LWPOLYLINE
  5
183
100
AcDbEntity
  8
Layer_1
 62
7
100
AcDbPolyline
 90
2
 70
0
 10
102.992937
 20
381.244445
 30
0.0
 10
102.992937
 20
390.537346
 30
0.0
  0
LWPOLYLINE
  5
184
100
AcDbEntity
  8
Layer_1
 62
7
100
AcDbPolyline
 90
2
 70
0
 10
105.455938
 20
381.244445
 30
0.0
 10
102.992937
 20
381.244445
 30
0.0
  0
LWPOLYLINE
  5
185
100
AcDbEntity
  8
Layer_1
 62
7
100
AcDbPolyline
 90
2
 70
0
 10
105.455938
 20
390.537346
 30
0.0
 10
105.455938
 20
381.244445
 30
0.0
  0
LWPOLYLINE
  5
186
100
AcDbEntity
  8
Layer_1
 62
7
100
AcDbPolyline
 90
2
 70
0
 10
106.163048
 20
391.244445
 30
0.0
 10
105.455938
 20
390.537346
 30
0.0
  0
LWPOLYLINE
  5
187
100
AcDbEntity
  8
Layer_1
 62
7
100
AcDbPolyline
 90
4
 70
0
 10
106.163048
 20
391.244445
 30
0.0
 10
109.224437
 20
391.244445
 30
0.0
 10
109.224437
 20
331.244449
 30
0.0
 10
106.163048
 20
331.244449
 30
0.0
  0
LWPOLYLINE
  5
188
100
AcDbEntity
  8
Layer_1
 62
7
100
AcDbPolyline
 90
2
 70
0
 10
105.455938
 20
331.951557
 30
0.0
 10
106.163048
 20
331.244449
 30
0.0
  0
LWPOLYLINE
  5
189
100
AcDbEntity
  8
Layer_1
 62
7
100
AcDbPolyline
 90
2
 70
0
 10
105.455938
 20
331.951557
 30
0.0
 10
105.455938
 20
341.244458
 30
0.0
  0
LWPOLYLINE
  5
18a
100
AcDbEntity
  8
Layer_1
 62
7
100
AcDbPolyline
 90
2
 70
0
 10
102.992937
 20
341.244458
 30
0.0
 10
105.455938
 20
341.244458
 30
0.0
  0
LWPOLYLINE
  5
18b
100
AcDbEntity
  8
Layer_1
 62
7
100
AcDbPolyline
 90
2
 70
0
 10
102.992937
 20
331.951557
 30
0.0
 10
102.992937
 20
341.244458
 30
0.0
  0
LWPOLYLINE
  5
18c
100
AcDbEntity
  8
Layer_1
 62
7
100
AcDbPolyline
 90
6
 70
0
 10
69.932622
 20
266.024886
 30
0.0
 10
69.225512
 20
265.317778
 30
0.0
 10
66.164122
 20
265.317778
 30
0.0
 10
66.164122
 20
325.317774
 30
0.0
 10
69.225512
 20
325.317774
 30
0.0
 10
69.932622
 20
324.610675
 30
0.0
  0
LWPOLYLINE
  5
18d
100
AcDbEntity
  8
Layer_1
 62
7
100
AcDbPolyline
 90
2
 70
0
 10
69.932622
 20
315.317774
 30
0.0
 10
69.932622
 20
324.610675
 30
0.0
  0
LWPOLYLINE
  5
18e
100
AcDbEntity
  8
Layer_1
 62
7
100
AcDbPolyline
 90
2
 70
0
 10
72.395622
 20
315.317774
 30
0.0
 10
69.932622
 20
315.317774
 30
0.0
  0
LWPOLYLINE
  5
18f
100
AcDbEntity
  8
Layer_1
 62
7
100
AcDbPolyline
 90
2
 70
0
 10
72.395622
 20
324.610675
 30
0.0
 10
72.395622
 20
315.317774
 30
0.0
  0
LWPOLYLINE
  5
190
100
AcDbEntity
  8
Layer_1
 62
7
100
AcDbPolyline
 90
2
 70
0
 10
73.102732
 20
325.317774
 30
0.0
 10
72.395622
 20
324.610675
 30
0.0
  0
LWPOLYLINE
  5
191
100
AcDbEntity
  8
Layer_1
 62
7
100
AcDbPolyline
 90
4
 70
0
 10
73.102732
 20
325.317774
 30
0.0
 10
76.164122
 20
325.317774
 30
0.0
 10
76.164122
 20
265.317778
 30
0.0
 10
73.102732
 20
265.317778
 30
0.0
  0
LWPOLYLINE
  5
192
100
AcDbEntity
  8
Layer_1
 62
7
100
AcDbPolyline
 90
2
 70
0
 10
72.395622
 20
266.024886
 30
0.0
 10
73.102732
 20
265.317778
 30
0.0
  0
LWPOLYLINE
  5
193
100
AcDbEntity
  8
Layer_1
 62
7
100
AcDbPolyline
 90
2
 70
0
 10
72.395622
 20
266.024886
 30
0.0
 10
72.395622
 20
275.317787
 30
0.0
  0
LWPOLYLINE
  5
194
100
AcDbEntity
  8
Layer_1
 62
7
100
AcDbPolyline
 90
2
 70
0
 10
69.932622
 20
275.317787
 30
0.0
 10
72.395622
 20
275.317787
 30
0.0
  0
LWPOLYLINE
  5
195
100
AcDbEntity
  8
Layer_1
 62
7
100
AcDbPolyline
 90
2
 70
0
 10
69.932622
 20
266.024886
 30
0.0
 10
69.932622
 20
275.317787
 30
0.0
  0
LWPOLYLINE
  5
196
100
AcDbEntity
  8
Layer_1
 62
7
100
AcDbPolyline
 90
6
 70
0
 10
123.151664
 20
329.920426
 30
0.0
 10
122.444554
 20
329.213319
 30
0.0
 10
119.383165
 20
329.213319
 30
0.0
 10
119.383165
 20
389.213314
 30
0.0
 10
122.444554
 20
389.213314
 30
0.0
 10
123.151664
 20
388.506215
 30
0.0
  0
LWPOLYLINE
  5
197
100
AcDbEntity
  8
Layer_1
 62
7
100
AcDbPolyline
 90
2
 70
0
 10
123.151664
 20
379.213314
 30
0.0
 10
123.151664
 20
388.506215
 30
0.0
  0
LWPOLYLINE
  5
198
100
AcDbEntity
  8
Layer_1
 62
7
100
AcDbPolyline
 90
2
 70
0
 10
125.614665
 20
379.213314
 30
0.0
 10
123.151664
 20
379.213314
 30
0.0
  0
LWPOLYLINE
  5
199
100
AcDbEntity
  8
Layer_1
 62
7
100
AcDbPolyline
 90
2
 70
0
 10
125.614665
 20
388.506215
 30
0.0
 10
125.614665
 20
379.213314
 30
0.0
  0
LWPOLYLINE
  5
19a
100
AcDbEntity
  8
Layer_1
 62
7
100
AcDbPolyline
 90
2
 70
0
 10
126.321775
 20
389.213314
 30
0.0
 10
125.614665
 20
388.506215
 30
0.0
  0
LWPOLYLINE
  5
19b
100
AcDbEntity
  8
Layer_1
 62
7
100
AcDbPolyline
 90
4
 70
0
 10
126.321775
 20
389.213314
 30
0.0
 10
129.383164
 20
389.213314
 30
0.0
 10
129.383164
 20
329.213319
 30
0.0
 10
126.321775
 20
329.213319
 30
0.0
  0
LWPOLYLINE
  5
19c
100
AcDbEntity
  8
Layer_1
 62
7
100
AcDbPolyline
 90
2
 70
0
 10
125.614665
 20
329.920426
 30
0.0
 10
126.321775
 20
329.213319
 30
0.0
  0
LWPOLYLINE
  5
19d
100
AcDbEntity
  8
Layer_1
 62
7
100
AcDbPolyline
 90
2
 70
0
 10
125.614665
 20
329.920426
 30
0.0
 10
125.614665
 20
339.213327
 30
0.0
  0
LWPOLYLINE
  5
19e
100
AcDbEntity
  8
Layer_1
 62
7
100
AcDbPolyline
 90
2
 70
0
 10
123.151664
 20
339.213327
 30
0.0
 10
125.614665
 20
339.213327
 30
0.0
  0
LWPOLYLINE
  5
19f
100
AcDbEntity
  8
Layer_1
 62
7
100
AcDbPolyline
 90
2
 70
0
 10
123.151664
 20
329.920426
 30
0.0
 10
123.151664
 20
339.213327
 30
0.0
  0
LWPOLYLINE
  5
1a0
100
AcDbEntity
  8
Layer_1
 62
7
100
AcDbPolyline
 90
6
 70
0
 10
196.529434
 20
331.727081
 30
0.0
 10
195.822324
 20
331.019974
 30
0.0
 10
192.760934
 20
331.019974
 30
0.0
 10
192.760934
 20
391.019969
 30
0.0
 10
195.822324
 20
391.019969
 30
0.0
 10
196.529434
 20
390.312870
 30
0.0
  0
LWPOLYLINE
  5
1a1
100
AcDbEntity
  8
Layer_1
 62
7
100
AcDbPolyline
 90
2
 70
0
 10
196.529434
 20
381.019970
 30
0.0
 10
196.529434
 20
390.312870
 30
0.0
  0
LWPOLYLINE
  5
1a2
100
AcDbEntity
  8
Layer_1
 62
7
100
AcDbPolyline
 90
2
 70
0
 10
198.992434
 20
381.019970
 30
0.0
 10
196.529434
 20
381.019970
 30
0.0
  0
LWPOLYLINE
  5
1a3
100
AcDbEntity
  8
Layer_1
 62
7
100
AcDbPolyline
 90
2
 70
0
 10
198.992434
 20
390.312870
 30
0.0
 10
198.992434
 20
381.019970
 30
0.0
  0
LWPOLYLINE
  5
1a4
100
AcDbEntity
  8
Layer_1
 62
7
100
AcDbPolyline
 90
2
 70
0
 10
199.699544
 20
391.019969
 30
0.0
 10
198.992434
 20
390.312870
 30
0.0
  0
LWPOLYLINE
  5
1a5
100
AcDbEntity
  8
Layer_1
 62
7
100
AcDbPolyline
 90
4
 70
0
 10
199.699544
 20
391.019969
 30
0.0
 10
202.760934
 20
391.019969
 30
0.0
 10
202.760934
 20
331.019974
 30
0.0
 10
199.699544
 20
331.019974
 30
0.0
  0
LWPOLYLINE
  5
1a6
100
AcDbEntity
  8
Layer_1
 62
7
100
AcDbPolyline
 90
2
 70
0
 10
198.992434
 20
331.727081
 30
0.0
 10
199.699544
 20
331.019974
 30
0.0
  0
LWPOLYLINE
  5
1a7
100
AcDbEntity
  8
Layer_1
 62
7
100
AcDbPolyline
 90
2
 70
0
 10
198.992434
 20
331.727081
 30
0.0
 10
198.992434
 20
341.019982
 30
0.0
  0
LWPOLYLINE
  5
1a8
100
AcDbEntity
  8
Layer_1
 62
7
100
AcDbPolyline
 90
2
 70
0
 10
196.529434
 20
341.019982
 30
0.0
 10
198.992434
 20
341.019982
 30
0.0
  0
LWPOLYLINE
  5
1a9
100
AcDbEntity
  8
Layer_1
 62
7
100
AcDbPolyline
 90
2
 70
0
 10
196.529434
 20
331.727081
 30
0.0
 10
196.529434
 20
341.019982
 30
0.0
  0
LWPOLYLINE
  5
1aa
100
AcDbEntity
  8
Layer_1
 62
7
100
AcDbPolyline
 90
5
 70
0
 10
168.908165
 20
274.185212
 30
0.0
 10
168.908165
 20
299.185162
 30
0.0
 10
171.371165
 20
299.185162
 30
0.0
 10
171.371165
 20
274.185212
 30
0.0
 10
168.908165
 20
274.185212
 30
0.0
  0
LWPOLYLINE
  5
1ab
100
AcDbEntity
  8
Layer_1
 62
7
100
AcDbPolyline
 90
5
 70
0
 10
145.170065
 20
300.386328
 30
0.0
 10
155.170065
 20
300.386328
 30
0.0
 10
155.170065
 20
297.923318
 30
0.0
 10
145.170065
 20
297.923318
 30
0.0
 10
145.170065
 20
300.386328
 30
0.0
  0
LWPOLYLINE
  5
1ac
100
AcDbEntity
  8
Layer_1
 62
7
100
AcDbPolyline
 90
5
 70
0
 10
168.908165
 20
324.104823
 30
0.0
 10
171.371165
 20
324.104823
 30
0.0
 10
171.371165
 20
314.104823
 30
0.0
 10
168.908165
 20
314.104823
 30
0.0
 10
168.908165
 20
324.104823
 30
0.0
  0
SPLINE
  5
1ad
100
AcDbEntity
  8
Layer_1
 62
7
100
AcDbSpline
 70
0
 71
3
 72
19
 73
15
 74
13
 40
0.000000
 40
0.000000
 40
0.000000
 40
0.000000
 40
12.867511
 40
25.363492
 40
38.231003
 40
51.098514
 40
63.594495
 40
76.462006
 40
89.329516
 40
101.825497
 40
114.693008
 40
127.560519
 40
140.056500
 40
152.924011
 40
152.924011
 40
152.924011
 40
152.924011
 10
171.371150
 20
274.185184
 30
0.0
 10
175.669933
 20
275.062944
 30
0.0
 10
184.143376
 20
276.793121
 30
0.0
 10
193.171593
 20
286.915101
 30
0.0
 10
196.286779
 20
299.777018
 30
0.0
 10
192.540428
 20
312.601773
 30
0.0
 10
183.024923
 20
321.878551
 30
0.0
 10
170.139665
 20
325.309647
 30
0.0
 10
157.254407
 20
321.878551
 30
0.0
 10
147.738901
 20
312.601773
 30
0.0
 10
143.992550
 20
299.777018
 30
0.0
 10
147.107737
 20
286.915101
 30
0.0
 10
156.135953
 20
276.793121
 30
0.0
 10
164.609397
 20
275.062944
 30
0.0
 10
168.908179
 20
274.185184
 30
0.0
 11
171.371150
 21
274.185184
 31
0.0
 11
183.628202
 21
278.101498
 31
0.0
 11
192.131661
 21
287.257957
 31
0.0
 11
195.132076
 21
299.770764
 31
0.0
 11
191.518930
 21
312.120582
 31
0.0
 11
182.574752
 21
320.847049
 31
0.0
 11
170.139665
 21
324.154834
 31
0.0
 11
157.704578
 21
320.847049
 31
0.0
 11
148.760400
 21
312.120582
 31
0.0
 11
145.147253
 21
299.770764
 31
0.0
 11
148.147669
 21
287.257957
 31
0.0
 11
156.651127
 21
278.101498
 31
0.0
 11
168.908179
 21
274.185184
 31
0.0
  0
LWPOLYLINE
  5
1ae
100
AcDbEntity
  8
Layer_1
 62
7
100
AcDbPolyline
 90
5
 70
0
 10
185.089665
 20
300.386328
 30
0.0
 10
195.089665
 20
300.386328
 30
0.0
 10
195.089665
 20
297.923318
 30
0.0
 10
185.089665
 20
297.923318
 30
0.0
 10
185.089665
 20
300.386328
 30
0.0
  0
LWPOLYLINE
  5
1af
100
AcDbEntity
  8
Layer_1
 62
7
100
AcDbPolyline
 90
5
 70
0
 10
243.092282
 20
340.305837
 30
0.0
 10
243.092282
 20
365.305787
 30
0.0
 10
245.555283
 20
365.305787
 30
0.0
 10
245.555283
 20
340.305837
 30
0.0
 10
243.092282
 20
340.305837
 30
0.0
  0
LWPOLYLINE
  5
1b0
100
AcDbEntity
  8
Layer_1
 62
7
100
AcDbPolyline
 90
5
 70
0
 10
219.354182
 20
366.506953
 30
0.0
 10
229.354182
 20
366.506953
 30
0.0
 10
229.354182
 20
364.043943
 30
0.0
 10
219.354182
 20
364.043943
 30
0.0
 10
219.354182
 20
366.506953
 30
0.0
  0
LWPOLYLINE
  5
1b1
100
AcDbEntity
  8
Layer_1
 62
7
100
AcDbPolyline
 90
5
 70
0
 10
243.092282
 20
390.225448
 30
0.0
 10
245.555283
 20
390.225448
 30
0.0
 10
245.555283
 20
380.225448
 30
0.0
 10
243.092282
 20
380.225448
 30
0.0
 10
243.092282
 20
390.225448
 30
0.0
  0
SPLINE
  5
1b2
100
AcDbEntity
  8
Layer_1
 62
7
100
AcDbSpline
 70
0
 71
3
 72
19
 73
15
 74
13
 40
0.000000
 40
0.000000
 40
0.000000
 40
0.000000
 40
12.867511
 40
25.363492
 40
38.231003
 40
51.098514
 40
63.594495
 40
76.462006
 40
89.329516
 40
101.825497
 40
114.693008
 40
127.560519
 40
140.056500
 40
152.924011
 40
152.924011
 40
152.924011
 40
152.924011
 10
245.555268
 20
340.305809
 30
0.0
 10
249.854050
 20
341.183569
 30
0.0
 10
258.327494
 20
342.913746
 30
0.0
 10
267.355711
 20
353.035726
 30
0.0
 10
270.470897
 20
365.897643
 30
0.0
 10
266.724546
 20
378.722398
 30
0.0
 10
257.209041
 20
387.999177
 30
0.0
 10
244.323783
 20
391.430272
 30
0.0
 10
231.438524
 20
387.999177
 30
0.0
 10
221.923019
 20
378.722398
 30
0.0
 10
218.176668
 20
365.897643
 30
0.0
 10
221.291855
 20
353.035726
 30
0.0
 10
230.320071
 20
342.913746
 30
0.0
 10
238.793515
 20
341.183569
 30
0.0
 10
243.092297
 20
340.305809
 30
0.0
 11
245.555268
 21
340.305809
 31
0.0
 11
257.812320
 21
344.222124
 31
0.0
 11
266.315779
 21
353.378582
 31
0.0
 11
269.316194
 21
365.891389
 31
0.0
 11
265.703047
 21
378.241207
 31
0.0
 11
256.758870
 21
386.967674
 31
0.0
 11
244.323783
 21
390.275459
 31
0.0
 11
231.888695
 21
386.967674
 31
0.0
 11
222.944518
 21
378.241207
 31
0.0
 11
219.331371
 21
365.891389
 31
0.0
 11
222.331786
 21
353.378582
 31
0.0
 11
230.835245
 21
344.222124
 31
0.0
 11
243.092297
 21
340.305809
 31
0.0
  0
LWPOLYLINE
  5
1b3
100
AcDbEntity
  8
Layer_1
 62
7
100
AcDbPolyline
 90
5
 70
0
 10
259.273783
 20
366.506953
 30
0.0
 10
269.273783
 20
366.506953
 30
0.0
 10
269.273783
 20
364.043943
 30
0.0
 10
259.273783
 20
364.043943
 30
0.0
 10
259.273783
 20
366.506953
 30
0.0
  0
LWPOLYLINE
  5
1b4
100
AcDbEntity
  8
Layer_1
 62
7
100
AcDbPolyline
 90
5
 70
0
 10
233.416093
 20
277.987690
 30
0.0
 10
233.416093
 20
302.987640
 30
0.0
 10
235.879093
 20
302.987640
 30
0.0
 10
235.879093
 20
277.987690
 30
0.0
 10
233.416093
 20
277.987690
 30
0.0
  0
LWPOLYLINE
  5
1b5
100
AcDbEntity
  8
Layer_1
 62
7
100
AcDbPolyline
 90
5
 70
0
 10
209.677993
 20
304.188806
 30
0.0
 10
219.677993
 20
304.188806
 30
0.0
 10
219.677993
 20
301.725796
 30
0.0
 10
209.677993
 20
301.725796
 30
0.0
 10
209.677993
 20
304.188806
 30
0.0
  0
LWPOLYLINE
  5
1b6
100
AcDbEntity
  8
Layer_1
 62
7
100
AcDbPolyline
 90
5
 70
0
 10
233.416093
 20
327.907301
 30
0.0
 10
235.879093
 20
327.907301
 30
0.0
 10
235.879093
 20
317.907301
 30
0.0
 10
233.416093
 20
317.907301
 30
0.0
 10
233.416093
 20
327.907301
 30
0.0
  0
SPLINE
  5
1b7
100
AcDbEntity
  8
Layer_1
 62
7
100
AcDbSpline
 70
0
 71
3
 72
19
 73
15
 74
13
 40
0.000000
 40
0.000000
 40
0.000000
 40
0.000000
 40
12.867511
 40
25.363492
 40
38.231003
 40
51.098514
 40
63.594495
 40
76.462006
 40
89.329516
 40
101.825497
 40
114.693008
 40
127.560519
 40
140.056500
 40
152.924011
 40
152.924011
 40
152.924011
 40
152.924011
 10
235.879079
 20
277.987662
 30
0.0
 10
240.177861
 20
278.865422
 30
0.0
 10
248.651305
 20
280.595599
 30
0.0
 10
257.679521
 20
290.717579
 30
0.0
 10
260.794708
 20
303.579496
 30
0.0
 10
257.048357
 20
316.404251
 30
0.0
 10
247.532851
 20
325.681030
 30
0.0
 10
234.647593
 20
329.112125
 30
0.0
 10
221.762335
 20
325.681030
 30
0.0
 10
212.246830
 20
316.404251
 30
0.0
 10
208.500479
 20
303.579496
 30
0.0
 10
211.615665
 20
290.717579
 30
0.0
 10
220.643882
 20
280.595599
 30
0.0
 10
229.117325
 20
278.865422
 30
0.0
 10
233.416108
 20
277.987662
 30
0.0
 11
235.879079
 21
277.987662
 31
0.0
 11
248.136131
 21
281.903977
 31
0.0
 11
256.639589
 21
291.060435
 31
0.0
 11
259.640005
 21
303.573242
 31
0.0
 11
256.026858
 21
315.923060
 31
0.0
 11
247.082680
 21
324.649527
 31
0.0
 11
234.647593
 21
327.957312
 31
0.0
 11
222.212506
 21
324.649527
 31
0.0
 11
213.268328
 21
315.923060
 31
0.0
 11
209.655182
 21
303.573242
 31
0.0
 11
212.655597
 21
291.060435
 31
0.0
 11
221.159056
 21
281.903977
 31
0.0
 11
233.416108
 21
277.987662
 31
0.0
  0
LWPOLYLINE
  5
1b8
100
AcDbEntity
  8
Layer_1
 62
7
100
AcDbPolyline
 90
5
 70
0
 10
249.597593
 20
304.188806
 30
0.0
 10
259.597593
 20
304.188806
 30
0.0
 10
259.597593
 20
301.725796
 30
0.0
 10
249.597593
 20
301.725796
 30
0.0
 10
249.597593
 20
304.188806
 30
0.0
  0
LWPOLYLINE
  5
1b9
100
AcDbEntity
  8
Layer_1
 62
7
100
AcDbPolyline
 90
5
 70
0
 10
308.694223
 20
341.918537
 30
0.0
 10
308.694223
 20
366.918487
 30
0.0
 10
311.157223
 20
366.918487
 30
0.0
 10
311.157223
 20
341.918537
 30
0.0
 10
308.694223
 20
341.918537
 30
0.0
  0
LWPOLYLINE
  5
1ba
100
AcDbEntity
  8
Layer_1
 62
7
100
AcDbPolyline
 90
5
 70
0
 10
284.956123
 20
368.119653
 30
0.0
 10
294.956123
 20
368.119653
 30
0.0
 10
294.956123
 20
365.656643
 30
0.0
 10
284.956123
 20
365.656643
 30
0.0
 10
284.956123
 20
368.119653
 30
0.0
  0
LWPOLYLINE
  5
1bb
100
AcDbEntity
  8
Layer_1
 62
7
100
AcDbPolyline
 90
5
 70
0
 10
308.694223
 20
391.838147
 30
0.0
 10
311.157223
 20
391.838147
 30
0.0
 10
311.157223
 20
381.838148
 30
0.0
 10
308.694223
 20
381.838148
 30
0.0
 10
308.694223
 20
391.838147
 30
0.0
  0
SPLINE
  5
1bc
100
AcDbEntity
  8
Layer_1
 62
7
100
AcDbSpline
 70
0
 71
3
 72
19
 73
15
 74
13
 40
0.000000
 40
0.000000
 40
0.000000
 40
0.000000
 40
12.867511
 40
25.363492
 40
38.231003
 40
51.098514
 40
63.594495
 40
76.462006
 40
89.329516
 40
101.825497
 40
114.693008
 40
127.560519
 40
140.056500
 40
152.924011
 40
152.924011
 40
152.924011
 40
152.924011
 10
311.157209
 20
341.918509
 30
0.0
 10
315.455991
 20
342.796269
 30
0.0
 10
323.929434
 20
344.526446
 30
0.0
 10
332.957651
 20
354.648426
 30
0.0
 10
336.072837
 20
367.510343
 30
0.0
 10
332.326486
 20
380.335098
 30
0.0
 10
322.810981
 20
389.611876
 30
0.0
 10
309.925723
 20
393.042972
 30
0.0
 10
297.040465
 20
389.611876
 30
0.0
 10
287.524959
 20
380.335098
 30
0.0
 10
283.778608
 20
367.510343
 30
0.0
 10
286.893795
 20
354.648426
 30
0.0
 10
295.922011
 20
344.526446
 30
0.0
 10
304.395455
 20
342.796269
 30
0.0
 10
308.694237
 20
341.918509
 30
0.0
 11
311.157209
 21
341.918509
 31
0.0
 11
323.414260
 21
345.834823
 31
0.0
 11
331.917719
 21
354.991282
 31
0.0
 11
334.918134
 21
367.504089
 31
0.0
 11
331.304988
 21
379.853907
 31
0.0
 11
322.360810
 21
388.580374
 31
0.0
 11
309.925723
 21
391.888159
 31
0.0
 11
297.490636
 21
388.580374
 31
0.0
 11
288.546458
 21
379.853907
 31
0.0
 11
284.933311
 21
367.504089
 31
0.0
 11
287.933727
 21
354.991282
 31
0.0
 11
296.437185
 21
345.834823
 31
0.0
 11
308.694237
 21
341.918509
 31
0.0
  0
LWPOLYLINE
  5
1bd
100
AcDbEntity
  8
Layer_1
 62
7
100
AcDbPolyline
 90
5
 70
0
 10
324.875723
 20
368.119653
 30
0.0
 10
334.875723
 20
368.119653
 30
0.0
 10
334.875723
 20
365.656643
 30
0.0
 10
324.875723
 20
365.656643
 30
0.0
 10
324.875723
 20
368.119653
 30
0.0
  0
LWPOLYLINE
  5
1be
100
AcDbEntity
  8
Layer_1
 62
7
100
AcDbPolyline
 90
5
 70
0
 10
294.179940
 20
278.794039
 30
0.0
 10
294.179940
 20
303.793989
 30
0.0
 10
296.642940
 20
303.793989
 30
0.0
 10
296.642940
 20
278.794039
 30
0.0
 10
294.179940
 20
278.794039
 30
0.0
  0
LWPOLYLINE
  5
1bf
100
AcDbEntity
  8
Layer_1
 62
7
100
AcDbPolyline
 90
5
 70
0
 10
270.441840
 20
304.995155
 30
0.0
 10
280.441840
 20
304.995155
 30
0.0
 10
280.441840
 20
302.532146
 30
0.0
 10
270.441840
 20
302.532146
 30
0.0
 10
270.441840
 20
304.995155
 30
0.0
  0
LWPOLYLINE
  5
1c0
100
AcDbEntity
  8
Layer_1
 62
7
100
AcDbPolyline
 90
5
 70
0
 10
294.179940
 20
328.713650
 30
0.0
 10
296.642940
 20
328.713650
 30
0.0
 10
296.642940
 20
318.713650
 30
0.0
 10
294.179940
 20
318.713650
 30
0.0
 10
294.179940
 20
328.713650
 30
0.0
  0
SPLINE
  5
1c1
100
AcDbEntity
  8
Layer_1
 62
7
100
AcDbSpline
 70
0
 71
3
 72
19
 73
15
 74
13
 40
0.000000
 40
0.000000
 40
0.000000
 40
0.000000
 40
12.867511
 40
25.363492
 40
38.231003
 40
51.098514
 40
63.594495
 40
76.462006
 40
89.329516
 40
101.825497
 40
114.693008
 40
127.560519
 40
140.056500
 40
152.924011
 40
152.924011
 40
152.924011
 40
152.924011
 10
296.642926
 20
278.794011
 30
0.0
 10
300.941708
 20
279.671772
 30
0.0
 10
309.415152
 20
281.401948
 30
0.0
 10
318.443368
 20
291.523929
 30
0.0
 10
321.558555
 20
304.385845
 30
0.0
 10
317.812204
 20
317.210600
 30
0.0
 10
308.296698
 20
326.487379
 30
0.0
 10
295.411440
 20
329.918475
 30
0.0
 10
282.526182
 20
326.487379
 30
0.0
 10
273.010677
 20
317.210600
 30
0.0
 10
269.264326
 20
304.385845
 30
0.0
 10
272.379512
 20
291.523929
 30
0.0
 10
281.407729
 20
281.401948
 30
0.0
 10
289.881172
 20
279.671772
 30
0.0
 10
294.179955
 20
278.794011
 30
0.0
 11
296.642926
 21
278.794011
 31
0.0
 11
308.899978
 21
282.710326
 31
0.0
 11
317.403437
 21
291.866784
 31
0.0
 11
320.403852
 21
304.379591
 31
0.0
 11
316.790705
 21
316.729410
 31
0.0
 11
307.846528
 21
325.455877
 31
0.0
 11
295.411440
 21
328.763662
 31
0.0
 11
282.976353
 21
325.455877
 31
0.0
 11
274.032175
 21
316.729410
 31
0.0
 11
270.419029
 21
304.379591
 31
0.0
 11
273.419444
 21
291.866784
 31
0.0
 11
281.922903
 21
282.710326
 31
0.0
 11
294.179955
 21
278.794011
 31
0.0
  0
LWPOLYLINE
  5
1c2
100
AcDbEntity
  8
Layer_1
 62
7
100
AcDbPolyline
 90
5
 70
0
 10
310.361440
 20
304.995155
 30
0.0
 10
320.361440
 20
304.995155
 30
0.0
 10
320.361440
 20
302.532146
 30
0.0
 10
310.361440
 20
302.532146
 30
0.0
 10
310.361440
 20
304.995155
 30
0.0
  0
LWPOLYLINE
  5
1c3
100
AcDbEntity
  8
Layer_1
 62
7
100
AcDbPolyline
 90
5
 70
0
 10
366.232673
 20
338.693140
 30
0.0
 10
366.232673
 20
363.693090
 30
0.0
 10
368.695674
 20
363.693090
 30
0.0
 10
368.695674
 20
338.693140
 30
0.0
 10
366.232673
 20
338.693140
 30
0.0
  0
LWPOLYLINE
  5
1c4
100
AcDbEntity
  8
Layer_1
 62
7
100
AcDbPolyline
 90
5
 70
0
 10
342.494573
 20
364.894256
 30
0.0
 10
352.494573
 20
364.894256
 30
0.0
 10
352.494573
 20
362.431247
 30
0.0
 10
342.494573
 20
362.431247
 30
0.0
 10
342.494573
 20
364.894256
 30
0.0
  0
LWPOLYLINE
  5
1c5
100
AcDbEntity
  8
Layer_1
 62
7
100
AcDbPolyline
 90
5
 70
0
 10
366.232673
 20
388.612751
 30
0.0
 10
368.695674
 20
388.612751
 30
0.0
 10
368.695674
 20
378.612751
 30
0.0
 10
366.232673
 20
378.612751
 30
0.0
 10
366.232673
 20
388.612751
 30
0.0
  0
SPLINE
  5
1c6
100
AcDbEntity
  8
Layer_1
 62
7
100
AcDbSpline
 70
0
 71
3
 72
19
 73
15
 74
13
 40
0.000000
 40
0.000000
 40
0.000000
 40
0.000000
 40
12.867511
 40
25.363492
 40
38.231003
 40
51.098514
 40
63.594495
 40
76.462006
 40
89.329516
 40
101.825497
 40
114.693008
 40
127.560519
 40
140.056500
 40
152.924011
 40
152.924011
 40
152.924011
 40
152.924011
 10
368.695659
 20
338.693112
 30
0.0
 10
372.994441
 20
339.570872
 30
0.0
 10
381.467885
 20
341.301049
 30
0.0
 10
390.496101
 20
351.423030
 30
0.0
 10
393.611288
 20
364.284946
 30
0.0
 10
389.864937
 20
377.109701
 30
0.0
 10
380.349432
 20
386.386480
 30
0.0
 10
367.464173
 20
389.817576
 30
0.0
 10
354.578915
 20
386.386480
 30
0.0
 10
345.063410
 20
377.109701
 30
0.0
 10
341.317059
 20
364.284946
 30
0.0
 10
344.432245
 20
351.423030
 30
0.0
 10
353.460462
 20
341.301049
 30
0.0
 10
361.933906
 20
339.570872
 30
0.0
 10
366.232688
 20
338.693112
 30
0.0
 11
368.695659
 21
338.693112
 31
0.0
 11
380.952711
 21
342.609427
 31
0.0
 11
389.456170
 21
351.765885
 31
0.0
 11
392.456585
 21
364.278692
 31
0.0
 11
388.843438
 21
376.628511
 31
0.0
 11
379.899261
 21
385.354978
 31
0.0
 11
367.464173
 21
388.662763
 31
0.0
 11
355.029086
 21
385.354978
 31
0.0
 11
346.084909
 21
376.628511
 31
0.0
 11
342.471762
 21
364.278692
 31
0.0
 11
345.472177
 21
351.765885
 31
0.0
 11
353.975636
 21
342.609427
 31
0.0
 11
366.232688
 21
338.693112
 31
0.0
  0
LWPOLYLINE
  5
1c7
100
AcDbEntity
  8
Layer_1
 62
7
100
AcDbPolyline
 90
5
 70
0
 10
382.414174
 20
364.894256
 30
0.0
 10
392.414174
 20
364.894256
 30
0.0
 10
392.414174
 20
362.431247
 30
0.0
 10
382.414174
 20
362.431247
 30
0.0
 10
382.414174
 20
364.894256
 30
0.0
  0
LWPOLYLINE
  5
1c8
100
AcDbEntity
  8
Layer_1
 62
7
100
AcDbPolyline
 90
5
 70
0
 10
354.943785
 20
281.213087
 30
0.0
 10
354.943785
 20
306.213037
 30
0.0
 10
357.406785
 20
306.213037
 30
0.0
 10
357.406785
 20
281.213087
 30
0.0
 10
354.943785
 20
281.213087
 30
0.0
  0
LWPOLYLINE
  5
1c9
100
AcDbEntity
  8
Layer_1
 62
7
100
AcDbPolyline
 90
5
 70
0
 10
331.205684
 20
307.414203
 30
0.0
 10
341.205685
 20
307.414203
 30
0.0
 10
341.205685
 20
304.951193
 30
0.0
 10
331.205684
 20
304.951193
 30
0.0
 10
331.205684
 20
307.414203
 30
0.0
  0
LWPOLYLINE
  5
1ca
100
AcDbEntity
  8
Layer_1
 62
7
100
AcDbPolyline
 90
5
 70
0
 10
354.943785
 20
331.132697
 30
0.0
 10
357.406785
 20
331.132697
 30
0.0
 10
357.406785
 20
321.132697
 30
0.0
 10
354.943785
 20
321.132697
 30
0.0
 10
354.943785
 20
331.132697
 30
0.0
  0
SPLINE
  5
1cb
100
AcDbEntity
  8
Layer_1
 62
7
100
AcDbSpline
 70
0
 71
3
 72
19
 73
15
 74
13
 40
0.000000
 40
0.000000
 40
0.000000
 40
0.000000
 40
12.867511
 40
25.363492
 40
38.231003
 40
51.098514
 40
63.594495
 40
76.462006
 40
89.329516
 40
101.825497
 40
114.693008
 40
127.560519
 40
140.056500
 40
152.924011
 40
152.924011
 40
152.924011
 40
152.924011
 10
357.406770
 20
281.213058
 30
0.0
 10
361.705552
 20
282.090819
 30
0.0
 10
370.178996
 20
283.820995
 30
0.0
 10
379.207213
 20
293.942976
 30
0.0
 10
382.322399
 20
306.804892
 30
0.0
 10
378.576048
 20
319.629648
 30
0.0
 10
369.060543
 20
328.906426
 30
0.0
 10
356.175285
 20
332.337522
 30
0.0
 10
343.290026
 20
328.906426
 30
0.0
 10
333.774521
 20
319.629648
 30
0.0
 10
330.028170
 20
306.804892
 30
0.0
 10
333.143357
 20
293.942976
 30
0.0
 10
342.171573
 20
283.820995
 30
0.0
 10
350.645017
 20
282.090819
 30
0.0
 10
354.943799
 20
281.213058
 30
0.0
 11
357.406770
 21
281.213058
 31
0.0
 11
369.663822
 21
285.129373
 31
0.0
 11
378.167281
 21
294.285831
 31
0.0
 11
381.167696
 21
306.798639
 31
0.0
 11
377.554550
 21
319.148457
 31
0.0
 11
368.610372
 21
327.874924
 31
0.0
 11
356.175285
 21
331.182709
 31
0.0
 11
343.740197
 21
327.874924
 31
0.0
 11
334.796020
 21
319.148457
 31
0.0
 11
331.182873
 21
306.798639
 31
0.0
 11
334.183288
 21
294.285831
 31
0.0
 11
342.686747
 21
285.129373
 31
0.0
 11
354.943799
 21
281.213058
 31
0.0
  0
LWPOLYLINE
  5
1cc
100
AcDbEntity
  8
Layer_1
 62
7
100
AcDbPolyline
 90
5
 70
0
 10
371.125285
 20
307.414203
 30
0.0
 10
381.125285
 20
307.414203
 30
0.0
 10
381.125285
 20
304.951193
 30
0.0
 10
371.125285
 20
304.951193
 30
0.0
 10
371.125285
 20
307.414203
 30
0.0
  0
SPLINE
  5
1cd
100
AcDbEntity
  8
Layer_1
 62
7
100
AcDbSpline
 70
0
 71
3
 72
25
 73
21
 74
19
 40
0.000000
 40
0.000000
 40
0.000000
 40
0.000000
 40
22.682667
 40
45.040710
 40
67.723378
 40
90.406045
 40
112.764088
 40
135.446756
 40
158.129423
 40
180.487466
 40
203.170133
 40
225.852801
 40
248.210844
 40
270.893511
 40
293.576178
 40
315.934221
 40
338.616889
 40
361.299556
 40
383.657599
 40
406.340267
 40
406.340267
 40
406.340267
 40
406.340267
 10
220.625388
 20
190.217804
 30
0.0
 10
219.848771
 20
197.817256
 30
0.0
 10
218.306651
 20
212.907399
 30
0.0
 10
206.342316
 20
232.849255
 30
0.0
 10
188.824506
 20
247.675501
 30
0.0
 10
167.131997
 20
255.538849
 30
0.0
 10
144.113800
 20
255.538849
 30
0.0
 10
122.451673
 20
247.675501
 30
0.0
 10
104.812554
 20
232.849255
 30
0.0
 10
93.298948
 20
212.907399
 30
0.0
 10
89.278973
 20
190.217804
 30
0.0
 10
93.298948
 20
167.528210
 30
0.0
 10
104.812554
 20
147.586354
 30
0.0
 10
122.451673
 20
132.760107
 30
0.0
 10
144.113800
 20
124.896760
 30
0.0
 10
167.131997
 20
124.896760
 30
0.0
 10
188.824506
 20
132.760107
 30
0.0
 10
206.342316
 20
147.586354
 30
0.0
 10
218.306651
 20
167.528210
 30
0.0
 10
219.848771
 20
182.618353
 30
0.0
 10
220.625388
 20
190.217804
 30
0.0
 11
220.625388
 21
190.217804
 31
0.0
 11
216.668589
 21
212.552691
 31
0.0
 11
205.489567
 21
231.915324
 31
0.0
 11
188.125388
 21
246.509456
 31
0.0
 11
166.804409
 21
254.250210
 31
0.0
 11
144.446367
 21
254.250210
 31
0.0
 11
123.125388
 21
246.509456
 31
0.0
 11
105.761209
 21
231.915324
 31
0.0
 11
94.582187
 21
212.552691
 31
0.0
 11
90.625388
 21
190.217804
 31
0.0
 11
94.582187
 21
167.882918
 31
0.0
 11
105.761209
 21
148.520285
 31
0.0
 11
123.125388
 21
133.926153
 31
0.0
 11
144.446367
 21
126.185399
 31
0.0
 11
166.804409
 21
126.185399
 31
0.0
 11
188.125388
 21
133.926153
 31
0.0
 11
205.489567
 21
148.520285
 31
0.0
 11
216.668589
 21
167.882918
 31
0.0
 11
220.625388
 21
190.217804
 31
0.0
  0
LWPOLYLINE
  5
1ce
100
AcDbEntity
  8
Layer_1
 62
7
100
AcDbPolyline
 90
2
 70
1
 10
220.625388
 20
190.217804
 30
0.0
 10
220.625388
 20
190.217804
 30
0.0
  0
LWPOLYLINE
  5
1cf
100
AcDbEntity
  8
Layer_1
 62
7
100
AcDbPolyline
 90
2
 70
1
 10
200.625388
 20
190.217804
 30
0.0
 10
200.625388
 20
190.217804
 30
0.0
  0
LWPOLYLINE
  5
1d0
100
AcDbEntity
  8
Layer_1
 62
7
100
AcDbPolyline
 90
5
 70
0
 10
110.725387
 20
191.449309
 30
0.0
 10
100.725388
 20
191.449309
 30
0.0
 10
100.725388
 20
188.986300
 30
0.0
 10
110.725387
 20
188.986300
 30
0.0
 10
110.725387
 20
191.449309
 30
0.0
  0
LWPOLYLINE
  5
1d1
100
AcDbEntity
  8
Layer_1
 62
7
100
AcDbPolyline
 90
5
 70
0
 10
154.393888
 20
245.117802
 30
0.0
 10
156.856888
 20
245.117802
 30
0.0
 10
156.856888
 20
235.117802
 30
0.0
 10
154.393888
 20
235.117802
 30
0.0
 10
154.393888
 20
245.117802
 30
0.0
  0
SPLINE
  5
1d2
100
AcDbEntity
  8
Layer_1
 62
7
100
AcDbSpline
 70
0
 71
3
 72
25
 73
21
 74
19
 40
0.000000
 40
0.000000
 40
0.000000
 40
0.000000
 40
15.703385
 40
31.182031
 40
46.885416
 40
62.588801
 40
78.067446
 40
93.770832
 40
109.474217
 40
124.952862
 40
140.656247
 40
156.359633
 40
171.838278
 40
187.541663
 40
203.245049
 40
218.723694
 40
234.427079
 40
250.130464
 40
265.609110
 40
281.312495
 40
281.312495
 40
281.312495
 40
281.312495
 10
200.625388
 20
190.217804
 30
0.0
 10
200.087730
 20
195.478963
 30
0.0
 10
199.020109
 20
205.925985
 30
0.0
 10
190.737108
 20
219.731886
 30
0.0
 10
178.609393
 20
229.996210
 30
0.0
 10
163.591502
 20
235.440066
 30
0.0
 10
147.655827
 20
235.440066
 30
0.0
 10
132.658969
 20
229.996210
 30
0.0
 10
120.447272
 20
219.731886
 30
0.0
 10
112.476314
 20
205.925985
 30
0.0
 10
109.693254
 20
190.217804
 30
0.0
 10
112.476314
 20
174.509624
 30
0.0
 10
120.447272
 20
160.703723
 30
0.0
 10
132.658969
 20
150.439398
 30
0.0
 10
147.655827
 20
144.995543
 30
0.0
 10
163.591502
 20
144.995543
 30
0.0
 10
178.609393
 20
150.439398
 30
0.0
 10
190.737108
 20
160.703723
 30
0.0
 10
199.020109
 20
174.509624
 30
0.0
 10
200.087730
 20
184.956646
 30
0.0
 10
200.625388
 20
190.217804
 30
0.0
 11
200.625388
 21
190.217804
 31
0.0
 11
197.886066
 21
205.680418
 31
0.0
 11
190.146743
 21
219.085318
 31
0.0
 11
178.125388
 21
229.188948
 31
0.0
 11
163.364711
 21
234.547932
 31
0.0
 11
147.886065
 21
234.547932
 31
0.0
 11
133.125388
 21
229.188948
 31
0.0
 11
121.104033
 21
219.085318
 31
0.0
 11
113.364710
 21
205.680418
 31
0.0
 11
110.625388
 21
190.217804
 31
0.0
 11
113.364710
 21
174.755191
 31
0.0
 11
121.104033
 21
161.350291
 31
0.0
 11
133.125388
 21
151.246661
 31
0.0
 11
147.886065
 21
145.887677
 31
0.0
 11
163.364711
 21
145.887677
 31
0.0
 11
178.125388
 21
151.246661
 31
0.0
 11
190.146743
 21
161.350291
 31
0.0
 11
197.886066
 21
174.755191
 31
0.0
 11
200.625388
 21
190.217804
 31
0.0
  0
LWPOLYLINE
  5
1d3
100
AcDbEntity
  8
Layer_1
 62
7
100
AcDbPolyline
 90
5
 70
0
 10
200.525388
 20
191.449309
 30
0.0
 10
210.525388
 20
191.449309
 30
0.0
 10
210.525388
 20
188.986300
 30
0.0
 10
200.525388
 20
188.986300
 30
0.0
 10
200.525388
 20
191.449309
 30
0.0
  0
SPLINE
  5
1d4
100
AcDbEntity
  8
Layer_1
 62
7
100
AcDbSpline
 70
0
 71
3
 72
25
 73
21
 74
19
 40
0.000000
 40
0.000000
 40
0.000000
 40
0.000000
 40
22.682667
 40
45.040710
 40
67.723378
 40
90.406045
 40
112.764088
 40
135.446756
 40
158.129423
 40
180.487466
 40
203.170133
 40
225.852801
 40
248.210844
 40
270.893511
 40
293.576178
 40
315.934221
 40
338.616889
 40
361.299556
 40
383.657599
 40
406.340267
 40
406.340267
 40
406.340267
 40
406.340267
 10
152.892057
 20
67.273400
 30
0.0
 10
152.115440
 20
74.872851
 30
0.0
 10
150.573320
 20
89.962994
 30
0.0
 10
138.608986
 20
109.904850
 30
0.0
 10
121.091176
 20
124.731097
 30
0.0
 10
99.398667
 20
132.594444
 30
0.0
 10
76.380469
 20
132.594444
 30
0.0
 10
54.718342
 20
124.731097
 30
0.0
 10
37.079224
 20
109.904850
 30
0.0
 10
25.565618
 20
89.962994
 30
0.0
 10
21.545643
 20
67.273400
 30
0.0
 10
25.565618
 20
44.583806
 30
0.0
 10
37.079224
 20
24.641950
 30
0.0
 10
54.718342
 20
9.815703
 30
0.0
 10
76.380469
 20
1.952356
 30
0.0
 10
99.398667
 20
1.952356
 30
0.0
 10
121.091176
 20
9.815703
 30
0.0
 10
138.608986
 20
24.641950
 30
0.0
 10
150.573320
 20
44.583806
 30
0.0
 10
152.115440
 20
59.673949
 30
0.0
 10
152.892057
 20
67.273400
 30
0.0
 11
152.892057
 21
67.273400
 31
0.0
 11
148.935258
 21
89.608286
 31
0.0
 11
137.756237
 21
108.970919
 31
0.0
 11
120.392057
 21
123.565051
 31
0.0
 11
99.071079
 21
131.305805
 31
0.0
 11
76.713036
 21
131.305805
 31
0.0
 11
55.392058
 21
123.565051
 31
0.0
 11
38.027878
 21
108.970919
 31
0.0
 11
26.848857
 21
89.608286
 31
0.0
 11
22.892058
 21
67.273400
 31
0.0
 11
26.848857
 21
44.938514
 31
0.0
 11
38.027878
 21
25.575881
 31
0.0
 11
55.392058
 21
10.981749
 31
0.0
 11
76.713036
 21
3.240994
 31
0.0
 11
99.071079
 21
3.240994
 31
0.0
 11
120.392057
 21
10.981749
 31
0.0
 11
137.756237
 21
25.575881
 31
0.0
 11
148.935258
 21
44.938514
 31
0.0
 11
152.892057
 21
67.273400
 31
0.0
  0
LWPOLYLINE
  5
1d5
100
AcDbEntity
  8
Layer_1
 62
7
100
AcDbPolyline
 90
2
 70
1
 10
152.892057
 20
67.273400
 30
0.0
 10
152.892057
 20
67.273400
 30
0.0
  0
LWPOLYLINE
  5
1d6
100
AcDbEntity
  8
Layer_1
 62
7
100
AcDbPolyline
 90
2
 70
1
 10
132.892058
 20
67.273400
 30
0.0
 10
132.892058
 20
67.273400
 30
0.0
  0
LWPOLYLINE
  5
1d7
100
AcDbEntity
  8
Layer_1
 62
7
100
AcDbPolyline
 90
5
 70
0
 10
42.992057
 20
68.504905
 30
0.0
 10
32.992057
 20
68.504905
 30
0.0
 10
32.992057
 20
66.041895
 30
0.0
 10
42.992057
 20
66.041895
 30
0.0
 10
42.992057
 20
68.504905
 30
0.0
  0
LWPOLYLINE
  5
1d8
100
AcDbEntity
  8
Layer_1
 62
7
100
AcDbPolyline
 90
5
 70
0
 10
86.660557
 20
122.173397
 30
0.0
 10
89.123558
 20
122.173397
 30
0.0
 10
89.123558
 20
112.173398
 30
0.0
 10
86.660557
 20
112.173398
 30
0.0
 10
86.660557
 20
122.173397
 30
0.0
  0
SPLINE
  5
1d9
100
AcDbEntity
  8
Layer_1
 62
7
100
AcDbSpline
 70
0
 71
3
 72
25
 73
21
 74
19
 40
0.000000
 40
0.000000
 40
0.000000
 40
0.000000
 40
15.703385
 40
31.182031
 40
46.885416
 40
62.588801
 40
78.067446
 40
93.770832
 40
109.474217
 40
124.952862
 40
140.656247
 40
156.359633
 40
171.838278
 40
187.541663
 40
203.245049
 40
218.723694
 40
234.427079
 40
250.130464
 40
265.609110
 40
281.312495
 40
281.312495
 40
281.312495
 40
281.312495
 10
132.892058
 20
67.273400
 30
0.0
 10
132.354400
 20
72.534559
 30
0.0
 10
131.286778
 20
82.981581
 30
0.0
 10
123.003777
 20
96.787481
 30
0.0
 10
110.876063
 20
107.051806
 30
0.0
 10
95.858172
 20
112.495662
 30
0.0
 10
79.922496
 20
112.495662
 30
0.0
 10
64.925639
 20
107.051806
 30
0.0
 10
52.713941
 20
96.787481
 30
0.0
 10
44.742983
 20
82.981581
 30
0.0
 10
41.959924
 20
67.273400
 30
0.0
 10
44.742983
 20
51.565219
 30
0.0
 10
52.713941
 20
37.759319
 30
0.0
 10
64.925639
 20
27.494994
 30
0.0
 10
79.922496
 20
22.051138
 30
0.0
 10
95.858172
 20
22.051138
 30
0.0
 10
110.876063
 20
27.494994
 30
0.0
 10
123.003777
 20
37.759319
 30
0.0
 10
131.286778
 20
51.565219
 30
0.0
 10
132.354400
 20
62.012241
 30
0.0
 10
132.892058
 20
67.273400
 30
0.0
 11
132.892058
 21
67.273400
 31
0.0
 11
130.152735
 21
82.736014
 31
0.0
 11
122.413413
 21
96.140914
 31
0.0
 11
110.392058
 21
106.244543
 31
0.0
 11
95.631380
 21
111.603527
 31
0.0
 11
80.152735
 21
111.603527
 31
0.0
 11
65.392057
 21
106.244543
 31
0.0
 11
53.370702
 21
96.140914
 31
0.0
 11
45.631380
 21
82.736014
 31
0.0
 11
42.892057
 21
67.273400
 31
0.0
 11
45.631380
 21
51.810786
 31
0.0
 11
53.370702
 21
38.405886
 31
0.0
 11
65.392057
 21
28.302256
 31
0.0
 11
80.152735
 21
22.943273
 31
0.0
 11
95.631380
 21
22.943273
 31
0.0
 11
110.392058
 21
28.302256
 31
0.0
 11
122.413413
 21
38.405886
 31
0.0
 11
130.152735
 21
51.810786
 31
0.0
 11
132.892058
 21
67.273400
 31
0.0
  0
LWPOLYLINE
  5
1da
100
AcDbEntity
  8
Layer_1
 62
7
100
AcDbPolyline
 90
5
 70
0
 10
132.792058
 20
68.504905
 30
0.0
 10
142.792058
 20
68.504905
 30
0.0
 10
142.792058
 20
66.041895
 30
0.0
 10
132.792058
 20
66.041895
 30
0.0
 10
132.792058
 20
68.504905
 30
0.0
  0
SPLINE
  5
1db
100
AcDbEntity
  8
Layer_1
 62
7
100
AcDbSpline
 70
0
 71
3
 72
25
 73
21
 74
19
 40
0.000000
 40
0.000000
 40
0.000000
 40
0.000000
 40
22.682667
 40
45.040710
 40
67.723378
 40
90.406045
 40
112.764088
 40
135.446756
 40
158.129423
 40
180.487466
 40
203.170133
 40
225.852801
 40
248.210844
 40
270.893511
 40
293.576178
 40
315.934221
 40
338.616889
 40
361.299556
 40
383.657599
 40
406.340267
 40
406.340267
 40
406.340267
 40
406.340267
 10
390.418738
 20
186.266694
 30
0.0
 10
389.642120
 20
193.866145
 30
0.0
 10
388.100000
 20
208.956288
 30
0.0
 10
376.135666
 20
228.898144
 30
0.0
 10
358.617856
 20
243.724391
 30
0.0
 10
336.925347
 20
251.587738
 30
0.0
 10
313.907149
 20
251.587738
 30
0.0
 10
292.245023
 20
243.724391
 30
0.0
 10
274.605904
 20
228.898144
 30
0.0
 10
263.092298
 20
208.956288
 30
0.0
 10
259.072323
 20
186.266694
 30
0.0
 10
263.092298
 20
163.577100
 30
0.0
 10
274.605904
 20
143.635244
 30
0.0
 10
292.245023
 20
128.808997
 30
0.0
 10
313.907149
 20
120.945649
 30
0.0
 10
336.925347
 20
120.945649
 30
0.0
 10
358.617856
 20
128.808997
 30
0.0
 10
376.135666
 20
143.635244
 30
0.0
 10
388.100000
 20
163.577100
 30
0.0
 10
389.642120
 20
178.667242
 30
0.0
 10
390.418738
 20
186.266694
 30
0.0
 11
390.418738
 21
186.266694
 31
0.0
 11
386.461938
 21
208.601580
 31
0.0
 11
375.282917
 21
227.964213
 31
0.0
 11
357.918738
 21
242.558345
 31
0.0
 11
336.597759
 21
250.299099
 31
0.0
 11
314.239716
 21
250.299099
 31
0.0
 11
292.918738
 21
242.558345
 31
0.0
 11
275.554559
 21
227.964213
 31
0.0
 11
264.375537
 21
208.601580
 31
0.0
 11
260.418738
 21
186.266694
 31
0.0
 11
264.375537
 21
163.931807
 31
0.0
 11
275.554559
 21
144.569174
 31
0.0
 11
292.918738
 21
129.975043
 31
0.0
 11
314.239716
 21
122.234288
 31
0.0
 11
336.597759
 21
122.234288
 31
0.0
 11
357.918738
 21
129.975043
 31
0.0
 11
375.282917
 21
144.569174
 31
0.0
 11
386.461938
 21
163.931807
 31
0.0
 11
390.418738
 21
186.266694
 31
0.0
  0
LWPOLYLINE
  5
1dc
100
AcDbEntity
  8
Layer_1
 62
7
100
AcDbPolyline
 90
2
 70
1
 10
390.418738
 20
186.266694
 30
0.0
 10
390.418738
 20
186.266694
 30
0.0
  0
LWPOLYLINE
  5
1dd
100
AcDbEntity
  8
Layer_1
 62
7
100
AcDbPolyline
 90
2
 70
1
 10
370.418738
 20
186.266694
 30
0.0
 10
370.418738
 20
186.266694
 30
0.0
  0
LWPOLYLINE
  5
1de
100
AcDbEntity
  8
Layer_1
 62
7
100
AcDbPolyline
 90
5
 70
0
 10
280.518737
 20
187.498199
 30
0.0
 10
270.518738
 20
187.498199
 30
0.0
 10
270.518738
 20
185.035189
 30
0.0
 10
280.518737
 20
185.035189
 30
0.0
 10
280.518737
 20
187.498199
 30
0.0
  0
LWPOLYLINE
  5
1df
100
AcDbEntity
  8
Layer_1
 62
7
100
AcDbPolyline
 90
5
 70
0
 10
324.187238
 20
241.166691
 30
0.0
 10
326.650238
 20
241.166691
 30
0.0
 10
326.650238
 20
231.166691
 30
0.0
 10
324.187238
 20
231.166691
 30
0.0
 10
324.187238
 20
241.166691
 30
0.0
  0
SPLINE
  5
1e0
100
AcDbEntity
  8
Layer_1
 62
7
100
AcDbSpline
 70
0
 71
3
 72
25
 73
21
 74
19
 40
0.000000
 40
0.000000
 40
0.000000
 40
0.000000
 40
15.703385
 40
31.182031
 40
46.885416
 40
62.588801
 40
78.067446
 40
93.770832
 40
109.474217
 40
124.952862
 40
140.656247
 40
156.359633
 40
171.838278
 40
187.541663
 40
203.245049
 40
218.723694
 40
234.427079
 40
250.130464
 40
265.609110
 40
281.312495
 40
281.312495
 40
281.312495
 40
281.312495
 10
370.418738
 20
186.266694
 30
0.0
 10
369.881080
 20
191.527852
 30
0.0
 10
368.813459
 20
201.974874
 30
0.0
 10
360.530458
 20
215.780775
 30
0.0
 10
348.402743
 20
226.045100
 30
0.0
 10
333.384852
 20
231.488956
 30
0.0
 10
317.449177
 20
231.488956
 30
0.0
 10
302.452319
 20
226.045100
 30
0.0
 10
290.240622
 20
215.780775
 30
0.0
 10
282.269664
 20
201.974874
 30
0.0
 10
279.486604
 20
186.266694
 30
0.0
 10
282.269664
 20
170.558513
 30
0.0
 10
290.240622
 20
156.752613
 30
0.0
 10
302.452319
 20
146.488288
 30
0.0
 10
317.449177
 20
141.044432
 30
0.0
 10
333.384852
 20
141.044432
 30
0.0
 10
348.402743
 20
146.488288
 30
0.0
 10
360.530458
 20
156.752613
 30
0.0
 10
368.813459
 20
170.558513
 30
0.0
 10
369.881080
 20
181.005535
 30
0.0
 10
370.418738
 20
186.266694
 30
0.0
 11
370.418738
 21
186.266694
 31
0.0
 11
367.679416
 21
201.729307
 31
0.0
 11
359.940093
 21
215.134207
 31
0.0
 11
347.918738
 21
225.237837
 31
0.0
 11
333.158060
 21
230.596821
 31
0.0
 11
317.679415
 21
230.596821
 31
0.0
 11
302.918738
 21
225.237837
 31
0.0
 11
290.897383
 21
215.134207
 31
0.0
 11
283.158060
 21
201.729307
 31
0.0
 11
280.418738
 21
186.266694
 31
0.0
 11
283.158060
 21
170.804080
 31
0.0
 11
290.897383
 21
157.399180
 31
0.0
 11
302.918738
 21
147.295550
 31
0.0
 11
317.679415
 21
141.936566
 31
0.0
 11
333.158060
 21
141.936566
 31
0.0
 11
347.918738
 21
147.295550
 31
0.0
 11
359.940093
 21
157.399180
 31
0.0
 11
367.679416
 21
170.804080
 31
0.0
 11
370.418738
 21
186.266694
 31
0.0
  0
LWPOLYLINE
  5
1e1
100
AcDbEntity
  8
Layer_1
 62
7
100
AcDbPolyline
 90
5
 70
0
 10
370.318738
 20
187.498199
 30
0.0
 10
380.318738
 20
187.498199
 30
0.0
 10
380.318738
 20
185.035189
 30
0.0
 10
370.318738
 20
185.035189
 30
0.0
 10
370.318738
 20
187.498199
 30
0.0
  0
SPLINE
  5
1e2
100
AcDbEntity
  8
Layer_1
 62
7
100
AcDbSpline
 70
0
 71
3
 72
25
 73
21
 74
19
 40
0.000000
 40
0.000000
 40
0.000000
 40
0.000000
 40
22.682667
 40
45.040710
 40
67.723378
 40
90.406045
 40
112.764088
 40
135.446756
 40
158.129423
 40
180.487466
 40
203.170133
 40
225.852801
 40
248.210844
 40
270.893511
 40
293.576178
 40
315.934221
 40
338.616889
 40
361.299556
 40
383.657599
 40
406.340267
 40
406.340267
 40
406.340267
 40
406.340267
 10
311.396515
 20
74.611178
 30
0.0
 10
310.619898
 20
82.210629
 30
0.0
 10
309.077778
 20
97.300772
 30
0.0
 10
297.113444
 20
117.242628
 30
0.0
 10
279.595634
 20
132.068875
 30
0.0
 10
257.903125
 20
139.932222
 30
0.0
 10
234.884927
 20
139.932222
 30
0.0
 10
213.222800
 20
132.068875
 30
0.0
 10
195.583682
 20
117.242628
 30
0.0
 10
184.070076
 20
97.300772
 30
0.0
 10
180.050101
 20
74.611178
 30
0.0
 10
184.070076
 20
51.921584
 30
0.0
 10
195.583682
 20
31.979728
 30
0.0
 10
213.222800
 20
17.153481
 30
0.0
 10
234.884927
 20
9.290133
 30
0.0
 10
257.903125
 20
9.290133
 30
0.0
 10
279.595634
 20
17.153481
 30
0.0
 10
297.113444
 20
31.979728
 30
0.0
 10
309.077778
 20
51.921584
 30
0.0
 10
310.619898
 20
67.011726
 30
0.0
 10
311.396515
 20
74.611178
 30
0.0
 11
311.396515
 21
74.611178
 31
0.0
 11
307.439716
 21
96.946064
 31
0.0
 11
296.260695
 21
116.308697
 31
0.0
 11
278.896516
 21
130.902829
 31
0.0
 11
257.575537
 21
138.643583
 31
0.0
 11
235.217494
 21
138.643583
 31
0.0
 11
213.896516
 21
130.902829
 31
0.0
 11
196.532337
 21
116.308697
 31
0.0
 11
185.353315
 21
96.946064
 31
0.0
 11
181.396516
 21
74.611178
 31
0.0
 11
185.353315
 21
52.276291
 31
0.0
 11
196.532337
 21
32.913658
 31
0.0
 11
213.896516
 21
18.319527
 31
0.0
 11
235.217494
 21
10.578772
 31
0.0
 11
257.575537
 21
10.578772
 31
0.0
 11
278.896516
 21
18.319527
 31
0.0
 11
296.260695
 21
32.913658
 31
0.0
 11
307.439716
 21
52.276291
 31
0.0
 11
311.396515
 21
74.611178
 31
0.0
  0
LWPOLYLINE
  5
1e3
100
AcDbEntity
  8
Layer_1
 62
7
100
AcDbPolyline
 90
2
 70
1
 10
311.396515
 20
74.611178
 30
0.0
 10
311.396515
 20
74.611178
 30
0.0
  0
LWPOLYLINE
  5
1e4
100
AcDbEntity
  8
Layer_1
 62
7
100
AcDbPolyline
 90
2
 70
1
 10
291.396516
 20
74.611178
 30
0.0
 10
291.396516
 20
74.611178
 30
0.0
  0
LWPOLYLINE
  5
1e5
100
AcDbEntity
  8
Layer_1
 62
7
100
AcDbPolyline
 90
5
 70
0
 10
201.496515
 20
75.842683
 30
0.0
 10
191.496515
 20
75.842683
 30
0.0
 10
191.496515
 20
73.379673
 30
0.0
 10
201.496515
 20
73.379673
 30
0.0
 10
201.496515
 20
75.842683
 30
0.0
  0
LWPOLYLINE
  5
1e6
100
AcDbEntity
  8
Layer_1
 62
7
100
AcDbPolyline
 90
5
 70
0
 10
245.165016
 20
129.511175
 30
0.0
 10
247.628016
 20
129.511175
 30
0.0
 10
247.628016
 20
119.511175
 30
0.0
 10
245.165016
 20
119.511175
 30
0.0
 10
245.165016
 20
129.511175
 30
0.0
  0
SPLINE
  5
1e7
100
AcDbEntity
  8
Layer_1
 62
7
100
AcDbSpline
 70
0
 71
3
 72
25
 73
21
 74
19
 40
0.000000
 40
0.000000
 40
0.000000
 40
0.000000
 40
15.703385
 40
31.182031
 40
46.885416
 40
62.588801
 40
78.067446
 40
93.770832
 40
109.474217
 40
124.952862
 40
140.656247
 40
156.359633
 40
171.838278
 40
187.541663
 40
203.245049
 40
218.723694
 40
234.427079
 40
250.130464
 40
265.609110
 40
281.312495
 40
281.312495
 40
281.312495
 40
281.312495
 10
291.396516
 20
74.611178
 30
0.0
 10
290.858858
 20
79.872336
 30
0.0
 10
289.791236
 20
90.319358
 30
0.0
 10
281.508236
 20
104.125259
 30
0.0
 10
269.380521
 20
114.389584
 30
0.0
 10
254.362630
 20
119.833440
 30
0.0
 10
238.426954
 20
119.833440
 30
0.0
 10
223.430097
 20
114.389584
 30
0.0
 10
211.218400
 20
104.125259
 30
0.0
 10
203.247442
 20
90.319358
 30
0.0
 10
200.464382
 20
74.611178
 30
0.0
 10
203.247442
 20
58.902997
 30
0.0
 10
211.218400
 20
45.097097
 30
0.0
 10
223.430097
 20
34.832772
 30
0.0
 10
238.426954
 20
29.388916
 30
0.0
 10
254.362630
 20
29.388916
 30
0.0
 10
269.380521
 20
34.832772
 30
0.0
 10
281.508236
 20
45.097097
 30
0.0
 10
289.791236
 20
58.902997
 30
0.0
 10
290.858858
 20
69.350019
 30
0.0
 10
291.396516
 20
74.611178
 30
0.0
 11
291.396516
 21
74.611178
 31
0.0
 11
288.657193
 21
90.073791
 31
0.0
 11
280.917871
 21
103.478691
 31
0.0
 11
268.896516
 21
113.582321
 31
0.0
 11
254.135838
 21
118.941305
 31
0.0
 11
238.657193
 21
118.941305
 31
0.0
 11
223.896515
 21
113.582321
 31
0.0
 11
211.875161
 21
103.478691
 31
0.0
 11
204.135838
 21
90.073791
 31
0.0
 11
201.396515
 21
74.611178
 31
0.0
 11
204.135838
 21
59.148564
 31
0.0
 11
211.875161
 21
45.743664
 31
0.0
 11
223.896515
 21
35.640034
 31
0.0
 11
238.657193
 21
30.281050
 31
0.0
 11
254.135838
 21
30.281050
 31
0.0
 11
268.896516
 21
35.640034
 31
0.0
 11
280.917871
 21
45.743664
 31
0.0
 11
288.657193
 21
59.148564
 31
0.0
 11
291.396516
 21
74.611178
 31
0.0
  0
LWPOLYLINE
  5
1e8
100
AcDbEntity
  8
Layer_1
 62
7
100
AcDbPolyline
 90
5
 70
0
 10
291.296516
 20
75.842683
 30
0.0
 10
301.296516
 20
75.842683
 30
0.0
 10
301.296516
 20
73.379673
 30
0.0
 10
291.296516
 20
73.379673
 30
0.0
 10
291.296516
 20
75.842683
 30
0.0
  0
ENDSEC
  0
SECTION
  2
OBJECTS
  0
DICTIONARY
  5
C
330
0
100
AcDbDictionary
  3
ACAD_GROUP
350
D
  3
ACAD_MLINESTYLE
350
17
  0
DICTIONARY
  5
D
330
C
100
AcDbDictionary
  0
DICTIONARY
  5
1A
330
C
100
AcDbDictionary
  0
DICTIONARY
  5
17
330
C
100
AcDbDictionary
  3
STANDARD
350
18
  0
DICTIONARY
  5
19
330
C
100
AcDbDictionary
  0
ENDSEC
  0
EOF
