0
SECTION
2
HEADER
9
$ACADVER
1
AC1009
0
ENDSEC
0
SECTION
2
TABLES
0
TABLE
2
VPORT
70
1
0
VPORT
2
ACTIVE
70
0
10
0.0
20
0.0
11
0.0
21
0.0
12
0.0
22
0.0
13
0.0
23
0.0
14
0.0
24
0.0
15
0.0
25
0.0
16
0.0
26
0.0
36
0.0
17
0.0
27
0.0
37
0.0
40
0.0
41
0.0
42
0.0
43
0.0
44
0.0
50
0.0
51
0.0
71
0
72
1000
73
1
74
3
75
0
76
0
77
0
78
0
0
ENDTAB
0
ENDSEC
0
SECTION
2
ENTITIES
0
LINE
8
hole
62
5
39
2
10
29.664875
20
117.277854
11
30.236375
21
117.277854
0
LINE
8
hole
62
5
39
2
10
30.236375
20
117.277854
11
30.236375
21
117.849354
0
LINE
8
hole
62
5
39
2
10
30.236375
20
117.849354
11
29.664875
21
117.849354
0
LINE
8
hole
62
5
39
2
10
29.664875
20
117.849354
11
29.664875
21
117.277854
0
LINE
8
hole
62
5
39
2
10
29.664875
20
5.100354
11
30.236375
21
5.100354
0
LINE
8
hole
62
5
39
2
10
30.236375
20
5.100354
11
30.236375
21
5.671854
0
LINE
8
hole
62
5
39
2
10
30.236375
20
5.671854
11
29.664875
21
5.671854
0
LINE
8
hole
62
5
39
2
10
29.664875
20
5.671854
11
29.664875
21
5.100354
0
LINE
8
hole
62
5
39
2
10
46.794723
20
53.824864
11
46.794723
21
23.224854
0
LINE
8
hole
62
5
39
2
10
46.794723
20
23.224854
11
26.342229
21
23.224854
0
LINE
8
hole
62
5
39
2
10
26.342229
20
23.224854
11
12.707223
21
23.224854
0
LINE
8
hole
62
5
39
2
10
12.707223
20
23.224854
11
12.707223
21
69.124838
0
LINE
8
hole
62
5
39
2
10
12.707223
20
69.124838
11
12.707223
21
99.724848
0
LINE
8
hole
62
5
39
2
10
12.707223
20
99.724848
11
33.159717
21
99.724848
0
LINE
8
hole
62
5
39
2
10
33.159717
20
99.724848
11
46.794723
21
99.724848
0
LINE
8
hole
62
5
39
2
10
46.794723
20
99.724848
11
46.794723
21
53.824864
0
LINE
8
boundary
62
5
39
2
10
6.691065
20
1.611725
11
7.212500
21
1.587500
0
LINE
8
boundary
62
5
39
2
10
7.212500
20
1.587500
11
8.899999
21
1.587500
0
LINE
8
boundary
62
5
39
2
10
8.899999
20
1.587500
11
52.212494
21
1.587500
0
LINE
8
boundary
62
5
39
2
10
52.212494
20
1.587500
11
52.733927
21
1.611725
0
LINE
8
boundary
62
5
39
2
10
52.733927
20
1.611725
11
53.250871
21
1.684196
0
LINE
8
boundary
62
5
39
2
10
53.250871
20
1.684196
11
53.758865
21
1.804289
0
LINE
8
boundary
62
5
39
2
10
53.758865
20
1.804289
11
54.253529
21
1.970965
0
LINE
8
boundary
62
5
39
2
10
54.253529
20
1.970965
11
54.730601
21
2.182791
0
LINE
8
boundary
62
5
39
2
10
54.730601
20
2.182791
11
55.185969
21
2.437938
0
LINE
8
boundary
62
5
39
2
10
55.185969
20
2.437938
11
55.615718
21
2.734203
0
LINE
8
boundary
62
5
39
2
10
55.615718
20
2.734203
11
56.016134
21
3.069032
0
LINE
8
boundary
62
5
39
2
10
56.016134
20
3.069032
11
56.383766
21
3.439543
0
LINE
8
boundary
62
5
39
2
10
56.383766
20
3.439543
11
56.715452
21
3.842539
0
LINE
8
boundary
62
5
39
2
10
56.715452
20
3.842539
11
57.008341
21
4.274534
0
LINE
8
boundary
62
5
39
2
10
57.008341
20
4.274534
11
57.259904
21
4.731825
0
LINE
8
boundary
62
5
39
2
10
57.259904
20
4.731825
11
57.467974
21
5.210451
0
LINE
8
boundary
62
5
39
2
10
57.467974
20
5.210451
11
57.630768
21
5.706294
0
LINE
8
boundary
62
5
39
2
10
57.630768
20
5.706294
11
57.746876
21
6.215073
0
LINE
8
boundary
62
5
39
2
10
57.746876
20
6.215073
11
57.835469
21
7.171150
0
LINE
8
boundary
62
5
39
2
10
57.835469
20
7.171150
11
57.837500
21
11.294139
0
LINE
8
boundary
62
5
39
2
10
57.837500
20
11.294139
11
57.837501
21
116.056240
0
LINE
8
boundary
62
5
39
2
10
57.837501
20
116.056240
11
57.813267
21
116.577674
0
LINE
8
boundary
62
5
39
2
10
57.813267
20
116.577674
11
57.740801
21
117.094621
0
LINE
8
boundary
62
5
39
2
10
57.740801
20
117.094621
11
57.620708
21
117.602614
0
LINE
8
boundary
62
5
39
2
10
57.620708
20
117.602614
11
57.454026
21
118.097271
0
LINE
8
boundary
62
5
39
2
10
57.454026
20
118.097271
11
57.242204
21
118.574342
0
LINE
8
boundary
62
5
39
2
10
57.242204
20
118.574342
11
56.987056
21
119.029713
0
LINE
8
boundary
62
5
39
2
10
56.987056
20
119.029713
11
56.690789
21
119.459457
0
LINE
8
boundary
62
5
39
2
10
56.690789
20
119.459457
11
56.355963
21
119.859875
0
LINE
8
boundary
62
5
39
2
10
56.355963
20
119.859875
11
55.985457
21
120.227513
0
LINE
8
boundary
62
5
39
2
10
55.985457
20
120.227513
11
55.582464
21
120.559196
0
LINE
8
boundary
62
5
39
2
10
55.582464
20
120.559196
11
55.150458
21
120.852087
0
LINE
8
boundary
62
5
39
2
10
55.150458
20
120.852087
11
54.693175
21
121.103651
0
LINE
8
boundary
62
5
39
2
10
54.693175
20
121.103651
11
54.214548
21
121.311724
0
LINE
8
boundary
62
5
39
2
10
54.214548
20
121.311724
11
53.718705
21
121.474507
0
LINE
8
boundary
62
5
39
2
10
53.718705
20
121.474507
11
53.209919
21
121.590615
0
LINE
8
boundary
62
5
39
2
10
53.209919
20
121.590615
11
52.253845
21
121.679210
0
LINE
8
boundary
62
5
39
2
10
52.253845
20
121.679210
11
50.524996
21
121.681242
0
LINE
8
boundary
62
5
39
2
10
50.524996
20
121.681242
11
7.212500
21
121.681242
0
LINE
8
boundary
62
5
39
2
10
7.212500
20
121.681242
11
6.691065
21
121.657016
0
LINE
8
boundary
62
5
39
2
10
6.691065
20
121.657016
11
6.174123
21
121.584540
0
LINE
8
boundary
62
5
39
2
10
6.174123
20
121.584540
11
5.666135
21
121.464447
0
LINE
8
boundary
62
5
39
2
10
5.666135
20
121.464447
11
5.171469
21
121.297776
0
LINE
8
boundary
62
5
39
2
10
5.171469
20
121.297776
11
4.694396
21
121.085950
0
LINE
8
boundary
62
5
39
2
10
4.694396
20
121.085950
11
4.239026
21
120.830803
0
LINE
8
boundary
62
5
39
2
10
4.239026
20
120.830803
11
3.809279
21
120.534534
0
LINE
8
boundary
62
5
39
2
10
3.809279
20
120.534534
11
3.408867
21
120.199710
0
LINE
8
boundary
62
5
39
2
10
3.408867
20
120.199710
11
3.041229
21
119.829199
0
LINE
8
boundary
62
5
39
2
10
3.041229
20
119.829199
11
2.709540
21
119.426203
0
LINE
8
boundary
62
5
39
2
10
2.709540
20
119.426203
11
2.416652
21
118.994202
0
LINE
8
boundary
62
5
39
2
10
2.416652
20
118.994202
11
2.165093
21
118.536917
0
LINE
8
boundary
62
5
39
2
10
2.165093
20
118.536917
11
1.957020
21
118.058291
0
LINE
8
boundary
62
5
39
2
10
1.957020
20
118.058291
11
1.794232
21
117.562453
0
LINE
8
boundary
62
5
39
2
10
1.794232
20
117.562453
11
1.678124
21
117.053668
0
LINE
8
boundary
62
5
39
2
10
1.678124
20
117.053668
11
1.589531
21
116.097590
0
LINE
8
boundary
62
5
39
2
10
1.589531
20
116.097590
11
1.587500
21
111.974603
0
LINE
8
boundary
62
5
39
2
10
1.587500
20
111.974603
11
1.587500
21
7.212502
0
LINE
8
boundary
62
5
39
2
10
1.587500
20
7.212502
11
1.611725
21
6.691067
0
LINE
8
boundary
62
5
39
2
10
1.611725
20
6.691067
11
1.684199
21
6.174121
0
LINE
8
boundary
62
5
39
2
10
1.684199
20
6.174121
11
1.804292
21
5.666134
0
LINE
8
boundary
62
5
39
2
10
1.804292
20
5.666134
11
1.970968
21
5.171470
0
LINE
8
boundary
62
5
39
2
10
1.970968
20
5.171470
11
2.182794
21
4.694399
0
LINE
8
boundary
62
5
39
2
10
2.182794
20
4.694399
11
2.437936
21
4.239023
0
LINE
8
boundary
62
5
39
2
10
2.437936
20
4.239023
11
2.734202
21
3.809285
0
LINE
8
boundary
62
5
39
2
10
2.734202
20
3.809285
11
3.069032
21
3.408866
0
LINE
8
boundary
62
5
39
2
10
3.069032
20
3.408866
11
3.439543
21
3.041229
0
LINE
8
boundary
62
5
39
2
10
3.439543
20
3.041229
11
3.842533
21
2.709540
0
LINE
8
boundary
62
5
39
2
10
3.842533
20
2.709540
11
4.274536
21
2.416654
0
LINE
8
boundary
62
5
39
2
10
4.274536
20
2.416654
11
4.731822
21
2.165090
0
LINE
8
boundary
62
5
39
2
10
4.731822
20
2.165090
11
5.210450
21
1.957018
0
LINE
8
boundary
62
5
39
2
10
5.210450
20
1.957018
11
5.706295
21
1.794229
0
LINE
8
boundary
62
5
39
2
10
5.706295
20
1.794229
11
6.215076
21
1.678122
0
LINE
8
boundary
62
5
39
2
10
6.215076
20
1.678122
11
6.691065
21
1.611725
0
LINE
8
annotation
62
1
39
211
10
29.950625
20
117.563604
11
29.950625
21
118.992354
0
LINE
8
annotation
62
1
39
211
10
29.950625
20
5.386104
11
31.379375
21
5.386104
0
LINE
8
annotation
62
1
39
211
10
3.349891
20
54.863409
11
7.190503
21
54.863409
0
LINE
8
annotation
62
1
39
211
10
7.190503
20
54.863409
11
7.190503
21
54.863409
0
LINE
8
annotation
62
1
39
211
10
7.190503
20
54.863409
11
7.879818
21
54.925387
0
LINE
8
annotation
62
1
39
211
10
7.879818
20
54.925387
11
8.529024
21
55.104065
0
LINE
8
annotation
62
1
39
211
10
8.529024
20
55.104065
11
9.127178
21
55.388562
0
LINE
8
annotation
62
1
39
211
10
9.127178
20
55.388562
11
9.663336
21
55.767997
0
LINE
8
annotation
62
1
39
211
10
9.663336
20
55.767997
11
10.126551
21
56.231486
0
LINE
8
annotation
62
1
39
211
10
10.126551
20
56.231486
11
10.505881
21
56.768149
0
LINE
8
annotation
62
1
39
211
10
10.505881
20
56.768149
11
10.790382
21
57.367104
0
LINE
8
annotation
62
1
39
211
10
10.790382
20
57.367104
11
10.969108
21
58.017468
0
LINE
8
annotation
62
1
39
211
10
10.969108
20
58.017468
11
11.031115
21
58.708360
0
LINE
8
annotation
62
1
39
211
10
11.031115
20
58.708360
11
11.031115
21
60.621616
0
LINE
8
annotation
62
1
39
211
10
11.031115
20
60.621616
11
11.031115
21
60.621616
0
LINE
8
annotation
62
1
39
211
10
11.031115
20
60.621616
11
10.969143
21
61.312173
0
LINE
8
annotation
62
1
39
211
10
10.969143
20
61.312173
11
10.790507
21
61.961640
0
LINE
8
annotation
62
1
39
211
10
10.790507
20
61.961640
11
10.506122
21
62.559296
0
LINE
8
annotation
62
1
39
211
10
10.506122
20
62.559296
11
10.126908
21
63.094419
0
LINE
8
annotation
62
1
39
211
10
10.126908
20
63.094419
11
9.663782
21
63.556288
0
LINE
8
annotation
62
1
39
211
10
9.663782
20
63.556288
11
9.127661
21
63.934183
0
LINE
8
annotation
62
1
39
211
10
9.127661
20
63.934183
11
8.529462
21
64.217381
0
LINE
8
annotation
62
1
39
211
10
8.529462
20
64.217381
11
7.880103
21
64.395162
0
LINE
8
annotation
62
1
39
211
10
7.880103
20
64.395162
11
7.190503
21
64.456805
0
LINE
8
annotation
62
1
39
211
10
7.190503
20
64.456805
11
3.349891
21
64.456805
0
LINE
8
annotation
62
1
39
211
10
3.349891
20
64.456805
11
3.349891
21
72.158637
0
LINE
8
annotation
62
1
39
211
10
3.349891
20
72.158637
11
11.031115
21
72.158637
0
LINE
8
hole
62
5
39
2
10
53.152734
20
144.374238
11
53.724234
21
144.374238
0
LINE
8
hole
62
5
39
2
10
53.724234
20
144.374238
11
53.724234
21
144.945738
0
LINE
8
hole
62
5
39
2
10
53.724234
20
144.945738
11
53.152734
21
144.945738
0
LINE
8
hole
62
5
39
2
10
53.152734
20
144.945738
11
53.152734
21
144.374238
0
LINE
8
hole
62
5
39
2
10
5.688988
20
144.374238
11
6.260488
21
144.374238
0
LINE
8
hole
62
5
39
2
10
6.260488
20
144.374238
11
6.260488
21
144.945738
0
LINE
8
hole
62
5
39
2
10
6.260488
20
144.945738
11
5.688988
21
144.945738
0
LINE
8
hole
62
5
39
2
10
5.688988
20
144.945738
11
5.688988
21
144.374238
0
LINE
8
hole
62
5
39
2
10
29.664875
20
240.546596
11
30.236375
21
240.546596
0
LINE
8
hole
62
5
39
2
10
30.236375
20
240.546596
11
30.236375
21
241.118096
0
LINE
8
hole
62
5
39
2
10
30.236375
20
241.118096
11
29.664875
21
241.118096
0
LINE
8
hole
62
5
39
2
10
29.664875
20
241.118096
11
29.664875
21
240.546596
0
LINE
8
hole
62
5
39
2
10
29.664875
20
128.369096
11
30.236375
21
128.369096
0
LINE
8
hole
62
5
39
2
10
30.236375
20
128.369096
11
30.236375
21
128.940596
0
LINE
8
hole
62
5
39
2
10
30.236375
20
128.940596
11
29.664875
21
128.940596
0
LINE
8
hole
62
5
39
2
10
29.664875
20
128.940596
11
29.664875
21
128.369096
0
LINE
8
hole
62
5
39
2
10
10.794723
20
131.838388
11
10.794723
21
138.196722
0
LINE
8
hole
62
5
39
2
10
10.794723
20
138.196722
11
10.220557
21
138.196722
0
LINE
8
hole
62
5
39
2
10
10.220557
20
138.196722
11
7.813474
21
138.196722
0
LINE
8
hole
62
5
39
2
10
7.813474
20
138.196722
11
7.813474
21
143.758172
0
LINE
8
hole
62
5
39
2
10
7.813474
20
143.758172
11
7.813474
21
186.389421
0
LINE
8
hole
62
5
39
2
10
7.813474
20
186.389421
11
7.813474
21
239.039419
0
LINE
8
hole
62
5
39
2
10
7.813474
20
239.039419
11
16.263473
21
239.165471
0
LINE
8
hole
62
5
39
2
10
16.263473
20
239.165471
11
51.688468
21
239.165471
0
LINE
8
hole
62
5
39
2
10
51.688468
20
239.165471
11
51.688468
21
186.389421
0
LINE
8
hole
62
5
39
2
10
51.688468
20
186.389421
11
51.688468
21
143.758172
0
LINE
8
hole
62
5
39
2
10
51.688468
20
143.758172
11
51.688468
21
138.196722
0
LINE
8
hole
62
5
39
2
10
51.688468
20
138.196722
11
49.489302
21
138.196722
0
LINE
8
hole
62
5
39
2
10
49.489302
20
138.196722
11
40.269722
21
138.196722
0
LINE
8
hole
62
5
39
2
10
40.269722
20
138.196722
11
40.269722
21
136.680055
0
LINE
8
hole
62
5
39
2
10
40.269722
20
136.680055
11
40.269722
21
130.321721
0
LINE
8
hole
62
5
39
2
10
40.269722
20
130.321721
11
34.593055
21
130.321721
0
LINE
8
hole
62
5
39
2
10
34.593055
20
130.321721
11
10.794723
21
130.321721
0
LINE
8
hole
62
5
39
2
10
10.794723
20
130.321721
11
10.794723
21
131.838388
0
LINE
8
boundary
62
5
39
2
10
6.677771
20
124.881739
11
7.212501
21
124.856242
0
LINE
8
boundary
62
5
39
2
10
7.212501
20
124.856242
11
18.149998
21
124.856242
0
LINE
8
boundary
62
5
39
2
10
18.149998
20
124.856242
11
52.212494
21
124.856242
0
LINE
8
boundary
62
5
39
2
10
52.212494
20
124.856242
11
52.747223
21
124.881739
0
LINE
8
boundary
62
5
39
2
10
52.747223
20
124.881739
11
53.277098
21
124.957997
0
LINE
8
boundary
62
5
39
2
10
53.277098
20
124.957997
11
53.797301
21
125.084329
0
LINE
8
boundary
62
5
39
2
10
53.797301
20
125.084329
11
54.303112
21
125.259579
0
LINE
8
boundary
62
5
39
2
10
54.303112
20
125.259579
11
54.789933
21
125.482156
0
LINE
8
boundary
62
5
39
2
10
54.789933
20
125.482156
11
55.253349
21
125.750032
0
LINE
8
boundary
62
5
39
2
10
55.253349
20
125.750032
11
55.689158
21
126.060773
0
LINE
8
boundary
62
5
39
2
10
55.689158
20
126.060773
11
56.093397
21
126.411546
0
LINE
8
boundary
62
5
39
2
10
56.093397
20
126.411546
11
56.462394
21
126.799170
0
LINE
8
boundary
62
5
39
2
10
56.462394
20
126.799170
11
56.792814
21
127.220117
0
LINE
8
boundary
62
5
39
2
10
56.792814
20
127.220117
11
57.081660
21
127.670547
0
LINE
8
boundary
62
5
39
2
10
57.081660
20
127.670547
11
57.326308
21
128.146382
0
LINE
8
boundary
62
5
39
2
10
57.326308
20
128.146382
11
57.524555
21
128.643281
0
LINE
8
boundary
62
5
39
2
10
57.524555
20
128.643281
11
57.674610
21
129.156735
0
LINE
8
boundary
62
5
39
2
10
57.674610
20
129.156735
11
57.775115
21
129.682071
0
LINE
8
boundary
62
5
39
2
10
57.775115
20
129.682071
11
57.824333
21
130.213225
0
LINE
8
boundary
62
5
39
2
10
57.824333
20
130.213225
11
57.837500
21
156.936317
0
LINE
8
boundary
62
5
39
2
10
57.837500
20
156.936317
11
57.837501
21
239.324982
0
LINE
8
boundary
62
5
39
2
10
57.837501
20
239.324982
11
57.811998
21
239.859708
0
LINE
8
boundary
62
5
39
2
10
57.811998
20
239.859708
11
57.735740
21
240.389586
0
LINE
8
boundary
62
5
39
2
10
57.735740
20
240.389586
11
57.609408
21
240.909790
0
LINE
8
boundary
62
5
39
2
10
57.609408
20
240.909790
11
57.434154
21
241.415596
0
LINE
8
boundary
62
5
39
2
10
57.434154
20
241.415596
11
57.211584
21
241.902419
0
LINE
8
boundary
62
5
39
2
10
57.211584
20
241.902419
11
56.943706
21
242.365836
0
LINE
8
boundary
62
5
39
2
10
56.943706
20
242.365836
11
56.632963
21
242.801642
0
LINE
8
boundary
62
5
39
2
10
56.632963
20
242.801642
11
56.282191
21
243.205879
0
LINE
8
boundary
62
5
39
2
10
56.282191
20
243.205879
11
55.894569
21
243.574885
0
LINE
8
boundary
62
5
39
2
10
55.894569
20
243.574885
11
55.473624
21
243.905300
0
LINE
8
boundary
62
5
39
2
10
55.473624
20
243.905300
11
55.023187
21
244.194146
0
LINE
8
boundary
62
5
39
2
10
55.023187
20
244.194146
11
54.547360
21
244.438799
0
LINE
8
boundary
62
5
39
2
10
54.547360
20
244.438799
11
54.050458
21
244.637047
0
LINE
8
boundary
62
5
39
2
10
54.050458
20
244.637047
11
53.537005
21
244.787093
0
LINE
8
boundary
62
5
39
2
10
53.537005
20
244.787093
11
53.011663
21
244.887596
0
LINE
8
boundary
62
5
39
2
10
53.011663
20
244.887596
11
52.480511
21
244.936816
0
LINE
8
boundary
62
5
39
2
10
52.480511
20
244.936816
11
41.274996
21
244.949983
0
LINE
8
boundary
62
5
39
2
10
41.274996
20
244.949983
11
7.212500
21
244.949983
0
LINE
8
boundary
62
5
39
2
10
7.212500
20
244.949983
11
6.677771
21
244.924486
0
LINE
8
boundary
62
5
39
2
10
6.677771
20
244.924486
11
6.147898
21
244.848223
0
LINE
8
boundary
62
5
39
2
10
6.147898
20
244.848223
11
5.627696
21
244.721894
0
LINE
8
boundary
62
5
39
2
10
5.627696
20
244.721894
11
5.121885
21
244.546646
0
LINE
8
boundary
62
5
39
2
10
5.121885
20
244.546646
11
4.635061
21
244.324070
0
LINE
8
boundary
62
5
39
2
10
4.635061
20
244.324070
11
4.171644
21
244.056193
0
LINE
8
boundary
62
5
39
2
10
4.171644
20
244.056193
11
3.735839
21
243.745452
0
LINE
8
boundary
62
5
39
2
10
3.735839
20
243.745452
11
3.331604
21
243.394677
0
LINE
8
boundary
62
5
39
2
10
3.331604
20
243.394677
11
2.962600
21
243.007055
0
LINE
8
boundary
62
5
39
2
10
2.962600
20
243.007055
11
2.632181
21
242.586109
0
LINE
8
boundary
62
5
39
2
10
2.632181
20
242.586109
11
2.343336
21
242.135675
0
LINE
8
boundary
62
5
39
2
10
2.343336
20
242.135675
11
2.098686
21
241.659844
0
LINE
8
boundary
62
5
39
2
10
2.098686
20
241.659844
11
1.900438
21
241.162944
0
LINE
8
boundary
62
5
39
2
10
1.900438
20
241.162944
11
1.750387
21
240.649493
0
LINE
8
boundary
62
5
39
2
10
1.750387
20
240.649493
11
1.649884
21
240.124149
0
LINE
8
boundary
62
5
39
2
10
1.649884
20
240.124149
11
1.600666
21
239.592994
0
LINE
8
boundary
62
5
39
2
10
1.600666
20
239.592994
11
1.587500
21
212.869908
0
LINE
8
boundary
62
5
39
2
10
1.587500
20
212.869908
11
1.587500
21
130.481244
0
LINE
8
boundary
62
5
39
2
10
1.587500
20
130.481244
11
1.612996
21
129.946512
0
LINE
8
boundary
62
5
39
2
10
1.612996
20
129.946512
11
1.689258
21
129.416639
0
LINE
8
boundary
62
5
39
2
10
1.689258
20
129.416639
11
1.815588
21
128.896438
0
LINE
8
boundary
62
5
39
2
10
1.815588
20
128.896438
11
1.990839
21
128.390629
0
LINE
8
boundary
62
5
39
2
10
1.990839
20
128.390629
11
2.213415
21
127.903806
0
LINE
8
boundary
62
5
39
2
10
2.213415
20
127.903806
11
2.481290
21
127.440386
0
LINE
8
boundary
62
5
39
2
10
2.481290
20
127.440386
11
2.792030
21
127.004583
0
LINE
8
boundary
62
5
39
2
10
2.792030
20
127.004583
11
3.142807
21
126.600343
0
LINE
8
boundary
62
5
39
2
10
3.142807
20
126.600343
11
3.530430
21
126.231344
0
LINE
8
boundary
62
5
39
2
10
3.530430
20
126.231344
11
3.951370
21
125.900922
0
LINE
8
boundary
62
5
39
2
10
3.951370
20
125.900922
11
4.401806
21
125.612079
0
LINE
8
boundary
62
5
39
2
10
4.401806
20
125.612079
11
4.877637
21
125.367427
0
LINE
8
boundary
62
5
39
2
10
4.877637
20
125.367427
11
5.374538
21
125.169178
0
LINE
8
boundary
62
5
39
2
10
5.374538
20
125.169178
11
5.887993
21
125.019126
0
LINE
8
boundary
62
5
39
2
10
5.887993
20
125.019126
11
6.413333
21
124.918626
0
LINE
8
boundary
62
5
39
2
10
6.413333
20
124.918626
11
6.677771
21
124.881739
0
LINE
8
annotation
62
1
39
211
10
53.438484
20
144.659988
11
53.438484
21
146.088738
0
LINE
8
annotation
62
1
39
211
10
53.438484
20
144.659988
11
53.438484
21
146.088738
0
LINE
8
annotation
62
1
39
211
10
53.438484
20
146.088738
11
53.438484
21
144.659988
0
LINE
8
annotation
62
1
39
211
10
53.438484
20
144.659988
11
53.438484
21
143.231238
0
LINE
8
annotation
62
1
39
211
10
5.974738
20
144.659988
11
7.403488
21
144.659987
0
LINE
8
annotation
62
1
39
211
10
5.974738
20
144.659988
11
7.403488
21
144.659987
0
LINE
8
annotation
62
1
39
211
10
7.403488
20
144.659987
11
5.974738
21
144.659988
0
LINE
8
annotation
62
1
39
211
10
5.974738
20
144.659988
11
5.974738
21
143.231238
0
LINE
8
annotation
62
1
39
211
10
29.950625
20
240.832346
11
29.950625
21
242.261096
0
LINE
8
annotation
62
1
39
211
10
29.950625
20
128.654846
11
31.379375
21
128.654846
0
LINE
8
annotation
62
1
39
211
10
57.185486
20
185.579099
11
54.784696
21
185.579099
0
LINE
8
annotation
62
1
39
211
10
54.784696
20
185.579099
11
55.743494
21
188.941668
0
LINE
8
annotation
62
1
39
211
10
56.465845
20
184.617861
11
56.465845
21
186.538168
0
LINE
8
hole
62
5
39
2
10
53.152734
20
267.642979
11
53.724234
21
267.642979
0
LINE
8
hole
62
5
39
2
10
53.724234
20
267.642979
11
53.724234
21
268.214479
0
LINE
8
hole
62
5
39
2
10
53.724234
20
268.214479
11
53.152734
21
268.214479
0
LINE
8
hole
62
5
39
2
10
53.152734
20
268.214479
11
53.152734
21
267.642979
0
LINE
8
hole
62
5
39
2
10
5.688988
20
267.642979
11
6.260488
21
267.642979
0
LINE
8
hole
62
5
39
2
10
6.260488
20
267.642979
11
6.260488
21
268.214479
0
LINE
8
hole
62
5
39
2
10
6.260488
20
268.214479
11
5.688988
21
268.214479
0
LINE
8
hole
62
5
39
2
10
5.688988
20
268.214479
11
5.688988
21
267.642979
0
LINE
8
hole
62
5
39
2
10
29.664875
20
363.815338
11
30.236375
21
363.815338
0
LINE
8
hole
62
5
39
2
10
30.236375
20
363.815338
11
30.236375
21
364.386838
0
LINE
8
hole
62
5
39
2
10
30.236375
20
364.386838
11
29.664875
21
364.386838
0
LINE
8
hole
62
5
39
2
10
29.664875
20
364.386838
11
29.664875
21
363.815338
0
LINE
8
hole
62
5
39
2
10
29.664875
20
251.637838
11
30.236375
21
251.637838
0
LINE
8
hole
62
5
39
2
10
30.236375
20
251.637838
11
30.236375
21
252.209338
0
LINE
8
hole
62
5
39
2
10
30.236375
20
252.209338
11
29.664875
21
252.209338
0
LINE
8
hole
62
5
39
2
10
29.664875
20
252.209338
11
29.664875
21
251.637838
0
LINE
8
hole
62
5
39
2
10
10.794723
20
256.833796
11
10.794723
21
261.465463
0
LINE
8
hole
62
5
39
2
10
10.794723
20
261.465463
11
9.566890
21
261.465464
0
LINE
8
hole
62
5
39
2
10
9.566890
20
261.465464
11
7.813473
21
261.465463
0
LINE
8
hole
62
5
39
2
10
7.813473
20
261.465463
11
7.813474
21
269.957370
0
LINE
8
hole
62
5
39
2
10
7.813474
20
269.957370
11
7.813474
21
271.091051
0
LINE
8
hole
62
5
39
2
10
7.813474
20
271.091051
11
3.831613
21
271.091051
0
LINE
8
hole
62
5
39
2
10
3.831613
20
271.091051
11
3.831613
21
281.823551
0
LINE
8
hole
62
5
39
2
10
3.831613
20
281.823551
11
3.831613
21
362.216045
0
LINE
8
hole
62
5
39
2
10
3.831613
20
362.216045
11
7.813473
21
362.216045
0
LINE
8
hole
62
5
39
2
10
7.813473
20
362.216045
11
25.883472
21
362.434213
0
LINE
8
hole
62
5
39
2
10
25.883472
20
362.434213
11
51.688468
21
362.434213
0
LINE
8
hole
62
5
39
2
10
51.688468
20
362.434213
11
55.581609
21
362.216045
0
LINE
8
hole
62
5
39
2
10
55.581609
20
362.216045
11
55.581609
21
351.483545
0
LINE
8
hole
62
5
39
2
10
55.581609
20
351.483545
11
55.581609
21
271.091051
0
LINE
8
hole
62
5
39
2
10
55.581609
20
271.091051
11
51.688468
21
271.091051
0
LINE
8
hole
62
5
39
2
10
51.688468
20
271.091051
11
51.688468
21
269.957371
0
LINE
8
hole
62
5
39
2
10
51.688468
20
269.957371
11
51.688468
21
261.465464
0
LINE
8
hole
62
5
39
2
10
51.688468
20
261.465464
11
46.985636
21
261.465463
0
LINE
8
hole
62
5
39
2
10
46.985636
20
261.465463
11
40.269722
21
261.465463
0
LINE
8
hole
62
5
39
2
10
40.269722
20
261.465463
11
40.269722
21
258.222130
0
LINE
8
hole
62
5
39
2
10
40.269722
20
258.222130
11
40.269722
21
253.590463
0
LINE
8
hole
62
5
39
2
10
40.269722
20
253.590463
11
28.130389
21
253.590463
0
LINE
8
hole
62
5
39
2
10
28.130389
20
253.590463
11
10.794723
21
253.590463
0
LINE
8
hole
62
5
39
2
10
10.794723
20
253.590463
11
10.794723
21
256.833796
0
LINE
8
boundary
62
5
39
2
10
6.664477
20
248.151753
11
7.212500
21
248.124984
0
LINE
8
boundary
62
5
39
2
10
7.212500
20
248.124984
11
27.399997
21
248.124984
0
LINE
8
boundary
62
5
39
2
10
27.399997
20
248.124984
11
52.212494
21
248.124983
0
LINE
8
boundary
62
5
39
2
10
52.212494
20
248.124983
11
52.760519
21
248.151753
0
LINE
8
boundary
62
5
39
2
10
52.760519
20
248.151753
11
53.303324
21
248.231797
0
LINE
8
boundary
62
5
39
2
10
53.303324
20
248.231797
11
53.835736
21
248.364368
0
LINE
8
boundary
62
5
39
2
10
53.835736
20
248.364368
11
54.352695
21
248.548193
0
LINE
8
boundary
62
5
39
2
10
54.352695
20
248.548193
11
54.849266
21
248.781520
0
LINE
8
boundary
62
5
39
2
10
54.849266
20
248.781520
11
55.320729
21
249.062126
0
LINE
8
boundary
62
5
39
2
10
55.320729
20
249.062126
11
55.762598
21
249.387344
0
LINE
8
boundary
62
5
39
2
10
55.762598
20
249.387344
11
56.170659
21
249.754060
0
LINE
8
boundary
62
5
39
2
10
56.170659
20
249.754060
11
56.541023
21
250.158798
0
LINE
8
boundary
62
5
39
2
10
56.541023
20
250.158798
11
56.870177
21
250.597695
0
LINE
8
boundary
62
5
39
2
10
56.870177
20
250.597695
11
57.154979
21
251.066561
0
LINE
8
boundary
62
5
39
2
10
57.154979
20
251.066561
11
57.392713
21
251.560938
0
LINE
8
boundary
62
5
39
2
10
57.392713
20
251.560938
11
57.581137
21
252.076111
0
LINE
8
boundary
62
5
39
2
10
57.581137
20
252.076111
11
57.718452
21
252.607177
0
LINE
8
boundary
62
5
39
2
10
57.718452
20
252.607177
11
57.803353
21
253.149068
0
LINE
8
boundary
62
5
39
2
10
57.803353
20
253.149068
11
57.837501
21
253.749986
0
LINE
8
boundary
62
5
39
2
10
57.837501
20
253.749986
11
57.837500
21
302.578495
0
LINE
8
boundary
62
5
39
2
10
57.837500
20
302.578495
11
57.837501
21
362.593723
0
LINE
8
boundary
62
5
39
2
10
57.837501
20
362.593723
11
57.810730
21
363.141741
0
LINE
8
boundary
62
5
39
2
10
57.810730
20
363.141741
11
57.730678
21
363.684551
0
LINE
8
boundary
62
5
39
2
10
57.730678
20
363.684551
11
57.598107
21
364.216967
0
LINE
8
boundary
62
5
39
2
10
57.598107
20
364.216967
11
57.414282
21
364.733921
0
LINE
8
boundary
62
5
39
2
10
57.414282
20
364.733921
11
57.180964
21
365.230496
0
LINE
8
boundary
62
5
39
2
10
57.180964
20
365.230496
11
56.900355
21
365.701960
0
LINE
8
boundary
62
5
39
2
10
56.900355
20
365.701960
11
56.575136
21
366.143828
0
LINE
8
boundary
62
5
39
2
10
56.575136
20
366.143828
11
56.208418
21
366.551884
0
LINE
8
boundary
62
5
39
2
10
56.208418
20
366.551884
11
55.803680
21
366.922256
0
LINE
8
boundary
62
5
39
2
10
55.803680
20
366.922256
11
55.364784
21
367.251405
0
LINE
8
boundary
62
5
39
2
10
55.364784
20
367.251405
11
54.895917
21
367.536204
0
LINE
8
boundary
62
5
39
2
10
54.895917
20
367.536204
11
54.401545
21
367.773946
0
LINE
8
boundary
62
5
39
2
10
54.401545
20
367.773946
11
53.886367
21
367.962371
0
LINE
8
boundary
62
5
39
2
10
53.886367
20
367.962371
11
53.355305
21
368.099680
0
LINE
8
boundary
62
5
39
2
10
53.355305
20
368.099680
11
52.813407
21
368.184578
0
LINE
8
boundary
62
5
39
2
10
52.813407
20
368.184578
11
52.212494
21
368.218725
0
LINE
8
boundary
62
5
39
2
10
52.212494
20
368.218725
11
32.024997
21
368.218725
0
LINE
8
boundary
62
5
39
2
10
32.024997
20
368.218725
11
7.212500
21
368.218725
0
LINE
8
boundary
62
5
39
2
10
7.212500
20
368.218725
11
6.664477
21
368.191955
0
LINE
8
boundary
62
5
39
2
10
6.664477
20
368.191955
11
6.121672
21
368.111905
0
LINE
8
boundary
62
5
39
2
10
6.121672
20
368.111905
11
5.589258
21
367.979340
0
LINE
8
boundary
62
5
39
2
10
5.589258
20
367.979340
11
5.072301
21
367.795516
0
LINE
8
boundary
62
5
39
2
10
5.072301
20
367.795516
11
4.575726
21
367.562189
0
LINE
8
boundary
62
5
39
2
10
4.575726
20
367.562189
11
4.104262
21
367.281583
0
LINE
8
boundary
62
5
39
2
10
4.104262
20
367.281583
11
3.662399
21
366.956369
0
LINE
8
boundary
62
5
39
2
10
3.662399
20
366.956369
11
3.254341
21
366.589643
0
LINE
8
boundary
62
5
39
2
10
3.254341
20
366.589643
11
2.883972
21
366.184910
0
LINE
8
boundary
62
5
39
2
10
2.883972
20
366.184910
11
2.554823
21
365.746014
0
LINE
8
boundary
62
5
39
2
10
2.554823
20
365.746014
11
2.270020
21
365.277147
0
LINE
8
boundary
62
5
39
2
10
2.270020
20
365.277147
11
2.032279
21
364.782771
0
LINE
8
boundary
62
5
39
2
10
2.032279
20
364.782771
11
1.843855
21
364.267597
0
LINE
8
boundary
62
5
39
2
10
1.843855
20
364.267597
11
1.706543
21
363.736532
0
LINE
8
boundary
62
5
39
2
10
1.706543
20
363.736532
11
1.621645
21
363.194629
0
LINE
8
boundary
62
5
39
2
10
1.621645
20
363.194629
11
1.587500
21
362.593723
0
LINE
8
boundary
62
5
39
2
10
1.587500
20
362.593723
11
1.587500
21
313.765213
0
LINE
8
boundary
62
5
39
2
10
1.587500
20
313.765213
11
1.587500
21
253.749985
0
LINE
8
boundary
62
5
39
2
10
1.587500
20
253.749985
11
1.614267
21
253.201956
0
LINE
8
boundary
62
5
39
2
10
1.614267
20
253.201956
11
1.694317
21
252.659158
0
LINE
8
boundary
62
5
39
2
10
1.694317
20
252.659158
11
1.826885
21
252.126743
0
LINE
8
boundary
62
5
39
2
10
1.826885
20
252.126743
11
2.010710
21
251.609787
0
LINE
8
boundary
62
5
39
2
10
2.010710
20
251.609787
11
2.244036
21
251.113213
0
LINE
8
boundary
62
5
39
2
10
2.244036
20
251.113213
11
2.524644
21
250.641748
0
LINE
8
boundary
62
5
39
2
10
2.524644
20
250.641748
11
2.849858
21
250.199881
0
LINE
8
boundary
62
5
39
2
10
2.849858
20
250.199881
11
3.216582
21
249.791819
0
LINE
8
boundary
62
5
39
2
10
3.216582
20
249.791819
11
3.621317
21
249.421458
0
LINE
8
boundary
62
5
39
2
10
3.621317
20
249.421458
11
4.060208
21
249.092303
0
LINE
8
boundary
62
5
39
2
10
4.060208
20
249.092303
11
4.529075
21
248.807504
0
LINE
8
boundary
62
5
39
2
10
4.529075
20
248.807504
11
5.023451
21
248.569763
0
LINE
8
boundary
62
5
39
2
10
5.023451
20
248.569763
11
5.538626
21
248.381338
0
LINE
8
boundary
62
5
39
2
10
5.538626
20
248.381338
11
6.069691
21
248.244023
0
LINE
8
boundary
62
5
39
2
10
6.069691
20
248.244023
11
6.611589
21
248.159131
0
LINE
8
boundary
62
5
39
2
10
6.611589
20
248.159131
11
6.664477
21
248.151753
0
LINE
8
annotation
62
1
39
211
10
29.950625
20
364.101088
11
29.950625
21
365.529838
0
LINE
8
annotation
62
1
39
211
10
29.950625
20
364.101088
11
29.950625
21
365.529838
0
LINE
8
annotation
62
1
39
211
10
29.950625
20
365.529838
11
29.950625
21
364.101088
0
LINE
8
annotation
62
1
39
211
10
29.950625
20
364.101088
11
31.379375
21
364.101088
0
LINE
8
annotation
62
1
39
211
10
29.950625
20
251.923588
11
29.950625
21
250.494838
0
LINE
8
annotation
62
1
39
211
10
53.438484
20
267.928729
11
53.438484
21
269.357479
0
LINE
8
annotation
62
1
39
211
10
53.438484
20
267.928729
11
53.438484
21
269.357479
0
LINE
8
annotation
62
1
39
211
10
53.438484
20
269.357479
11
53.438484
21
267.928729
0
LINE
8
annotation
62
1
39
211
10
53.438484
20
267.928729
11
53.438484
21
266.499979
0
LINE
8
annotation
62
1
39
211
10
5.974738
20
267.928729
11
7.403488
21
267.928729
0
LINE
8
annotation
62
1
39
211
10
5.974738
20
267.928729
11
7.403488
21
267.928729
0
LINE
8
annotation
62
1
39
211
10
7.403488
20
267.928729
11
5.974738
21
267.928729
0
LINE
8
annotation
62
1
39
211
10
5.974738
20
267.928729
11
5.974738
21
266.499979
0
LINE
8
annotation
62
1
39
211
10
47.518329
20
251.587168
11
48.478482
21
251.587168
0
LINE
8
annotation
62
1
39
211
10
48.478482
20
251.587168
11
48.478482
21
251.587168
0
LINE
8
annotation
62
1
39
211
10
48.478482
20
251.587168
11
48.651167
21
251.602659
0
LINE
8
annotation
62
1
39
211
10
48.651167
20
251.602659
11
48.813659
21
251.647305
0
LINE
8
annotation
62
1
39
211
10
48.813659
20
251.647305
11
48.963253
21
251.718366
0
LINE
8
annotation
62
1
39
211
10
48.963253
20
251.718366
11
49.097248
21
251.813101
0
LINE
8
annotation
62
1
39
211
10
49.097248
20
251.813101
11
49.212940
21
251.928769
0
LINE
8
annotation
62
1
39
211
10
49.212940
20
251.928769
11
49.307628
21
252.062630
0
LINE
8
annotation
62
1
39
211
10
49.307628
20
252.062630
11
49.378608
21
252.211943
0
LINE
8
annotation
62
1
39
211
10
49.378608
20
252.211943
11
49.423177
21
252.373969
0
LINE
8
annotation
62
1
39
211
10
49.423177
20
252.373969
11
49.438635
21
252.545965
0
LINE
8
annotation
62
1
39
211
10
49.438635
20
252.545965
11
49.438635
21
253.026720
0
LINE
8
annotation
62
1
39
211
10
49.438635
20
253.026720
11
49.438635
21
253.026720
0
LINE
8
annotation
62
1
39
211
10
49.438635
20
253.026720
11
49.423177
21
253.198645
0
LINE
8
annotation
62
1
39
211
10
49.423177
20
253.198645
11
49.378608
21
253.360632
0
LINE
8
annotation
62
1
39
211
10
49.378608
20
253.360632
11
49.307628
21
253.509935
0
LINE
8
annotation
62
1
39
211
10
49.307628
20
253.509935
11
49.212940
21
253.643805
0
LINE
8
annotation
62
1
39
211
10
49.212940
20
253.643805
11
49.097248
21
253.759495
0
LINE
8
annotation
62
1
39
211
10
49.097248
20
253.759495
11
48.963253
21
253.854259
0
LINE
8
annotation
62
1
39
211
10
48.963253
20
253.854259
11
48.813659
21
253.925348
0
LINE
8
annotation
62
1
39
211
10
48.813659
20
253.925348
11
48.651167
21
253.970017
0
LINE
8
annotation
62
1
39
211
10
48.651167
20
253.970017
11
48.478482
21
253.985517
0
LINE
8
annotation
62
1
39
211
10
48.478482
20
253.985517
11
47.997727
21
253.985517
0
LINE
8
annotation
62
1
39
211
10
47.997727
20
253.985517
11
48.478482
21
253.985517
0
LINE
8
annotation
62
1
39
211
10
48.478482
20
253.985517
11
48.478482
21
253.985517
0
LINE
8
annotation
62
1
39
211
10
48.478482
20
253.985517
11
48.651167
21
254.001021
0
LINE
8
annotation
62
1
39
211
10
48.651167
20
254.001021
11
48.813659
21
254.045715
0
LINE
8
annotation
62
1
39
211
10
48.813659
20
254.045715
11
48.963253
21
254.116876
0
LINE
8
annotation
62
1
39
211
10
48.963253
20
254.116876
11
49.097248
21
254.211777
0
LINE
8
annotation
62
1
39
211
10
49.097248
20
254.211777
11
49.212940
21
254.327694
0
LINE
8
annotation
62
1
39
211
10
49.212940
20
254.327694
11
49.307628
21
254.461903
0
LINE
8
annotation
62
1
39
211
10
49.307628
20
254.461903
11
49.378608
21
254.611677
0
LINE
8
annotation
62
1
39
211
10
49.378608
20
254.611677
11
49.423177
21
254.774293
0
LINE
8
annotation
62
1
39
211
10
49.423177
20
254.774293
11
49.438635
21
254.947026
0
LINE
8
annotation
62
1
39
211
10
49.438635
20
254.947026
11
49.438635
21
254.947026
0
LINE
8
annotation
62
1
39
211
10
49.438635
20
254.947026
11
49.423177
21
255.118951
0
LINE
8
annotation
62
1
39
211
10
49.423177
20
255.118951
11
49.378608
21
255.280938
0
LINE
8
annotation
62
1
39
211
10
49.378608
20
255.280938
11
49.307628
21
255.430241
0
LINE
8
annotation
62
1
39
211
10
49.307628
20
255.430241
11
49.212940
21
255.564111
0
LINE
8
annotation
62
1
39
211
10
49.212940
20
255.564111
11
49.097248
21
255.679801
0
LINE
8
annotation
62
1
39
211
10
49.097248
20
255.679801
11
48.963253
21
255.774565
0
LINE
8
annotation
62
1
39
211
10
48.963253
20
255.774565
11
48.813659
21
255.845655
0
LINE
8
annotation
62
1
39
211
10
48.813659
20
255.845655
11
48.651167
21
255.890323
0
LINE
8
annotation
62
1
39
211
10
48.651167
20
255.890323
11
48.478482
21
255.905823
0
LINE
8
annotation
62
1
39
211
10
48.478482
20
255.905823
11
47.518329
21
255.905823
0
LINE
8
hole
62
5
39
2
10
112.577735
20
21.105496
11
113.149235
21
21.105496
0
LINE
8
hole
62
5
39
2
10
113.149235
20
21.105496
11
113.149235
21
21.676996
0
LINE
8
hole
62
5
39
2
10
113.149235
20
21.676996
11
112.577735
21
21.676996
0
LINE
8
hole
62
5
39
2
10
112.577735
20
21.676996
11
112.577735
21
21.105496
0
LINE
8
hole
62
5
39
2
10
65.113988
20
21.105496
11
65.685488
21
21.105496
0
LINE
8
hole
62
5
39
2
10
65.685488
20
21.105496
11
65.685488
21
21.676996
0
LINE
8
hole
62
5
39
2
10
65.685488
20
21.676996
11
65.113988
21
21.676996
0
LINE
8
hole
62
5
39
2
10
65.113988
20
21.676996
11
65.113988
21
21.105496
0
LINE
8
hole
62
5
39
2
10
65.699739
20
117.123913
11
65.360700
21
117.527970
0
LINE
8
hole
62
5
39
2
10
65.360700
20
117.527970
11
65.180298
21
118.023622
0
LINE
8
hole
62
5
39
2
10
65.180298
20
118.023622
11
65.180298
21
118.551079
0
LINE
8
hole
62
5
39
2
10
65.180298
20
118.551079
11
65.360700
21
119.046718
0
LINE
8
hole
62
5
39
2
10
65.360700
20
119.046718
11
65.699739
21
119.450776
0
LINE
8
hole
62
5
39
2
10
65.699739
20
119.450776
11
66.156532
21
119.714513
0
LINE
8
hole
62
5
39
2
10
66.156532
20
119.714513
11
66.675975
21
119.806102
0
LINE
8
hole
62
5
39
2
10
66.675975
20
119.806102
11
67.195417
21
119.714513
0
LINE
8
hole
62
5
39
2
10
67.195417
20
119.714513
11
67.652207
21
119.450776
0
LINE
8
hole
62
5
39
2
10
67.652207
20
119.450776
11
67.991249
21
119.046719
0
LINE
8
hole
62
5
39
2
10
67.991249
20
119.046719
11
68.171651
21
118.551079
0
LINE
8
hole
62
5
39
2
10
68.171651
20
118.551079
11
68.171651
21
118.023622
0
LINE
8
hole
62
5
39
2
10
68.171651
20
118.023622
11
67.991249
21
117.527970
0
LINE
8
hole
62
5
39
2
10
67.991249
20
117.527970
11
67.652207
21
117.123913
0
LINE
8
hole
62
5
39
2
10
67.652207
20
117.123913
11
67.195417
21
116.860194
0
LINE
8
hole
62
5
39
2
10
67.195417
20
116.860194
11
66.675975
21
116.768599
0
LINE
8
hole
62
5
39
2
10
66.675975
20
116.768599
11
66.156532
21
116.860194
0
LINE
8
hole
62
5
39
2
10
66.156532
20
116.860194
11
65.699739
21
117.123913
0
LINE
8
hole
62
5
39
2
10
110.794913
20
117.057273
11
110.427338
21
117.432796
0
LINE
8
hole
62
5
39
2
10
110.427338
20
117.432796
11
110.210364
21
117.911390
0
LINE
8
hole
62
5
39
2
10
110.210364
20
117.911390
11
110.170163
21
118.435330
0
LINE
8
hole
62
5
39
2
10
110.170163
20
118.435330
11
110.311592
21
118.941415
0
LINE
8
hole
62
5
39
2
10
110.311592
20
118.941415
11
110.617577
21
119.368619
0
LINE
8
hole
62
5
39
2
10
110.617577
20
119.368619
11
111.051223
21
119.665404
0
LINE
8
hole
62
5
39
2
10
111.051223
20
119.665404
11
111.560222
21
119.795975
0
LINE
8
hole
62
5
39
2
10
111.560222
20
119.795975
11
112.083185
21
119.744584
0
LINE
8
hole
62
5
39
2
10
112.083185
20
119.744584
11
112.557028
21
119.517418
0
LINE
8
hole
62
5
39
2
10
112.557028
20
119.517418
11
112.924604
21
119.141898
0
LINE
8
hole
62
5
39
2
10
112.924604
20
119.141898
11
113.141574
21
118.663306
0
LINE
8
hole
62
5
39
2
10
113.141574
20
118.663306
11
113.181775
21
118.139368
0
LINE
8
hole
62
5
39
2
10
113.181775
20
118.139368
11
113.040351
21
117.633274
0
LINE
8
hole
62
5
39
2
10
113.040351
20
117.633274
11
112.734361
21
117.206075
0
LINE
8
hole
62
5
39
2
10
112.734361
20
117.206075
11
112.300718
21
116.909297
0
LINE
8
hole
62
5
39
2
10
112.300718
20
116.909297
11
111.791719
21
116.778728
0
LINE
8
hole
62
5
39
2
10
111.791719
20
116.778728
11
111.268756
21
116.830123
0
LINE
8
hole
62
5
39
2
10
111.268756
20
116.830123
11
110.794913
21
117.057273
0
LINE
8
hole
62
5
39
2
10
65.180298
20
4.398623
11
65.180298
21
4.926086
0
LINE
8
hole
62
5
39
2
10
65.180298
20
4.926086
11
65.360700
21
5.421732
0
LINE
8
hole
62
5
39
2
10
65.360700
20
5.421732
11
65.699739
21
5.825789
0
LINE
8
hole
62
5
39
2
10
65.699739
20
5.825789
11
66.156532
21
6.089514
0
LINE
8
hole
62
5
39
2
10
66.156532
20
6.089514
11
66.675975
21
6.181103
0
LINE
8
hole
62
5
39
2
10
66.675975
20
6.181103
11
67.195417
21
6.089514
0
LINE
8
hole
62
5
39
2
10
67.195417
20
6.089514
11
67.652207
21
5.825789
0
LINE
8
hole
62
5
39
2
10
67.652207
20
5.825789
11
67.991249
21
5.421732
0
LINE
8
hole
62
5
39
2
10
67.991249
20
5.421732
11
68.171651
21
4.926086
0
LINE
8
hole
62
5
39
2
10
68.171651
20
4.926086
11
68.171651
21
4.398623
0
LINE
8
hole
62
5
39
2
10
68.171651
20
4.398623
11
67.991249
21
3.902984
0
LINE
8
hole
62
5
39
2
10
67.991249
20
3.902984
11
67.652207
21
3.498926
0
LINE
8
hole
62
5
39
2
10
67.652207
20
3.498926
11
67.195417
21
3.235195
0
LINE
8
hole
62
5
39
2
10
67.195417
20
3.235195
11
66.675975
21
3.143607
0
LINE
8
hole
62
5
39
2
10
66.675975
20
3.143607
11
66.156532
21
3.235195
0
LINE
8
hole
62
5
39
2
10
66.156532
20
3.235195
11
65.699739
21
3.498926
0
LINE
8
hole
62
5
39
2
10
65.699739
20
3.498926
11
65.360700
21
3.902984
0
LINE
8
hole
62
5
39
2
10
65.360700
20
3.902984
11
65.180298
21
4.398623
0
LINE
8
hole
62
5
39
2
10
110.794913
20
3.432281
11
110.427339
21
3.807806
0
LINE
8
hole
62
5
39
2
10
110.427339
20
3.807806
11
110.210364
21
4.286393
0
LINE
8
hole
62
5
39
2
10
110.210364
20
4.286393
11
110.170163
21
4.810337
0
LINE
8
hole
62
5
39
2
10
110.170163
20
4.810337
11
110.311592
21
5.316428
0
LINE
8
hole
62
5
39
2
10
110.311592
20
5.316428
11
110.617577
21
5.743627
0
LINE
8
hole
62
5
39
2
10
110.617577
20
5.743627
11
111.051223
21
6.040411
0
LINE
8
hole
62
5
39
2
10
111.051223
20
6.040411
11
111.560222
21
6.170976
0
LINE
8
hole
62
5
39
2
10
111.560222
20
6.170976
11
112.083185
21
6.119585
0
LINE
8
hole
62
5
39
2
10
112.083185
20
6.119585
11
112.557028
21
5.892432
0
LINE
8
hole
62
5
39
2
10
112.557028
20
5.892432
11
112.924604
21
5.516906
0
LINE
8
hole
62
5
39
2
10
112.924604
20
5.516906
11
113.141574
21
5.038316
0
LINE
8
hole
62
5
39
2
10
113.141574
20
5.038316
11
113.181775
21
4.514372
0
LINE
8
hole
62
5
39
2
10
113.181775
20
4.514372
11
113.040350
21
4.008284
0
LINE
8
hole
62
5
39
2
10
113.040350
20
4.008284
11
112.734361
21
3.581086
0
LINE
8
hole
62
5
39
2
10
112.734361
20
3.581086
11
112.300718
21
3.284298
0
LINE
8
hole
62
5
39
2
10
112.300718
20
3.284298
11
111.791719
21
3.153733
0
LINE
8
hole
62
5
39
2
10
111.791719
20
3.153733
11
111.268756
21
3.205124
0
LINE
8
hole
62
5
39
2
10
111.268756
20
3.205124
11
110.794913
21
3.432281
0
LINE
8
hole
62
5
39
2
10
70.219724
20
13.749647
11
70.219724
21
14.927980
0
LINE
8
hole
62
5
39
2
10
70.219724
20
14.927980
11
67.684557
21
14.927980
0
LINE
8
hole
62
5
39
2
10
67.684557
20
14.927980
11
67.238474
21
17.088389
0
LINE
8
hole
62
5
39
2
10
67.238474
20
17.088389
11
67.238474
21
24.553567
0
LINE
8
hole
62
5
39
2
10
67.238474
20
24.553567
11
64.150320
21
24.553567
0
LINE
8
hole
62
5
39
2
10
64.150320
20
24.553567
11
63.256613
21
24.553567
0
LINE
8
hole
62
5
39
2
10
63.256613
20
24.553567
11
63.256613
21
95.226066
0
LINE
8
hole
62
5
39
2
10
63.256613
20
95.226066
11
63.256613
21
115.678562
0
LINE
8
hole
62
5
39
2
10
63.256613
20
115.678562
11
66.344768
21
115.678562
0
LINE
8
hole
62
5
39
2
10
66.344768
20
115.678562
11
67.238474
21
115.678562
0
LINE
8
hole
62
5
39
2
10
67.238474
20
115.678562
11
104.548470
21
115.896729
0
LINE
8
hole
62
5
39
2
10
104.548470
20
115.896729
11
111.113469
21
115.896729
0
LINE
8
hole
62
5
39
2
10
111.113469
20
115.896729
11
114.132816
21
115.678562
0
LINE
8
hole
62
5
39
2
10
114.132816
20
115.678562
11
115.006610
21
115.678562
0
LINE
8
hole
62
5
39
2
10
115.006610
20
115.678562
11
115.006610
21
45.006063
0
LINE
8
hole
62
5
39
2
10
115.006610
20
45.006063
11
115.006610
21
24.553567
0
LINE
8
hole
62
5
39
2
10
115.006610
20
24.553567
11
111.987262
21
24.553567
0
LINE
8
hole
62
5
39
2
10
111.987262
20
24.553567
11
111.113469
21
24.553567
0
LINE
8
hole
62
5
39
2
10
111.113469
20
24.553567
11
111.113469
21
17.088389
0
LINE
8
hole
62
5
39
2
10
111.113469
20
17.088389
11
111.113468
21
14.927980
0
LINE
8
hole
62
5
39
2
10
111.113468
20
14.927980
11
101.403305
21
14.927980
0
LINE
8
hole
62
5
39
2
10
101.403305
20
14.927980
11
99.694723
21
14.927980
0
LINE
8
hole
62
5
39
2
10
99.694723
20
14.927980
11
99.694723
21
8.231312
0
LINE
8
hole
62
5
39
2
10
99.694723
20
8.231312
11
99.694723
21
7.052979
0
LINE
8
hole
62
5
39
2
10
99.694723
20
7.052979
11
74.630056
21
7.052979
0
LINE
8
hole
62
5
39
2
10
74.630056
20
7.052979
11
70.219724
21
7.052979
0
LINE
8
hole
62
5
39
2
10
70.219724
20
7.052979
11
70.219724
21
13.749647
0
LINE
8
boundary
62
5
39
2
10
62.426915
20
3.484986
11
62.795236
21
3.105918
0
LINE
8
boundary
62
5
39
2
10
62.795236
20
3.105918
11
63.197560
21
2.763117
0
LINE
8
boundary
62
5
39
2
10
63.197560
20
2.763117
11
63.630335
21
2.459614
0
LINE
8
boundary
62
5
39
2
10
63.630335
20
2.459614
11
64.089729
21
2.198103
0
LINE
8
boundary
62
5
39
2
10
64.089729
20
2.198103
11
64.571678
21
1.980901
0
LINE
8
boundary
62
5
39
2
10
64.571678
20
1.980901
11
65.071916
21
1.809938
0
LINE
8
boundary
62
5
39
2
10
65.071916
20
1.809938
11
65.586011
21
1.686725
0
LINE
8
boundary
62
5
39
2
10
65.586011
20
1.686725
11
66.109418
21
1.612361
0
LINE
8
boundary
62
5
39
2
10
66.109418
20
1.612361
11
66.637501
21
1.587500
0
LINE
8
boundary
62
5
39
2
10
66.637501
20
1.587500
11
105.324997
21
1.587500
0
LINE
8
boundary
62
5
39
2
10
105.324997
20
1.587500
11
111.637495
21
1.587500
0
LINE
8
boundary
62
5
39
2
10
111.637495
20
1.587500
11
112.165576
21
1.612361
0
LINE
8
boundary
62
5
39
2
10
112.165576
20
1.612361
11
112.688985
21
1.686725
0
LINE
8
boundary
62
5
39
2
10
112.688985
20
1.686725
11
113.203084
21
1.809938
0
LINE
8
boundary
62
5
39
2
10
113.203084
20
1.809938
11
113.703321
21
1.980901
0
LINE
8
boundary
62
5
39
2
10
113.703321
20
1.980901
11
114.185268
21
2.198103
0
LINE
8
boundary
62
5
39
2
10
114.185268
20
2.198103
11
114.644659
21
2.459614
0
LINE
8
boundary
62
5
39
2
10
114.644659
20
2.459614
11
115.077439
21
2.763117
0
LINE
8
boundary
62
5
39
2
10
115.077439
20
2.763117
11
115.479766
21
3.105918
0
LINE
8
boundary
62
5
39
2
10
115.479766
20
3.105918
11
115.848081
21
3.484986
0
LINE
8
boundary
62
5
39
2
10
115.848081
20
3.484986
11
116.179134
21
3.896957
0
LINE
8
boundary
62
5
39
2
10
116.179134
20
3.896957
11
116.470001
21
4.338169
0
LINE
8
boundary
62
5
39
2
10
116.470001
20
4.338169
11
116.718107
21
4.804732
0
LINE
8
boundary
62
5
39
2
10
116.718107
20
4.804732
11
116.921265
21
5.292495
0
LINE
8
boundary
62
5
39
2
10
116.921265
20
5.292495
11
117.077690
21
5.797144
0
LINE
8
boundary
62
5
39
2
10
117.077690
20
5.797144
11
117.185996
21
6.314201
0
LINE
8
boundary
62
5
39
2
10
117.185996
20
6.314201
11
117.262501
21
7.212502
0
LINE
8
boundary
62
5
39
2
10
117.262501
20
7.212502
11
117.262501
21
100.787884
0
LINE
8
boundary
62
5
39
2
10
117.262501
20
100.787884
11
117.262501
21
116.056240
0
LINE
8
boundary
62
5
39
2
10
117.262501
20
116.056240
11
117.237633
21
116.584320
0
LINE
8
boundary
62
5
39
2
10
117.237633
20
116.584320
11
117.163271
21
117.107733
0
LINE
8
boundary
62
5
39
2
10
117.163271
20
117.107733
11
117.040059
21
117.621831
0
LINE
8
boundary
62
5
39
2
10
117.040059
20
117.621831
11
116.869091
21
118.122063
0
LINE
8
boundary
62
5
39
2
10
116.869091
20
118.122063
11
116.651894
21
118.604010
0
LINE
8
boundary
62
5
39
2
10
116.651894
20
118.604010
11
116.390382
21
119.063404
0
LINE
8
boundary
62
5
39
2
10
116.390382
20
119.063404
11
116.086877
21
119.496179
0
LINE
8
boundary
62
5
39
2
10
116.086877
20
119.496179
11
115.744078
21
119.898506
0
LINE
8
boundary
62
5
39
2
10
115.744078
20
119.898506
11
115.365014
21
120.266828
0
LINE
8
boundary
62
5
39
2
10
115.365014
20
120.266828
11
114.953045
21
120.597877
0
LINE
8
boundary
62
5
39
2
10
114.953045
20
120.597877
11
114.511823
21
120.888746
0
LINE
8
boundary
62
5
39
2
10
114.511823
20
120.888746
11
114.045268
21
121.136854
0
LINE
8
boundary
62
5
39
2
10
114.045268
20
121.136854
11
113.557503
21
121.340015
0
LINE
8
boundary
62
5
39
2
10
113.557503
20
121.340015
11
113.052856
21
121.496429
0
LINE
8
boundary
62
5
39
2
10
113.052856
20
121.496429
11
112.535791
21
121.604734
0
LINE
8
boundary
62
5
39
2
10
112.535791
20
121.604734
11
111.637495
21
121.681242
0
LINE
8
boundary
62
5
39
2
10
111.637495
20
121.681242
11
72.949999
21
121.681242
0
LINE
8
boundary
62
5
39
2
10
72.949999
20
121.681242
11
66.637501
21
121.681242
0
LINE
8
boundary
62
5
39
2
10
66.637501
20
121.681242
11
66.109418
21
121.656380
0
LINE
8
boundary
62
5
39
2
10
66.109418
20
121.656380
11
65.586011
21
121.582010
0
LINE
8
boundary
62
5
39
2
10
65.586011
20
121.582010
11
65.071916
21
121.458800
0
LINE
8
boundary
62
5
39
2
10
65.071916
20
121.458800
11
64.571677
21
121.287840
0
LINE
8
boundary
62
5
39
2
10
64.571677
20
121.287840
11
64.089729
21
121.070639
0
LINE
8
boundary
62
5
39
2
10
64.089729
20
121.070639
11
63.630335
21
120.809127
0
LINE
8
boundary
62
5
39
2
10
63.630335
20
120.809127
11
63.197560
21
120.505622
0
LINE
8
boundary
62
5
39
2
10
63.197560
20
120.505622
11
62.795236
21
120.162822
0
LINE
8
boundary
62
5
39
2
10
62.795236
20
120.162822
11
62.426915
21
119.783756
0
LINE
8
boundary
62
5
39
2
10
62.426915
20
119.783756
11
62.095861
21
119.371785
0
LINE
8
boundary
62
5
39
2
10
62.095861
20
119.371785
11
61.804994
21
118.930568
0
LINE
8
boundary
62
5
39
2
10
61.804994
20
118.930568
11
61.556890
21
118.464009
0
LINE
8
boundary
62
5
39
2
10
61.556890
20
118.464009
11
61.353730
21
117.976247
0
LINE
8
boundary
62
5
39
2
10
61.353730
20
117.976247
11
61.197310
21
117.471602
0
LINE
8
boundary
62
5
39
2
10
61.197310
20
117.471602
11
61.089005
21
116.954537
0
LINE
8
boundary
62
5
39
2
10
61.089005
20
116.954537
11
61.012501
21
116.056240
0
LINE
8
boundary
62
5
39
2
10
61.012501
20
116.056240
11
61.012501
21
22.480857
0
LINE
8
boundary
62
5
39
2
10
61.012501
20
22.480857
11
61.012501
21
7.212502
0
LINE
8
boundary
62
5
39
2
10
61.012501
20
7.212502
11
61.037361
21
6.684419
0
LINE
8
boundary
62
5
39
2
10
61.037361
20
6.684419
11
61.111729
21
6.161009
0
LINE
8
boundary
62
5
39
2
10
61.111729
20
6.161009
11
61.234941
21
5.646915
0
LINE
8
boundary
62
5
39
2
10
61.234941
20
5.646915
11
61.405904
21
5.146679
0
LINE
8
boundary
62
5
39
2
10
61.405904
20
5.146679
11
61.623105
21
4.664732
0
LINE
8
boundary
62
5
39
2
10
61.623105
20
4.664732
11
61.884614
21
4.205333
0
LINE
8
boundary
62
5
39
2
10
61.884614
20
4.205333
11
62.188117
21
3.772563
0
LINE
8
boundary
62
5
39
2
10
62.188117
20
3.772563
11
62.426915
21
3.484986
0
LINE
8
annotation
62
1
39
211
10
112.863485
20
21.391246
11
112.863485
21
22.819996
0
LINE
8
annotation
62
1
39
211
10
65.399738
20
21.391246
11
66.828488
21
21.391246
0
LINE
8
annotation
62
1
39
211
10
116.371058
20
10.394255
11
116.371058
21
19.041869
0
LINE
8
annotation
62
1
39
211
10
116.371058
20
19.041869
11
114.448583
21
17.118851
0
LINE
8
hole
62
5
39
2
10
112.577735
20
144.374237
11
113.149235
21
144.374237
0
LINE
8
hole
62
5
39
2
10
113.149235
20
144.374237
11
113.149235
21
144.945737
0
LINE
8
hole
62
5
39
2
10
113.149235
20
144.945737
11
112.577735
21
144.945737
0
LINE
8
hole
62
5
39
2
10
112.577735
20
144.945737
11
112.577735
21
144.374237
0
LINE
8
hole
62
5
39
2
10
65.113988
20
144.374237
11
65.685488
21
144.374237
0
LINE
8
hole
62
5
39
2
10
65.685488
20
144.374237
11
65.685488
21
144.945737
0
LINE
8
hole
62
5
39
2
10
65.685488
20
144.945737
11
65.113988
21
144.945737
0
LINE
8
hole
62
5
39
2
10
65.113988
20
144.945737
11
65.113988
21
144.374237
0
LINE
8
hole
62
5
39
2
10
89.089876
20
240.546596
11
89.661376
21
240.546596
0
LINE
8
hole
62
5
39
2
10
89.661376
20
240.546596
11
89.661376
21
241.118096
0
LINE
8
hole
62
5
39
2
10
89.661376
20
241.118096
11
89.089876
21
241.118096
0
LINE
8
hole
62
5
39
2
10
89.089876
20
241.118096
11
89.089876
21
240.546596
0
LINE
8
hole
62
5
39
2
10
89.089876
20
128.369096
11
89.661376
21
128.369096
0
LINE
8
hole
62
5
39
2
10
89.661376
20
128.369096
11
89.661376
21
128.940596
0
LINE
8
hole
62
5
39
2
10
89.661376
20
128.940596
11
89.089876
21
128.940596
0
LINE
8
hole
62
5
39
2
10
89.089876
20
128.940596
11
89.089876
21
128.369096
0
LINE
8
hole
62
5
39
2
10
70.219724
20
135.291721
11
70.219724
21
138.196722
0
LINE
8
hole
62
5
39
2
10
70.219724
20
138.196722
11
68.338224
21
138.196722
0
LINE
8
hole
62
5
39
2
10
68.338224
20
138.196722
11
67.238474
21
138.196721
0
LINE
8
hole
62
5
39
2
10
67.238474
20
138.196721
11
67.238474
21
143.522880
0
LINE
8
hole
62
5
39
2
10
67.238474
20
143.522880
11
67.238474
21
147.822309
0
LINE
8
hole
62
5
39
2
10
67.238474
20
147.822309
11
65.459910
21
147.822309
0
LINE
8
hole
62
5
39
2
10
65.459910
20
147.822309
11
63.256613
21
147.822309
0
LINE
8
hole
62
5
39
2
10
63.256613
20
147.822309
11
63.256613
21
188.524809
0
LINE
8
hole
62
5
39
2
10
63.256613
20
188.524809
11
63.256614
21
238.947303
0
LINE
8
hole
62
5
39
2
10
63.256614
20
238.947303
11
65.035178
21
238.947303
0
LINE
8
hole
62
5
39
2
10
65.035178
20
238.947303
11
67.238474
21
238.947303
0
LINE
8
hole
62
5
39
2
10
67.238474
20
238.947303
11
94.928471
21
239.165471
0
LINE
8
hole
62
5
39
2
10
94.928471
20
239.165471
11
111.113468
21
239.165471
0
LINE
8
hole
62
5
39
2
10
111.113468
20
239.165471
11
112.852405
21
238.947303
0
LINE
8
hole
62
5
39
2
10
112.852405
20
238.947303
11
115.006610
21
238.947303
0
LINE
8
hole
62
5
39
2
10
115.006610
20
238.947303
11
115.006610
21
198.244804
0
LINE
8
hole
62
5
39
2
10
115.006610
20
198.244804
11
115.006610
21
147.822309
0
LINE
8
hole
62
5
39
2
10
115.006610
20
147.822309
11
113.267673
21
147.822309
0
LINE
8
hole
62
5
39
2
10
113.267673
20
147.822309
11
111.113469
21
147.822309
0
LINE
8
hole
62
5
39
2
10
111.113469
20
147.822309
11
111.113469
21
143.522880
0
LINE
8
hole
62
5
39
2
10
111.113469
20
143.522880
11
111.113468
21
138.196722
0
LINE
8
hole
62
5
39
2
10
111.113468
20
138.196722
11
103.906971
21
138.196722
0
LINE
8
hole
62
5
39
2
10
103.906971
20
138.196722
11
99.694723
21
138.196722
0
LINE
8
hole
62
5
39
2
10
99.694723
20
138.196722
11
99.694723
21
133.226721
0
LINE
8
hole
62
5
39
2
10
99.694723
20
133.226721
11
99.694723
21
130.321721
0
LINE
8
hole
62
5
39
2
10
99.694723
20
130.321721
11
81.092723
21
130.321721
0
LINE
8
hole
62
5
39
2
10
81.092723
20
130.321721
11
70.219724
21
130.321721
0
LINE
8
hole
62
5
39
2
10
70.219724
20
130.321721
11
70.219724
21
135.291721
0
LINE
8
boundary
62
5
39
2
10
62.348287
20
126.844613
11
62.717973
21
126.448432
0
LINE
8
boundary
62
5
39
2
10
62.717973
20
126.448432
11
63.124120
21
126.089687
0
LINE
8
boundary
62
5
39
2
10
63.124120
20
126.089687
11
63.562954
21
125.771708
0
LINE
8
boundary
62
5
39
2
10
63.562954
20
125.771708
11
64.030394
21
125.497466
0
LINE
8
boundary
62
5
39
2
10
64.030394
20
125.497466
11
64.522094
21
125.269515
0
LINE
8
boundary
62
5
39
2
10
64.522094
20
125.269515
11
65.033478
21
125.089977
0
LINE
8
boundary
62
5
39
2
10
65.033478
20
125.089977
11
65.559785
21
124.960526
0
LINE
8
boundary
62
5
39
2
10
65.559785
20
124.960526
11
66.096124
21
124.882375
0
LINE
8
boundary
62
5
39
2
10
66.096124
20
124.882375
11
66.637501
21
124.856242
0
LINE
8
boundary
62
5
39
2
10
66.637501
20
124.856242
11
96.074997
21
124.856242
0
LINE
8
boundary
62
5
39
2
10
96.074997
20
124.856242
11
111.637495
21
124.856242
0
LINE
8
boundary
62
5
39
2
10
111.637495
20
124.856242
11
112.178872
21
124.882375
0
LINE
8
boundary
62
5
39
2
10
112.178872
20
124.882375
11
112.715211
21
124.960526
0
LINE
8
boundary
62
5
39
2
10
112.715211
20
124.960526
11
113.241519
21
125.089977
0
LINE
8
boundary
62
5
39
2
10
113.241519
20
125.089977
11
113.752904
21
125.269515
0
LINE
8
boundary
62
5
39
2
10
113.752904
20
125.269515
11
114.244600
21
125.497466
0
LINE
8
boundary
62
5
39
2
10
114.244600
20
125.497466
11
114.712040
21
125.771708
0
LINE
8
boundary
62
5
39
2
10
114.712040
20
125.771708
11
115.150879
21
126.089688
0
LINE
8
boundary
62
5
39
2
10
115.150879
20
126.089688
11
115.557029
21
126.448432
0
LINE
8
boundary
62
5
39
2
10
115.557029
20
126.448432
11
115.926709
21
126.844613
0
LINE
8
boundary
62
5
39
2
10
115.926709
20
126.844613
11
116.256496
21
127.274534
0
LINE
8
boundary
62
5
39
2
10
116.256496
20
127.274534
11
116.543320
21
127.734183
0
LINE
8
boundary
62
5
39
2
10
116.543320
20
127.734183
11
116.784511
21
128.219289
0
LINE
8
boundary
62
5
39
2
10
116.784511
20
128.219289
11
116.977847
21
128.725325
0
LINE
8
boundary
62
5
39
2
10
116.977847
20
128.725325
11
117.121532
21
129.247585
0
LINE
8
boundary
62
5
39
2
10
117.121532
20
129.247585
11
117.214234
21
129.781198
0
LINE
8
boundary
62
5
39
2
10
117.214234
20
129.781198
11
117.262501
21
130.481243
0
LINE
8
boundary
62
5
39
2
10
117.262501
20
130.481243
11
117.262501
21
201.683190
0
LINE
8
boundary
62
5
39
2
10
117.262501
20
201.683190
11
117.262501
21
239.324981
0
LINE
8
boundary
62
5
39
2
10
117.262501
20
239.324981
11
117.236365
21
239.866353
0
LINE
8
boundary
62
5
39
2
10
117.236365
20
239.866353
11
117.158210
21
240.402697
0
LINE
8
boundary
62
5
39
2
10
117.158210
20
240.402697
11
117.028758
21
240.929007
0
LINE
8
boundary
62
5
39
2
10
117.028758
20
240.929007
11
116.849219
21
241.440388
0
LINE
8
boundary
62
5
39
2
10
116.849219
20
241.440388
11
116.621275
21
241.932086
0
LINE
8
boundary
62
5
39
2
10
116.621275
20
241.932086
11
116.347031
21
242.399527
0
LINE
8
boundary
62
5
39
2
10
116.347031
20
242.399527
11
116.029050
21
242.838364
0
LINE
8
boundary
62
5
39
2
10
116.029050
20
242.838364
11
115.670305
21
243.244511
0
LINE
8
boundary
62
5
39
2
10
115.670305
20
243.244511
11
115.274125
21
243.614199
0
LINE
8
boundary
62
5
39
2
10
115.274125
20
243.614199
11
114.844205
21
243.943981
0
LINE
8
boundary
62
5
39
2
10
114.844205
20
243.943981
11
114.384553
21
244.230804
0
LINE
8
boundary
62
5
39
2
10
114.384553
20
244.230804
11
113.899453
21
244.472001
0
LINE
8
boundary
62
5
39
2
10
113.899453
20
244.472001
11
113.393413
21
244.665338
0
LINE
8
boundary
62
5
39
2
10
113.393413
20
244.665338
11
112.871156
21
244.809015
0
LINE
8
boundary
62
5
39
2
10
112.871156
20
244.809015
11
112.337535
21
244.901716
0
LINE
8
boundary
62
5
39
2
10
112.337535
20
244.901716
11
111.637495
21
244.949983
0
LINE
8
boundary
62
5
39
2
10
111.637495
20
244.949983
11
82.199998
21
244.949983
0
LINE
8
boundary
62
5
39
2
10
82.199998
20
244.949983
11
66.637501
21
244.949983
0
LINE
8
boundary
62
5
39
2
10
66.637501
20
244.949983
11
66.096124
21
244.923850
0
LINE
8
boundary
62
5
39
2
10
66.096124
20
244.923850
11
65.559785
21
244.845693
0
LINE
8
boundary
62
5
39
2
10
65.559785
20
244.845693
11
65.033478
21
244.716246
0
LINE
8
boundary
62
5
39
2
10
65.033478
20
244.716246
11
64.522094
21
244.536710
0
LINE
8
boundary
62
5
39
2
10
64.522094
20
244.536710
11
64.030394
21
244.308758
0
LINE
8
boundary
62
5
39
2
10
64.030394
20
244.308758
11
63.562954
21
244.034517
0
LINE
8
boundary
62
5
39
2
10
63.562954
20
244.034517
11
63.124120
21
243.716539
0
LINE
8
boundary
62
5
39
2
10
63.124120
20
243.716539
11
62.717973
21
243.357789
0
LINE
8
boundary
62
5
39
2
10
62.717973
20
243.357789
11
62.348287
21
242.961611
0
LINE
8
boundary
62
5
39
2
10
62.348287
20
242.961611
11
62.018503
21
242.531690
0
LINE
8
boundary
62
5
39
2
10
62.018503
20
242.531690
11
61.731679
21
242.072040
0
LINE
8
boundary
62
5
39
2
10
61.731679
20
242.072040
11
61.490483
21
241.586936
0
LINE
8
boundary
62
5
39
2
10
61.490483
20
241.586936
11
61.297147
21
241.080900
0
LINE
8
boundary
62
5
39
2
10
61.297147
20
241.080900
11
61.153466
21
240.558641
0
LINE
8
boundary
62
5
39
2
10
61.153466
20
240.558641
11
61.060765
21
240.025018
0
LINE
8
boundary
62
5
39
2
10
61.060765
20
240.025018
11
61.012501
21
239.324981
0
LINE
8
boundary
62
5
39
2
10
61.012501
20
239.324981
11
61.012501
21
168.123035
0
LINE
8
boundary
62
5
39
2
10
61.012501
20
168.123035
11
61.012501
21
130.481244
0
LINE
8
boundary
62
5
39
2
10
61.012501
20
130.481244
11
61.038632
21
129.939863
0
LINE
8
boundary
62
5
39
2
10
61.038632
20
129.939863
11
61.116788
21
129.403528
0
LINE
8
boundary
62
5
39
2
10
61.116788
20
129.403528
11
61.246237
21
128.877219
0
LINE
8
boundary
62
5
39
2
10
61.246237
20
128.877219
11
61.425775
21
128.365837
0
LINE
8
boundary
62
5
39
2
10
61.425775
20
128.365837
11
61.653726
21
127.874138
0
LINE
8
boundary
62
5
39
2
10
61.653726
20
127.874138
11
61.927968
21
127.406696
0
LINE
8
boundary
62
5
39
2
10
61.927968
20
127.406696
11
62.245945
21
126.967861
0
LINE
8
boundary
62
5
39
2
10
62.245945
20
126.967861
11
62.348287
21
126.844613
0
LINE
8
annotation
62
1
39
211
10
112.863485
20
144.659987
11
112.863485
21
146.088737
0
LINE
8
annotation
62
1
39
211
10
65.399738
20
144.659987
11
66.828488
21
144.659987
0
LINE
8
annotation
62
1
39
211
10
89.375626
20
240.832346
11
89.375626
21
242.261096
0
LINE
8
annotation
62
1
39
211
10
89.375626
20
240.832346
11
89.375626
21
242.261096
0
LINE
8
annotation
62
1
39
211
10
89.375626
20
242.261096
11
89.375626
21
240.832346
0
LINE
8
annotation
62
1
39
211
10
89.375626
20
240.832346
11
90.804376
21
240.832346
0
LINE
8
annotation
62
1
39
211
10
89.375626
20
128.654846
11
89.375626
21
127.226096
0
LINE
8
annotation
62
1
39
211
10
108.863635
20
128.318255
11
106.943329
21
128.318255
0
LINE
8
annotation
62
1
39
211
10
106.943329
20
128.318255
11
108.717755
21
131.174853
0
LINE
8
annotation
62
1
39
211
10
108.717755
20
131.174853
11
108.717755
21
131.174853
0
LINE
8
annotation
62
1
39
211
10
108.717755
20
131.174853
11
108.719876
21
131.177478
0
LINE
8
annotation
62
1
39
211
10
108.719876
20
131.177478
11
108.721910
21
131.180125
0
LINE
8
annotation
62
1
39
211
10
108.721910
20
131.180125
11
108.723871
21
131.182817
0
LINE
8
annotation
62
1
39
211
10
108.723871
20
131.182817
11
108.725771
21
131.185576
0
LINE
8
annotation
62
1
39
211
10
108.725771
20
131.185576
11
108.727625
21
131.188424
0
LINE
8
annotation
62
1
39
211
10
108.727625
20
131.188424
11
108.729445
21
131.191383
0
LINE
8
annotation
62
1
39
211
10
108.729445
20
131.191383
11
108.731244
21
131.194477
0
LINE
8
annotation
62
1
39
211
10
108.731244
20
131.194477
11
108.733038
21
131.197727
0
LINE
8
annotation
62
1
39
211
10
108.733038
20
131.197727
11
108.734838
21
131.201155
0
LINE
8
annotation
62
1
39
211
10
108.734838
20
131.201155
11
108.734838
21
131.201155
0
LINE
8
annotation
62
1
39
211
10
108.734838
20
131.201155
11
108.808103
21
131.358462
0
LINE
8
annotation
62
1
39
211
10
108.808103
20
131.358462
11
108.850904
21
131.521525
0
LINE
8
annotation
62
1
39
211
10
108.850904
20
131.521525
11
108.864288
21
131.686659
0
LINE
8
annotation
62
1
39
211
10
108.864288
20
131.686659
11
108.849305
21
131.850180
0
LINE
8
annotation
62
1
39
211
10
108.849305
20
131.850180
11
108.807004
21
132.008402
0
LINE
8
annotation
62
1
39
211
10
108.807004
20
132.008402
11
108.738433
21
132.157642
0
LINE
8
annotation
62
1
39
211
10
108.738433
20
132.157642
11
108.644641
21
132.294215
0
LINE
8
annotation
62
1
39
211
10
108.644641
20
132.294215
11
108.526678
21
132.414436
0
LINE
8
annotation
62
1
39
211
10
108.526678
20
132.414436
11
108.385592
21
132.514620
0
LINE
8
annotation
62
1
39
211
10
108.385592
20
132.514620
11
108.385592
21
132.514620
0
LINE
8
annotation
62
1
39
211
10
108.385592
20
132.514620
11
108.227847
21
132.586845
0
LINE
8
annotation
62
1
39
211
10
108.227847
20
132.586845
11
108.064534
21
132.628986
0
LINE
8
annotation
62
1
39
211
10
108.064534
20
132.628986
11
107.899304
21
132.641992
0
LINE
8
annotation
62
1
39
211
10
107.899304
20
132.641992
11
107.735808
21
132.626812
0
LINE
8
annotation
62
1
39
211
10
107.735808
20
132.626812
11
107.577698
21
132.584393
0
LINE
8
annotation
62
1
39
211
10
107.577698
20
132.584393
11
107.428623
21
132.515685
0
LINE
8
annotation
62
1
39
211
10
107.428623
20
132.515685
11
107.292235
21
132.421636
0
LINE
8
annotation
62
1
39
211
10
107.292235
20
132.421636
11
107.172186
21
132.303194
0
LINE
8
annotation
62
1
39
211
10
107.172186
20
132.303194
11
107.072127
21
132.161308
0
LINE
8
annotation
62
1
39
211
10
107.072127
20
132.161308
11
106.946041
21
131.919439
0
LINE
8
frame
62
5
39
2
10
0.000000
20
0.000000
11
400.000000
21
0.000000
0
LINE
8
frame
62
5
39
2
10
400.000000
20
0.000000
11
400.000000
21
400.000000
0
LINE
8
frame
62
5
39
2
10
400.000000
20
400.000000
11
0.000000
21
400.000000
0
LINE
8
frame
62
5
39
2
10
0.000000
20
400.000000
11
0.000000
21
0.000000
0
ENDSEC
0
EOF
