0
SECTION
2
HEADER
9
$INSUNITS
70
4
9
$ACADVER
1
AC1014
9
$HANDSEED
5
FFFF
0
ENDSEC
0
SECTION
2
TABLES
0
TABLE
2
VPORT
5
8
100
AcDbSymbolTable
0
ENDTAB
0
TABLE
2
LTYPE
5
5
100
AcDbSymbolTable
0
LTYPE
5
14
100
AcDbSymbolTableRecord
100
AcDbLinetypeTableRecord
2
BYBLOCK
70
0
0
LTYPE
5
15
100
AcDbSymbolTableRecord
100
AcDbLinetypeTableRecord
2
BYLAYER
70
0
0
ENDTAB
0
TABLE
2
LAYER
5
2
100
AcDbSymbolTable
70
2
0
LAYER
5
50
100
AcDbSymbolTableRecord
100
AcDbLayerTableRecord
2
0
70
0
6
CONTINUOUS
0
ENDTAB
0
TABLE
2
STYLE
5
3
100
AcDbSymbolTable
70
1
0
STYLE
5
11
100
AcDbSymbolTableRecord
100
AcDbTextStyleTableRecord
2
STANDARD
70
0
0
ENDTAB
0
TABLE
2
VIEW
5
6
100
AcDbSymbolTable
70
0
0
ENDTAB
0
TABLE
2
UCS
5
7
100
AcDbSymbolTable
70
0
0
ENDTAB
0
TABLE
2
APPID
5
9
100
AcDbSymbolTable
70
2
0
APPID
5
12
100
AcDbSymbolTableRecord
100
AcDbRegAppTableRecord
2
ACAD
70
0
0
ENDTAB
0
TABLE
2
DIMSTYLE
5
A
100
AcDbSymbolTable
70
1
0
ENDTAB
0
TABLE
2
BLOCK_RECORD
5
1
100
AcDbSymbolTable
70
1
0
BLOCK_RECORD
5
1F
100
AcDbSymbolTableRecord
100
AcDbBlockTableRecord
2
*MODEL_SPACE
0
BLOCK_RECORD
5
1B
100
AcDbSymbolTableRecord
100
AcDbBlockTableRecord
2
*PAPER_SPACE
0
ENDTAB
0
ENDSEC
0
SECTION
2
BLOCKS
0
BLOCK
5
20
100
AcDbEntity
100
AcDbBlockBegin
2
*MODEL_SPACE
0
ENDBLK
5
21
100
AcDbEntity
100
AcDbBlockEnd
0
BLOCK
5
1C
100
AcDbEntity
100
AcDbBlockBegin
2
*PAPER_SPACE
0
ENDBLK
5
1D
100
AcDbEntity
100
AcDbBlockEnd
0
ENDSEC
0
SECTION
2
ENTITIES
0
LWPOLYLINE
5
100
100
AcDbEntity
8
0
100
AcDbPolyline
90
20
70
1
43
0.0
10
11.732358556247913
20
63.983793065296489
10
-7.0376414437520403
20
63.983793065301747
10
-7.0376414437595392
20
45.213793065301772
10
1.4623585562404073
20
45.213793065301161
10
1.4623585562406816
20
42.753793065301132
10
-7.0376414437592718
20
42.75379306530516
10
-7.0376414437629444
20
23.983793065305218
10
1.4623585562370573
20
23.983793065306685
10
1.4623585562374597
20
20.983793065306674
10
24.462358556248205
20
20.983793065302315
10
24.462358556247878
20
23.983793065292485
10
32.962358556247892
20
23.983793065289948
10
32.962358556250834
20
42.753793065289955
10
24.462358556250805
20
42.75379306529863
10
24.462358556251218
20
45.213793065298646
10
32.962358556251218
20
45.21379306529613
10
32.962358556251175
20
63.983793065296084
10
14.192358556251172
20
63.983793065297625
10
14.192358556248427
20
55.483793065297633
10
11.732358556248402
20
55.483793065296439
0
LWPOLYLINE
5
101
100
AcDbEntity
8
0
100
AcDbPolyline
90
4
70
1
43
0.0
10
24.826099658262002
20
6.9182961542921326
10
1.4860996582620067
20
6.9182961542921326
10
1.4860996582620078
20
4.4582961542921327
10
24.826099658262002
20
4.4582961542921327
0
ARC
5
102
100
AcDbEntity
8
0
100
AcDbCircle
10
66.8279812108334
20
63.638822124030334
30
0
40
59.999999999999858
210
0
220
0
230
1
100
AcDbArc
50
270.00614674891011
51
359.73027907901786
0
ARC
5
103
100
AcDbEntity
8
0
100
AcDbCircle
10
66.8279812108334
20
63.638822124030334
30
0
40
29.999999999999677
210
0
220
0
230
1
100
AcDbArc
50
270.04580676657878
51
359.46055218059183
0
LINE
5
104
100
AcDbEntity
8
0
100
AcDbLine
10
66.834418071227503
20
3.638822469306906
30
0
11
66.812791726102773
21
17.408805486769069
31
0
0
LINE
5
105
100
AcDbEntity
8
0
100
AcDbLine
10
66.812791726102773
20
17.408805486769069
30
0
11
75.310917793754697
21
17.587280522264411
31
0
0
LINE
5
106
100
AcDbEntity
8
0
100
AcDbLine
10
75.310917793754697
20
17.587280522264411
30
0
11
75.259265018776247
21
20.04673818419662
31
0
0
LINE
5
107
100
AcDbEntity
8
0
100
AcDbLine
10
75.259265018776247
20
20.04673818419662
30
0
11
66.761138951124309
21
19.868263148702162
31
0
0
LINE
5
108
100
AcDbEntity
8
0
100
AcDbLine
10
66.761138951124309
20
19.868263148702162
30
0
11
66.472009393623978
21
33.635227378298296
31
0
0
LINE
5
109
100
AcDbEntity
8
0
100
AcDbLine
10
110.59665154757086
20
54.856372079290317
30
0
11
113.05665154757085
21
54.856372079290352
31
0
0
LINE
5
110
100
AcDbEntity
8
0
100
AcDbLine
10
96.826651547570862
20
63.356372079290324
30
0
11
110.59665154757086
21
63.356372079290324
31
0
0
LINE
5
111
100
AcDbEntity
8
0
100
AcDbLine
10
110.59665154757086
20
63.356372079290324
30
0
11
110.59665154757086
21
54.856372079290317
31
0
0
LINE
5
112
100
AcDbEntity
8
0
100
AcDbLine
10
113.05665154757092
20
63.356372079290367
30
0
11
126.82665154757089
21
63.356372079290324
31
0
0
LINE
5
113
100
AcDbEntity
8
0
100
AcDbLine
10
113.05665154757085
20
54.856372079290352
30
0
11
113.05665154757092
21
63.356372079290367
31
0
0
ENDSEC
0
SECTION
2
OBJECTS
0
DICTIONARY
5
C
100
AcDbDictionary
3
ACAD_GROUP
350
D
3
ACAD_MLINESTYLE
350
17
0
DICTIONARY
5
D
100
AcDbDictionary
0
DICTIONARY
5
1A
330
C
100
AcDbDictionary
0
DICTIONARY
5
17
100
AcDbDictionary
0
ENDSEC
0
EOF
