  0
SECTION
  2
HEADER
  9
$ACADVER
  1
AC1014
  9
$HANDSEED
  5
FFFF
  9
$MEASUREMENT
 70
     1
  0
ENDSEC
  0
SECTION
  2
TABLES
  0
TABLE
  2
VPORT
  5
8
330
0
100
AcDbSymbolTable
 70
     4
  0
VPORT
  5
2E
330
8
100
AcDbSymbolTableRecord
100
AcDbViewportTableRecord
  2
*ACTIVE
 70
     0
 10
0.0
 20
0.0
 11
1.0
 21
1.0
 12
210.0
 22
148.5
 13
0.0
 23
0.0
 14
10.0
 24
10.0
 15
10.0
 25
10.0
 16
0.0
 26
0.0
 36
1.0
 17
0.0
 27
0.0
 37
0.0
 40
341.0
 41
1.24
 42
50.0
 43
0.0
 44
0.0
 50
0.0
 51
0.0
 71
     0
 72
   100
 73
     1
 74
     3
 75
     0
 76
     0
 77
     0
 78
     0
  0
ENDTAB
  0
TABLE
  2
LTYPE
  5
5
330
0
100
AcDbSymbolTable
 70
     1
  0
LTYPE
  5
14
330
5
100
AcDbSymbolTableRecord
100
AcDbLinetypeTableRecord
  2
BYBLOCK
 70
     0
  3

 72
    65
 73
     0
 40
0.0
  0
LTYPE
  5
15
330
5
100
AcDbSymbolTableRecord
100
AcDbLinetypeTableRecord
  2
BYLAYER
 70
     0
  3

 72
    65
 73
     0
 40
0.0
  0
LTYPE
  5
16
330
5
100
AcDbSymbolTableRecord
100
AcDbLinetypeTableRecord
  2
CONTINUOUS
 70
     0
  3
Solid line
 72
    65
 73
     0
 40
0.0
  0
ENDTAB
  0
TABLE
  2
LAYER
  5
2
100
AcDbSymbolTable
 70
2
  0
LAYER
  5
50
100
AcDbSymbolTableRecord
100
AcDbLayerTableRecord
  2
0
 70
0
  6
CONTINUOUS
  0
LAYER
  5
51
100
AcDbSymbolTableRecord
100
AcDbLayerTableRecord
  2
Layer_1
 70
0
  6
CONTINUOUS
  0
ENDTAB
  0
TABLE
  2
STYLE
  5
3
330
0
100
AcDbSymbolTable
 70
     1
  0
STYLE
  5
11
330
3
100
AcDbSymbolTableRecord
100
AcDbTextStyleTableRecord
  2
STANDARD
 70
     0
 40
0.0
 41
1.0
 50
0.0
 71
     0
 42
2.5
  3
txt
  4

  0
ENDTAB
  0
TABLE
  2
VIEW
  5
6
330
0
100
AcDbSymbolTable
 70
     0
  0
ENDTAB
  0
TABLE
  2
UCS
  5
7
330
0
100
AcDbSymbolTable
 70
     0
  0
ENDTAB
  0
TABLE
  2
APPID
  5
9
330
0
100
AcDbSymbolTable
 70
     2
  0
APPID
  5
12
330
9
100
AcDbSymbolTableRecord
100
AcDbRegAppTableRecord
  2
ACAD
 70
     0
  0
ENDTAB
  0
TABLE
  2
DIMSTYLE
  5
A
330
0
100
AcDbSymbolTable
 70
     1
  0
DIMSTYLE
105
27
330
A
100
AcDbSymbolTableRecord
100
AcDbDimStyleTableRecord
  2
ISO-25
 70
     0
  3

  4

  5

  6

  7

 40
1.0
 41
2.5
 42
0.625
 43
3.75
 44
1.25
 45
0.0
 46
0.0
 47
0.0
 48
0.0
140
2.5
141
2.5
142
0.0
143
0.03937007874016
144
1.0
145
0.0
146
1.0
147
0.625
 71
     0
 72
     0
 73
     0
 74
     0
 75
     0
 76
     0
 77
     1
 78
     8
170
     0
171
     3
172
     1
173
     0
174
     0
175
     0
176
     0
177
     0
178
     0
270
     2
271
     2
272
     2
273
     2
274
     3
340
11
275
     0
280
     0
281
     0
282
     0
283
     0
284
     8
285
     0
286
     0
287
     3
288
     0
  0
ENDTAB
  0
TABLE
  2
BLOCK_RECORD
  5
1
330
0
100
AcDbSymbolTable
 70
     1
  0
BLOCK_RECORD
  5
1F
330
1
100
AcDbSymbolTableRecord
100
AcDbBlockTableRecord
  2
*MODEL_SPACE
  0
BLOCK_RECORD
  5
1B
330
1
100
AcDbSymbolTableRecord
100
AcDbBlockTableRecord
  2
*PAPER_SPACE
  0
ENDTAB
  0
ENDSEC
  0
SECTION
  2
BLOCKS
  0
BLOCK
  5
20
330
1F
100
AcDbEntity
  8
0
100
AcDbBlockBegin
  2
*MODEL_SPACE
 70
     0
 10
0.0
 20
0.0
 30
0.0
  3
*MODEL_SPACE
  1

  0
ENDBLK
  5
21
330
1F
100
AcDbEntity
  8
0
100
AcDbBlockEnd
  0
BLOCK
  5
1C
330
1B
100
AcDbEntity
 67
     1
  8
0
100
AcDbBlockBegin
  2
*PAPER_SPACE
  1

  0
ENDBLK
  5
1D
330
1B
100
AcDbEntity
 67
     1
  8
0
100
AcDbBlockEnd
  0
ENDSEC
  0
SECTION
  2
ENTITIES
  0
SPLINE
  5
100
100
AcDbEntity
  8
Layer_1
 62
7
100
AcDbSpline
 70
8
 71
3
 72
8
 73
4
 74
0
 40
0
 40
0
 40
0
 40
0
 40
1
 40
1
 40
1
 40
1
 10
291.109720
 20
360.301833
 30
0.0
 10
291.033184
 20
360.356825
 30
0.0
 10
287.782894
 20
360.646299
 30
0.0
 10
283.886844
 20
360.945184
 30
0.0
  0
SPLINE
  5
101
100
AcDbEntity
  8
Layer_1
 62
7
100
AcDbSpline
 70
8
 71
3
 72
8
 73
4
 74
0
 40
0
 40
0
 40
0
 40
0
 40
1
 40
1
 40
1
 40
1
 10
283.886844
 20
360.945184
 30
0.0
 10
273.006853
 20
361.779789
 30
0.0
 10
257.679612
 20
364.473213
 30
0.0
 10
249.301732
 20
367.022721
 30
0.0
  0
SPLINE
  5
102
100
AcDbEntity
  8
Layer_1
 62
7
100
AcDbSpline
 70
8
 71
3
 72
8
 73
4
 74
0
 40
0
 40
0
 40
0
 40
0
 40
1
 40
1
 40
1
 40
1
 10
249.301732
 20
367.022721
 30
0.0
 10
232.808800
 20
372.041773
 30
0.0
 10
214.731130
 20
380.018069
 30
0.0
 10
202.023839
 20
387.882879
 30
0.0
  0
SPLINE
  5
103
100
AcDbEntity
  8
Layer_1
 62
7
100
AcDbSpline
 70
8
 71
3
 72
8
 73
4
 74
0
 40
0
 40
0
 40
0
 40
0
 40
1
 40
1
 40
1
 40
1
 10
202.023839
 20
387.882879
 30
0.0
 10
193.465392
 20
393.179839
 30
0.0
 10
177.447886
 20
406.073197
 30
0.0
 10
176.769159
 20
408.211739
 30
0.0
  0
SPLINE
  5
104
100
AcDbEntity
  8
Layer_1
 62
7
100
AcDbSpline
 70
8
 71
3
 72
8
 73
4
 74
0
 40
0
 40
0
 40
0
 40
0
 40
1
 40
1
 40
1
 40
1
 10
176.769159
 20
408.211739
 30
0.0
 10
175.958138
 20
410.767030
 30
0.0
 10
176.597379
 20
410.782450
 30
0.0
 10
179.328220
 20
408.273250
 30
0.0
  0
SPLINE
  5
105
100
AcDbEntity
  8
Layer_1
 62
7
100
AcDbSpline
 70
8
 71
3
 72
8
 73
4
 74
0
 40
0
 40
0
 40
0
 40
0
 40
1
 40
1
 40
1
 40
1
 10
179.328220
 20
408.273250
 30
0.0
 10
180.686724
 20
407.025184
 30
0.0
 10
183.672797
 20
404.511477
 30
0.0
 10
185.963956
 20
402.687241
 30
0.0
  0
SPLINE
  5
106
100
AcDbEntity
  8
Layer_1
 62
7
100
AcDbSpline
 70
8
 71
3
 72
8
 73
4
 74
0
 40
0
 40
0
 40
0
 40
0
 40
1
 40
1
 40
1
 40
1
 10
185.963956
 20
402.687241
 30
0.0
 10
188.255143
 20
400.863033
 30
0.0
 10
190.625786
 20
398.901713
 30
0.0
 10
191.232088
 20
398.328746
 30
0.0
  0
SPLINE
  5
107
100
AcDbEntity
  8
Layer_1
 62
7
100
AcDbSpline
 70
8
 71
3
 72
8
 73
4
 74
0
 40
0
 40
0
 40
0
 40
0
 40
1
 40
1
 40
1
 40
1
 10
191.232088
 20
398.328746
 30
0.0
 10
192.301571
 20
397.318139
 30
0.0
 10
193.048784
 20
397.001792
 30
0.0
 10
193.048784
 20
397.559650
 30
0.0
  0
SPLINE
  5
108
100
AcDbEntity
  8
Layer_1
 62
7
100
AcDbSpline
 70
8
 71
3
 72
8
 73
4
 74
0
 40
0
 40
0
 40
0
 40
0
 40
1
 40
1
 40
1
 40
1
 10
193.048784
 20
397.559650
 30
0.0
 10
193.048784
 20
397.709603
 30
0.0
 10
189.114778
 20
401.102504
 30
0.0
 10
184.306567
 20
405.099439
 30
0.0
  0
SPLINE
  5
109
100
AcDbEntity
  8
Layer_1
 62
7
100
AcDbSpline
 70
8
 71
3
 72
8
 73
4
 74
0
 40
0
 40
0
 40
0
 40
0
 40
1
 40
1
 40
1
 40
1
 10
184.306567
 20
405.099439
 30
0.0
 10
175.414085
 20
412.491515
 30
0.0
 10
173.031707
 20
415.199282
 30
0.0
 10
174.878762
 20
415.814967
 30
0.0
  0
SPLINE
  5
10a
100
AcDbEntity
  8
Layer_1
 62
7
100
AcDbSpline
 70
8
 71
3
 72
8
 73
4
 74
0
 40
0
 40
0
 40
0
 40
0
 40
1
 40
1
 40
1
 40
1
 10
174.878762
 20
415.814967
 30
0.0
 10
175.420123
 20
415.995534
 30
0.0
 10
172.310091
 20
419.869644
 30
0.0
 10
167.967556
 20
424.424324
 30
0.0
  0
SPLINE
  5
10b
100
AcDbEntity
  8
Layer_1
 62
7
100
AcDbSpline
 70
8
 71
3
 72
8
 73
4
 74
0
 40
0
 40
0
 40
0
 40
0
 40
1
 40
1
 40
1
 40
1
 10
167.967556
 20
424.424324
 30
0.0
 10
158.902926
 20
433.931783
 30
0.0
 10
152.096828
 20
442.248832
 30
0.0
 10
147.644195
 20
449.259420
 30
0.0
  0
SPLINE
  5
10c
100
AcDbEntity
  8
Layer_1
 62
7
100
AcDbSpline
 70
8
 71
3
 72
8
 73
4
 74
0
 40
0
 40
0
 40
0
 40
0
 40
1
 40
1
 40
1
 40
1
 10
147.644195
 20
449.259420
 30
0.0
 10
144.433420
 20
454.314728
 30
0.0
 10
134.708970
 20
473.320857
 30
0.0
 10
134.716878
 20
474.525439
 30
0.0
  0
SPLINE
  5
10d
100
AcDbEntity
  8
Layer_1
 62
7
100
AcDbSpline
 70
8
 71
3
 72
8
 73
4
 74
0
 40
0
 40
0
 40
0
 40
0
 40
1
 40
1
 40
1
 40
1
 10
134.716878
 20
474.525439
 30
0.0
 10
134.719373
 20
474.900718
 30
0.0
 10
133.558557
 20
478.207928
 30
0.0
 10
132.137351
 20
481.874797
 30
0.0
  0
SPLINE
  5
10e
100
AcDbEntity
  8
Layer_1
 62
7
100
AcDbSpline
 70
8
 71
3
 72
8
 73
4
 74
0
 40
0
 40
0
 40
0
 40
0
 40
1
 40
1
 40
1
 40
1
 10
132.137351
 20
481.874797
 30
0.0
 10
130.716145
 20
485.541638
 30
0.0
 10
129.271156
 20
489.291846
 30
0.0
 10
128.926293
 20
490.208570
 30
0.0
  0
SPLINE
  5
10f
100
AcDbEntity
  8
Layer_1
 62
7
100
AcDbSpline
 70
8
 71
3
 72
8
 73
4
 74
0
 40
0
 40
0
 40
0
 40
0
 40
1
 40
1
 40
1
 40
1
 10
128.926293
 20
490.208570
 30
0.0
 10
127.777808
 20
493.261342
 30
0.0
 10
124.657600
 20
505.921635
 30
0.0
 10
122.566028
 20
516.015524
 30
0.0
  0
SPLINE
  5
110
100
AcDbEntity
  8
Layer_1
 62
7
100
AcDbSpline
 70
8
 71
3
 72
8
 73
4
 74
0
 40
0
 40
0
 40
0
 40
0
 40
1
 40
1
 40
1
 40
1
 10
122.566028
 20
516.015524
 30
0.0
 10
120.867282
 20
524.213433
 30
0.0
 10
120.466491
 20
528.737074
 30
0.0
 10
120.313902
 20
541.433480
 30
0.0
  0
SPLINE
  5
111
100
AcDbEntity
  8
Layer_1
 62
7
100
AcDbSpline
 70
8
 71
3
 72
8
 73
4
 74
0
 40
0
 40
0
 40
0
 40
0
 40
1
 40
1
 40
1
 40
1
 10
120.313902
 20
541.433480
 30
0.0
 10
120.070689
 20
561.661279
 30
0.0
 10
121.750387
 20
575.002001
 30
0.0
 10
126.251181
 20
588.593701
 30
0.0
  0
SPLINE
  5
112
100
AcDbEntity
  8
Layer_1
 62
7
100
AcDbSpline
 70
8
 71
3
 72
8
 73
4
 74
0
 40
0
 40
0
 40
0
 40
0
 40
1
 40
1
 40
1
 40
1
 10
126.251181
 20
588.593701
 30
0.0
 10
128.064078
 20
594.068338
 30
0.0
 10
129.791682
 20
599.297607
 30
0.0
 10
130.090340
 20
600.214331
 30
0.0
  0
SPLINE
  5
113
100
AcDbEntity
  8
Layer_1
 62
7
100
AcDbSpline
 70
8
 71
3
 72
8
 73
4
 74
0
 40
0
 40
0
 40
0
 40
0
 40
1
 40
1
 40
1
 40
1
 10
130.090340
 20
600.214331
 30
0.0
 10
130.388970
 20
601.131056
 30
0.0
 10
129.132031
 20
599.068454
 30
0.0
 10
127.297137
 20
595.630766
 30
0.0
  0
SPLINE
  5
114
100
AcDbEntity
  8
Layer_1
 62
7
100
AcDbSpline
 70
8
 71
3
 72
8
 73
4
 74
0
 40
0
 40
0
 40
0
 40
0
 40
1
 40
1
 40
1
 40
1
 10
127.297137
 20
595.630766
 30
0.0
 10
124.793237
 20
590.939683
 30
0.0
 10
123.951489
 20
589.900190
 30
0.0
 10
123.922860
 20
591.463865
 30
0.0
  0
SPLINE
  5
115
100
AcDbEntity
  8
Layer_1
 62
7
100
AcDbSpline
 70
8
 71
3
 72
8
 73
4
 74
0
 40
0
 40
0
 40
0
 40
0
 40
1
 40
1
 40
1
 40
1
 10
123.922860
 20
591.463865
 30
0.0
 10
123.903017
 20
592.609771
 30
0.0
 10
124.628460
 20
594.767106
 30
0.0
 10
125.537445
 20
596.257960
 30
0.0
  0
SPLINE
  5
116
100
AcDbEntity
  8
Layer_1
 62
7
100
AcDbSpline
 70
8
 71
3
 72
8
 73
4
 74
0
 40
0
 40
0
 40
0
 40
0
 40
1
 40
1
 40
1
 40
1
 10
125.537445
 20
596.257960
 30
0.0
 10
126.446431
 20
597.748813
 30
0.0
 10
128.039786
 20
600.936486
 30
0.0
 10
129.078230
 20
603.341654
 30
0.0
  0
SPLINE
  5
117
100
AcDbEntity
  8
Layer_1
 62
7
100
AcDbSpline
 70
8
 71
3
 72
8
 73
4
 74
0
 40
0
 40
0
 40
0
 40
0
 40
1
 40
1
 40
1
 40
1
 10
129.078230
 20
603.341654
 30
0.0
 10
131.150129
 20
608.140483
 30
0.0
 10
137.139197
 20
618.965325
 30
0.0
 10
137.722340
 20
618.965325
 30
0.0
  0
SPLINE
  5
118
100
AcDbEntity
  8
Layer_1
 62
7
100
AcDbSpline
 70
8
 71
3
 72
8
 73
4
 74
0
 40
0
 40
0
 40
0
 40
0
 40
1
 40
1
 40
1
 40
1
 10
137.722340
 20
618.965325
 30
0.0
 10
137.923883
 20
618.965325
 30
0.0
 10
137.516545
 20
617.858906
 30
0.0
 10
136.817237
 20
616.506582
 30
0.0
  0
SPLINE
  5
119
100
AcDbEntity
  8
Layer_1
 62
7
100
AcDbSpline
 70
8
 71
3
 72
8
 73
4
 74
0
 40
0
 40
0
 40
0
 40
0
 40
1
 40
1
 40
1
 40
1
 10
136.817237
 20
616.506582
 30
0.0
 10
134.391518
 20
611.815754
 30
0.0
 10
135.563786
 20
612.052418
 30
0.0
 10
139.036283
 20
616.954569
 30
0.0
  0
SPLINE
  5
11a
100
AcDbEntity
  8
Layer_1
 62
7
100
AcDbSpline
 70
8
 71
3
 72
8
 73
4
 74
0
 40
0
 40
0
 40
0
 40
0
 40
1
 40
1
 40
1
 40
1
 10
139.036283
 20
616.954569
 30
0.0
 10
143.875250
 20
623.785839
 30
0.0
 10
148.214356
 20
629.075684
 30
0.0
 10
148.634337
 20
628.655732
 30
0.0
  0
SPLINE
  5
11b
100
AcDbEntity
  8
Layer_1
 62
7
100
AcDbSpline
 70
8
 71
3
 72
8
 73
4
 74
0
 40
0
 40
0
 40
0
 40
0
 40
1
 40
1
 40
1
 40
1
 10
148.634337
 20
628.655732
 30
0.0
 10
149.018856
 20
628.271212
 30
0.0
 10
143.404529
 20
616.731766
 30
0.0
 10
141.964415
 20
614.946648
 30
0.0
  0
SPLINE
  5
11c
100
AcDbEntity
  8
Layer_1
 62
7
100
AcDbSpline
 70
8
 71
3
 72
8
 73
4
 74
0
 40
0
 40
0
 40
0
 40
0
 40
1
 40
1
 40
1
 40
1
 10
141.964415
 20
614.946648
 30
0.0
 10
140.985017
 20
613.732598
 30
0.0
 10
137.222535
 20
604.799654
 30
0.0
 10
137.216384
 20
603.673790
 30
0.0
  0
SPLINE
  5
11d
100
AcDbEntity
  8
Layer_1
 62
7
100
AcDbSpline
 70
8
 71
3
 72
8
 73
4
 74
0
 40
0
 40
0
 40
0
 40
0
 40
1
 40
1
 40
1
 40
1
 10
137.216384
 20
603.673790
 30
0.0
 10
137.213889
 20
603.284706
 30
0.0
 10
136.684774
 20
601.784612
 30
0.0
 10
136.039751
 20
600.340275
 30
0.0
  0
SPLINE
  5
11e
100
AcDbEntity
  8
Layer_1
 62
7
100
AcDbSpline
 70
8
 71
3
 72
8
 73
4
 74
0
 40
0
 40
0
 40
0
 40
0
 40
1
 40
1
 40
1
 40
1
 10
136.039751
 20
600.340275
 30
0.0
 10
133.833773
 20
595.400678
 30
0.0
 10
132.013222
 20
587.625216
 30
0.0
 10
128.888138
 20
569.796060
 30
0.0
  0
SPLINE
  5
11f
100
AcDbEntity
  8
Layer_1
 62
7
100
AcDbSpline
 70
8
 71
3
 72
8
 73
4
 74
0
 40
0
 40
0
 40
0
 40
0
 40
1
 40
1
 40
1
 40
1
 10
128.888138
 20
569.796060
 30
0.0
 10
127.110050
 20
559.651686
 30
0.0
 10
126.611067
 20
533.534343
 30
0.0
 10
128.018186
 20
524.259921
 30
0.0
  0
SPLINE
  5
120
100
AcDbEntity
  8
Layer_1
 62
7
100
AcDbSpline
 70
8
 71
3
 72
8
 73
4
 74
0
 40
0
 40
0
 40
0
 40
0
 40
1
 40
1
 40
1
 40
1
 10
128.018186
 20
524.259921
 30
0.0
 10
129.473946
 20
514.664872
 30
0.0
 10
132.429943
 20
502.292523
 30
0.0
 10
133.266645
 20
502.292523
 30
0.0
  0
SPLINE
  5
121
100
AcDbEntity
  8
Layer_1
 62
7
100
AcDbSpline
 70
8
 71
3
 72
8
 73
4
 74
0
 40
0
 40
0
 40
0
 40
0
 40
1
 40
1
 40
1
 40
1
 10
133.266645
 20
502.292523
 30
0.0
 10
133.701537
 20
502.292523
 30
0.0
 10
133.855260
 20
501.765931
 30
0.0
 10
133.608305
 20
501.122324
 30
0.0
  0
SPLINE
  5
122
100
AcDbEntity
  8
Layer_1
 62
7
100
AcDbSpline
 70
8
 71
3
 72
8
 73
4
 74
0
 40
0
 40
0
 40
0
 40
0
 40
1
 40
1
 40
1
 40
1
 10
133.608305
 20
501.122324
 30
0.0
 10
133.095461
 20
499.785902
 30
0.0
 10
137.566548
 20
486.174444
 30
0.0
 10
139.358923
 20
483.615439
 30
0.0
  0
SPLINE
  5
123
100
AcDbEntity
  8
Layer_1
 62
7
100
AcDbSpline
 70
8
 71
3
 72
8
 73
4
 74
0
 40
0
 40
0
 40
0
 40
0
 40
1
 40
1
 40
1
 40
1
 10
139.358923
 20
483.615439
 30
0.0
 10
140.011855
 20
482.683294
 30
0.0
 10
140.546044
 20
481.327937
 30
0.0
 10
140.546044
 20
480.603543
 30
0.0
  0
SPLINE
  5
124
100
AcDbEntity
  8
Layer_1
 62
7
100
AcDbSpline
 70
8
 71
3
 72
8
 73
4
 74
0
 40
0
 40
0
 40
0
 40
0
 40
1
 40
1
 40
1
 40
1
 10
140.546044
 20
480.603543
 30
0.0
 10
140.546044
 20
477.246132
 30
0.0
 10
152.363115
 20
456.068324
 30
0.0
 10
155.820532
 20
453.229597
 30
0.0
  0
SPLINE
  5
125
100
AcDbEntity
  8
Layer_1
 62
7
100
AcDbSpline
 70
8
 71
3
 72
8
 73
4
 74
0
 40
0
 40
0
 40
0
 40
0
 40
1
 40
1
 40
1
 40
1
 10
155.820532
 20
453.229597
 30
0.0
 10
157.946658
 20
451.483909
 30
0.0
 10
157.494730
 20
452.833824
 30
0.0
 10
154.511408
 20
457.140019
 30
0.0
  0
SPLINE
  5
126
100
AcDbEntity
  8
Layer_1
 62
7
100
AcDbSpline
 70
8
 71
3
 72
8
 73
4
 74
0
 40
0
 40
0
 40
0
 40
0
 40
1
 40
1
 40
1
 40
1
 10
154.511408
 20
457.140019
 30
0.0
 10
151.276340
 20
461.809559
 30
0.0
 10
148.046431
 20
467.704063
 30
0.0
 10
148.046431
 20
468.938466
 30
0.0
  0
SPLINE
  5
127
100
AcDbEntity
  8
Layer_1
 62
7
100
AcDbSpline
 70
8
 71
3
 72
8
 73
4
 74
0
 40
0
 40
0
 40
0
 40
0
 40
1
 40
1
 40
1
 40
1
 10
148.046431
 20
468.938466
 30
0.0
 10
148.046431
 20
469.444082
 30
0.0
 10
148.947282
 20
469.238967
 30
0.0
 10
150.129867
 20
468.464117
 30
0.0
  0
SPLINE
  5
128
100
AcDbEntity
  8
Layer_1
 62
7
100
AcDbSpline
 70
8
 71
3
 72
8
 73
4
 74
0
 40
0
 40
0
 40
0
 40
0
 40
1
 40
1
 40
1
 40
1
 10
150.129867
 20
468.464117
 30
0.0
 10
151.275773
 20
467.713304
 30
0.0
 10
152.213304
 20
466.637726
 30
0.0
 10
152.213304
 20
466.073943
 30
0.0
  0
SPLINE
  5
129
100
AcDbEntity
  8
Layer_1
 62
7
100
AcDbSpline
 70
8
 71
3
 72
8
 73
4
 74
0
 40
0
 40
0
 40
0
 40
0
 40
1
 40
1
 40
1
 40
1
 10
152.213304
 20
466.073943
 30
0.0
 10
152.213304
 20
465.510161
 30
0.0
 10
153.013212
 20
464.334463
 30
0.0
 10
153.990825
 20
463.461307
 30
0.0
  0
SPLINE
  5
12a
100
AcDbEntity
  8
Layer_1
 62
7
100
AcDbSpline
 70
8
 71
3
 72
8
 73
4
 74
0
 40
0
 40
0
 40
0
 40
0
 40
1
 40
1
 40
1
 40
1
 10
153.990825
 20
463.461307
 30
0.0
 10
155.752897
 20
461.887512
 30
0.0
 10
155.763272
 20
461.890006
 30
0.0
 10
155.184721
 20
463.748825
 30
0.0
  0
SPLINE
  5
12b
100
AcDbEntity
  8
Layer_1
 62
7
100
AcDbSpline
 70
8
 71
3
 72
8
 73
4
 74
0
 40
0
 40
0
 40
0
 40
0
 40
1
 40
1
 40
1
 40
1
 10
155.184721
 20
463.748825
 30
0.0
 10
154.863754
 20
464.780126
 30
0.0
 10
154.761111
 20
465.623943
 30
0.0
 10
154.956532
 20
465.623943
 30
0.0
  0
SPLINE
  5
12c
100
AcDbEntity
  8
Layer_1
 62
7
100
AcDbSpline
 70
8
 71
3
 72
8
 73
4
 74
0
 40
0
 40
0
 40
0
 40
0
 40
1
 40
1
 40
1
 40
1
 10
154.956532
 20
465.623943
 30
0.0
 10
155.152123
 20
465.623943
 30
0.0
 10
160.278211
 20
459.599244
 30
0.0
 10
166.348009
 20
452.235713
 30
0.0
  0
SPLINE
  5
12d
100
AcDbEntity
  8
Layer_1
 62
7
100
AcDbSpline
 70
8
 71
3
 72
8
 73
4
 74
0
 40
0
 40
0
 40
0
 40
0
 40
1
 40
1
 40
1
 40
1
 10
166.348009
 20
452.235713
 30
0.0
 10
177.663433
 20
438.508517
 30
0.0
 10
182.158699
 20
434.647956
 30
0.0
 10
173.373253
 20
446.202454
 30
0.0
  0
SPLINE
  5
12e
100
AcDbEntity
  8
Layer_1
 62
7
100
AcDbSpline
 70
8
 71
3
 72
8
 73
4
 74
0
 40
0
 40
0
 40
0
 40
0
 40
1
 40
1
 40
1
 40
1
 10
173.373253
 20
446.202454
 30
0.0
 10
166.336387
 20
455.457232
 30
0.0
 10
165.711716
 20
456.548145
 30
0.0
 10
169.987978
 20
452.114447
 30
0.0
  0
SPLINE
  5
12f
100
AcDbEntity
  8
Layer_1
 62
7
100
AcDbSpline
 70
8
 71
3
 72
8
 73
4
 74
0
 40
0
 40
0
 40
0
 40
0
 40
1
 40
1
 40
1
 40
1
 10
169.987978
 20
452.114447
 30
0.0
 10
172.070450
 20
449.955354
 30
0.0
 10
175.267619
 20
445.989713
 30
0.0
 10
177.092847
 20
443.301959
 30
0.0
  0
SPLINE
  5
130
100
AcDbEntity
  8
Layer_1
 62
7
100
AcDbSpline
 70
8
 71
3
 72
8
 73
4
 74
0
 40
0
 40
0
 40
0
 40
0
 40
1
 40
1
 40
1
 40
1
 10
177.092847
 20
443.301959
 30
0.0
 10
181.138226
 20
437.344866
 30
0.0
 10
185.697074
 20
433.217480
 30
0.0
 10
188.950113
 20
432.566872
 30
0.0
  0
SPLINE
  5
131
100
AcDbEntity
  8
Layer_1
 62
7
100
AcDbSpline
 70
8
 71
3
 72
8
 73
4
 74
0
 40
0
 40
0
 40
0
 40
0
 40
1
 40
1
 40
1
 40
1
 10
188.950113
 20
432.566872
 30
0.0
 10
191.381134
 20
432.080674
 30
0.0
 10
191.715395
 20
431.551701
 30
0.0
 10
191.412513
 20
428.670085
 30
0.0
  0
SPLINE
  5
132
100
AcDbEntity
  8
Layer_1
 62
7
100
AcDbSpline
 70
8
 71
3
 72
8
 73
4
 74
0
 40
0
 40
0
 40
0
 40
0
 40
1
 40
1
 40
1
 40
1
 10
191.412513
 20
428.670085
 30
0.0
 10
191.288356
 20
427.489625
 30
0.0
 10
191.635883
 20
427.256901
 30
0.0
 10
192.916066
 20
427.663191
 30
0.0
  0
SPLINE
  5
133
100
AcDbEntity
  8
Layer_1
 62
7
100
AcDbSpline
 70
8
 71
3
 72
8
 73
4
 74
0
 40
0
 40
0
 40
0
 40
0
 40
1
 40
1
 40
1
 40
1
 10
192.916066
 20
427.663191
 30
0.0
 10
194.081502
 20
428.033083
 30
0.0
 10
194.735370
 20
427.743694
 30
0.0
 10
195.095426
 20
426.698391
 30
0.0
  0
SPLINE
  5
134
100
AcDbEntity
  8
Layer_1
 62
7
100
AcDbSpline
 70
8
 71
3
 72
8
 73
4
 74
0
 40
0
 40
0
 40
0
 40
0
 40
1
 40
1
 40
1
 40
1
 10
195.095426
 20
426.698391
 30
0.0
 10
195.683927
 20
424.989921
 30
0.0
 10
198.913751
 20
422.807953
 30
0.0
 10
208.674513
 20
417.524740
 30
0.0
  0
SPLINE
  5
135
100
AcDbEntity
  8
Layer_1
 62
7
100
AcDbSpline
 70
8
 71
3
 72
8
 73
4
 74
0
 40
0
 40
0
 40
0
 40
0
 40
1
 40
1
 40
1
 40
1
 10
208.674513
 20
417.524740
 30
0.0
 10
212.455987
 20
415.477984
 30
0.0
 10
215.549889
 20
414.173565
 30
0.0
 10
215.549889
 20
414.626060
 30
0.0
  0
SPLINE
  5
136
100
AcDbEntity
  8
Layer_1
 62
7
100
AcDbSpline
 70
8
 71
3
 72
8
 73
4
 74
0
 40
0
 40
0
 40
0
 40
0
 40
1
 40
1
 40
1
 40
1
 10
215.549889
 20
414.626060
 30
0.0
 10
215.549889
 20
415.078583
 30
0.0
 10
212.760201
 20
417.187531
 30
0.0
 10
209.350576
 20
419.312665
 30
0.0
  0
SPLINE
  5
137
100
AcDbEntity
  8
Layer_1
 62
7
100
AcDbSpline
 70
8
 71
3
 72
8
 73
4
 74
0
 40
0
 40
0
 40
0
 40
0
 40
1
 40
1
 40
1
 40
1
 10
209.350576
 20
419.312665
 30
0.0
 10
203.608860
 20
422.891320
 30
0.0
 10
198.295940
 20
427.813342
 30
0.0
 10
199.199512
 20
428.716913
 30
0.0
  0
SPLINE
  5
138
100
AcDbEntity
  8
Layer_1
 62
7
100
AcDbSpline
 70
8
 71
3
 72
8
 73
4
 74
0
 40
0
 40
0
 40
0
 40
0
 40
1
 40
1
 40
1
 40
1
 10
199.199512
 20
428.716913
 30
0.0
 10
199.411543
 20
428.928945
 30
0.0
 10
203.270970
 20
426.430743
 30
0.0
 10
207.775874
 20
423.165146
 30
0.0
  0
SPLINE
  5
139
100
AcDbEntity
  8
Layer_1
 62
7
100
AcDbSpline
 70
8
 71
3
 72
8
 73
4
 74
0
 40
0
 40
0
 40
0
 40
0
 40
1
 40
1
 40
1
 40
1
 10
207.775874
 20
423.165146
 30
0.0
 10
217.654500
 20
416.004151
 30
0.0
 10
228.636882
 20
410.478576
 30
0.0
 10
237.596148
 20
408.161565
 30
0.0
  0
SPLINE
  5
13a
100
AcDbEntity
  8
Layer_1
 62
7
100
AcDbSpline
 70
8
 71
3
 72
8
 73
4
 74
0
 40
0
 40
0
 40
0
 40
0
 40
1
 40
1
 40
1
 40
1
 10
237.596148
 20
408.161565
 30
0.0
 10
241.241984
 20
407.218706
 30
0.0
 10
244.598431
 20
406.073792
 30
0.0
 10
245.054866
 20
405.617357
 30
0.0
  0
SPLINE
  5
13b
100
AcDbEntity
  8
Layer_1
 62
7
100
AcDbSpline
 70
8
 71
3
 72
8
 73
4
 74
0
 40
0
 40
0
 40
0
 40
0
 40
1
 40
1
 40
1
 40
1
 10
245.054866
 20
405.617357
 30
0.0
 10
245.511329
 20
405.160894
 30
0.0
 10
246.559836
 20
404.787430
 30
0.0
 10
247.384888
 20
404.787430
 30
0.0
  0
SPLINE
  5
13c
100
AcDbEntity
  8
Layer_1
 62
7
100
AcDbSpline
 70
8
 71
3
 72
8
 73
4
 74
0
 40
0
 40
0
 40
0
 40
0
 40
1
 40
1
 40
1
 40
1
 10
247.384888
 20
404.787430
 30
0.0
 10
248.209912
 20
404.787430
 30
0.0
 10
248.884954
 20
404.390268
 30
0.0
 10
248.884954
 20
403.904863
 30
0.0
  0
SPLINE
  5
13d
100
AcDbEntity
  8
Layer_1
 62
7
100
AcDbSpline
 70
8
 71
3
 72
8
 73
4
 74
0
 40
0
 40
0
 40
0
 40
0
 40
1
 40
1
 40
1
 40
1
 10
248.884954
 20
403.904863
 30
0.0
 10
248.884954
 20
403.419458
 30
0.0
 10
249.184123
 20
403.207200
 30
0.0
 10
249.549792
 20
403.433178
 30
0.0
  0
SPLINE
  5
13e
100
AcDbEntity
  8
Layer_1
 62
7
100
AcDbSpline
 70
8
 71
3
 72
8
 73
4
 74
0
 40
0
 40
0
 40
0
 40
0
 40
1
 40
1
 40
1
 40
1
 10
249.549792
 20
403.433178
 30
0.0
 10
249.915433
 20
403.659099
 30
0.0
 10
250.746636
 20
403.515383
 30
0.0
 10
251.396932
 20
403.113345
 30
0.0
  0
SPLINE
  5
13f
100
AcDbEntity
  8
Layer_1
 62
7
100
AcDbSpline
 70
8
 71
3
 72
8
 73
4
 74
0
 40
0
 40
0
 40
0
 40
0
 40
1
 40
1
 40
1
 40
1
 10
251.396932
 20
403.113345
 30
0.0
 10
252.047200
 20
402.711449
 30
0.0
 10
252.966844
 20
402.700649
 30
0.0
 10
253.440570
 20
403.090668
 30
0.0
  0
SPLINE
  5
140
100
AcDbEntity
  8
Layer_1
 62
7
100
AcDbSpline
 70
8
 71
3
 72
8
 73
4
 74
0
 40
0
 40
0
 40
0
 40
0
 40
1
 40
1
 40
1
 40
1
 10
253.440570
 20
403.090668
 30
0.0
 10
253.920362
 20
403.484315
 30
0.0
 10
257.255294
 20
403.279172
 30
0.0
 10
260.968935
 20
402.627402
 30
0.0
  0
SPLINE
  5
141
100
AcDbEntity
  8
Layer_1
 62
7
100
AcDbSpline
 70
8
 71
3
 72
8
 73
4
 74
0
 40
0
 40
0
 40
0
 40
0
 40
1
 40
1
 40
1
 40
1
 10
260.968935
 20
402.627402
 30
0.0
 10
264.635776
 20
401.983909
 30
0.0
 10
271.948652
 20
401.455020
 30
0.0
 10
277.219760
 20
401.452129
 30
0.0
  0
SPLINE
  5
142
100
AcDbEntity
  8
Layer_1
 62
7
100
AcDbSpline
 70
8
 71
3
 72
8
 73
4
 74
0
 40
0
 40
0
 40
0
 40
0
 40
1
 40
1
 40
1
 40
1
 10
277.219760
 20
401.452129
 30
0.0
 10
293.826841
 20
401.443625
 30
0.0
 10
299.676444
 20
401.404791
 30
0.0
 10
301.179345
 20
401.296224
 30
0.0
  0
SPLINE
  5
143
100
AcDbEntity
  8
Layer_1
 62
7
100
AcDbSpline
 70
8
 71
3
 72
8
 73
4
 74
0
 40
0
 40
0
 40
0
 40
0
 40
1
 40
1
 40
1
 40
1
 10
301.179345
 20
401.296224
 30
0.0
 10
301.981493
 20
401.238397
 30
0.0
 10
304.137836
 20
401.454964
 30
0.0
 10
305.971285
 20
401.778000
 30
0.0
  0
SPLINE
  5
144
100
AcDbEntity
  8
Layer_1
 62
7
100
AcDbSpline
 70
8
 71
3
 72
8
 73
4
 74
0
 40
0
 40
0
 40
0
 40
0
 40
1
 40
1
 40
1
 40
1
 10
305.971285
 20
401.778000
 30
0.0
 10
307.804706
 20
402.100923
 30
0.0
 10
313.250173
 20
402.889861
 30
0.0
 10
318.072331
 20
403.531172
 30
0.0
  0
SPLINE
  5
145
100
AcDbEntity
  8
Layer_1
 62
7
100
AcDbSpline
 70
8
 71
3
 72
8
 73
4
 74
0
 40
0
 40
0
 40
0
 40
0
 40
1
 40
1
 40
1
 40
1
 10
318.072331
 20
403.531172
 30
0.0
 10
324.240009
 20
404.351461
 30
0.0
 10
328.441096
 20
405.442602
 30
0.0
 10
332.239720
 20
407.210910
 30
0.0
  0
SPLINE
  5
146
100
AcDbEntity
  8
Layer_1
 62
7
100
AcDbSpline
 70
8
 71
3
 72
8
 73
4
 74
0
 40
0
 40
0
 40
0
 40
0
 40
1
 40
1
 40
1
 40
1
 10
332.239720
 20
407.210910
 30
0.0
 10
335.209663
 20
408.593452
 30
0.0
 10
339.593074
 20
409.911109
 30
0.0
 10
341.980668
 20
410.139071
 30
0.0
  0
SPLINE
  5
147
100
AcDbEntity
  8
Layer_1
 62
7
100
AcDbSpline
 70
8
 71
3
 72
8
 73
4
 74
0
 40
0
 40
0
 40
0
 40
0
 40
1
 40
1
 40
1
 40
1
 10
341.980668
 20
410.139071
 30
0.0
 10
344.368261
 20
410.366976
 30
0.0
 10
347.896261
 20
411.356835
 30
0.0
 10
349.820646
 20
412.338586
 30
0.0
  0
SPLINE
  5
148
100
AcDbEntity
  8
Layer_1
 62
7
100
AcDbSpline
 70
8
 71
3
 72
8
 73
4
 74
0
 40
0
 40
0
 40
0
 40
0
 40
1
 40
1
 40
1
 40
1
 10
349.820646
 20
412.338586
 30
0.0
 10
351.745058
 20
413.320337
 30
0.0
 10
355.229376
 20
414.690520
 30
0.0
 10
357.563565
 20
415.383477
 30
0.0
  0
SPLINE
  5
149
100
AcDbEntity
  8
Layer_1
 62
7
100
AcDbSpline
 70
8
 71
3
 72
8
 73
4
 74
0
 40
0
 40
0
 40
0
 40
0
 40
1
 40
1
 40
1
 40
1
 10
357.563565
 20
415.383477
 30
0.0
 10
364.567436
 20
417.462633
 30
0.0
 10
371.429830
 20
421.374869
 30
0.0
 10
376.416794
 20
426.131575
 30
0.0
  0
SPLINE
  5
14a
100
AcDbEntity
  8
Layer_1
 62
7
100
AcDbSpline
 70
8
 71
3
 72
8
 73
4
 74
0
 40
0
 40
0
 40
0
 40
0
 40
1
 40
1
 40
1
 40
1
 10
376.416794
 20
426.131575
 30
0.0
 10
379.006809
 20
428.602054
 30
0.0
 10
381.470570
 20
430.623326
 30
0.0
 10
381.891827
 20
430.623326
 30
0.0
  0
SPLINE
  5
14b
100
AcDbEntity
  8
Layer_1
 62
7
100
AcDbSpline
 70
8
 71
3
 72
8
 73
4
 74
0
 40
0
 40
0
 40
0
 40
0
 40
1
 40
1
 40
1
 40
1
 10
381.891827
 20
430.623326
 30
0.0
 10
382.313055
 20
430.623326
 30
0.0
 10
383.138674
 20
431.393443
 30
0.0
 10
383.726466
 20
432.334658
 30
0.0
  0
SPLINE
  5
14c
100
AcDbEntity
  8
Layer_1
 62
7
100
AcDbSpline
 70
8
 71
3
 72
8
 73
4
 74
0
 40
0
 40
0
 40
0
 40
0
 40
1
 40
1
 40
1
 40
1
 10
383.726466
 20
432.334658
 30
0.0
 10
384.314287
 20
433.275902
 30
0.0
 10
386.373345
 20
434.741868
 30
0.0
 10
388.302180
 20
435.592346
 30
0.0
  0
SPLINE
  5
14d
100
AcDbEntity
  8
Layer_1
 62
7
100
AcDbSpline
 70
8
 71
3
 72
8
 73
4
 74
0
 40
0
 40
0
 40
0
 40
0
 40
1
 40
1
 40
1
 40
1
 10
388.302180
 20
435.592346
 30
0.0
 10
393.229219
 20
437.764904
 30
0.0
 10
406.779165
 20
450.795770
 30
0.0
 10
412.966517
 20
459.311896
 30
0.0
  0
SPLINE
  5
14e
100
AcDbEntity
  8
Layer_1
 62
7
100
AcDbSpline
 70
8
 71
3
 72
8
 73
4
 74
0
 40
0
 40
0
 40
0
 40
0
 40
1
 40
1
 40
1
 40
1
 10
412.966517
 20
459.311896
 30
0.0
 10
421.378328
 20
470.889666
 30
0.0
 10
428.493827
 20
487.597720
 30
0.0
 10
435.127890
 20
511.349613
 30
0.0
  0
SPLINE
  5
14f
100
AcDbEntity
  8
Layer_1
 62
7
100
AcDbSpline
 70
8
 71
3
 72
8
 73
4
 74
0
 40
0
 40
0
 40
0
 40
0
 40
1
 40
1
 40
1
 40
1
 10
435.127890
 20
511.349613
 30
0.0
 10
438.008854
 20
521.664236
 30
0.0
 10
438.595030
 20
524.960759
 30
0.0
 10
439.715594
 20
537.149934
 30
0.0
  0
SPLINE
  5
150
100
AcDbEntity
  8
Layer_1
 62
7
100
AcDbSpline
 70
8
 71
3
 72
8
 73
4
 74
0
 40
0
 40
0
 40
0
 40
0
 40
1
 40
1
 40
1
 40
1
 10
439.715594
 20
537.149934
 30
0.0
 10
442.256117
 20
564.785314
 30
0.0
 10
434.650876
 20
595.355862
 30
0.0
 10
419.135981
 20
619.873121
 30
0.0
  0
SPLINE
  5
151
100
AcDbEntity
  8
Layer_1
 62
7
100
AcDbSpline
 70
8
 71
3
 72
8
 73
4
 74
0
 40
0
 40
0
 40
0
 40
0
 40
1
 40
1
 40
1
 40
1
 10
419.135981
 20
619.873121
 30
0.0
 10
406.992019
 20
639.063530
 30
0.0
 10
387.380183
 20
658.822853
 30
0.0
 10
371.042192
 20
668.328582
 30
0.0
  0
SPLINE
  5
152
100
AcDbEntity
  8
Layer_1
 62
7
100
AcDbSpline
 70
8
 71
3
 72
8
 73
4
 74
0
 40
0
 40
0
 40
0
 40
0
 40
1
 40
1
 40
1
 40
1
 10
371.042192
 20
668.328582
 30
0.0
 10
367.796580
 20
670.216938
 30
0.0
 10
364.203524
 20
672.589990
 30
0.0
 10
363.057619
 20
673.602043
 30
0.0
  0
SPLINE
  5
153
100
AcDbEntity
  8
Layer_1
 62
7
100
AcDbSpline
 70
8
 71
3
 72
8
 73
4
 74
0
 40
0
 40
0
 40
0
 40
0
 40
1
 40
1
 40
1
 40
1
 10
363.057619
 20
673.602043
 30
0.0
 10
357.324973
 20
678.665061
 30
0.0
 10
341.854498
 20
686.464872
 30
0.0
 10
327.639061
 20
691.459177
 30
0.0
  0
SPLINE
  5
154
100
AcDbEntity
  8
Layer_1
 62
7
100
AcDbSpline
 70
8
 71
3
 72
8
 73
4
 74
0
 40
0
 40
0
 40
0
 40
0
 40
1
 40
1
 40
1
 40
1
 10
327.639061
 20
691.459177
 30
0.0
 10
315.675014
 20
695.662532
 30
0.0
 10
292.512189
 20
700.859798
 30
0.0
 10
279.766179
 20
702.200897
 30
0.0
  0
SPLINE
  5
155
100
AcDbEntity
  8
Layer_1
 62
7
100
AcDbSpline
 70
8
 71
3
 72
8
 73
4
 74
0
 40
0
 40
0
 40
0
 40
0
 40
1
 40
1
 40
1
 40
1
 10
279.766179
 20
702.200897
 30
0.0
 10
273.658680
 20
702.843511
 30
0.0
 10
263.692491
 20
701.624075
 30
0.0
 10
260.454192
 20
699.837936
 30
0.0
  0
SPLINE
  5
156
100
AcDbEntity
  8
Layer_1
 62
7
100
AcDbSpline
 70
8
 71
3
 72
8
 73
4
 74
0
 40
0
 40
0
 40
0
 40
0
 40
1
 40
1
 40
1
 40
1
 10
260.454192
 20
699.837936
 30
0.0
 10
259.203291
 20
699.147984
 30
0.0
 10
252.325732
 20
697.105706
 30
0.0
 10
251.385083
 20
697.144881
 30
0.0
  0
SPLINE
  5
157
100
AcDbEntity
  8
Layer_1
 62
7
100
AcDbSpline
 70
8
 71
3
 72
8
 73
4
 74
0
 40
0
 40
0
 40
0
 40
0
 40
1
 40
1
 40
1
 40
1
 10
251.385083
 20
697.144881
 30
0.0
 10
251.156044
 20
697.153385
 30
0.0
 10
250.499625
 20
696.773174
 30
0.0
 10
249.926686
 20
696.297691
 30
0.0
  0
SPLINE
  5
158
100
AcDbEntity
  8
Layer_1
 62
7
100
AcDbSpline
 70
8
 71
3
 72
8
 73
4
 74
0
 40
0
 40
0
 40
0
 40
0
 40
1
 40
1
 40
1
 40
1
 10
249.926686
 20
696.297691
 30
0.0
 10
249.353748
 20
695.822179
 30
0.0
 10
248.879228
 20
695.760327
 30
0.0
 10
248.872198
 20
696.160210
 30
0.0
  0
SPLINE
  5
159
100
AcDbEntity
  8
Layer_1
 62
7
100
AcDbSpline
 70
8
 71
3
 72
8
 73
4
 74
0
 40
0
 40
0
 40
0
 40
0
 40
1
 40
1
 40
1
 40
1
 10
248.872198
 20
696.160210
 30
0.0
 10
248.866529
 20
696.560094
 30
0.0
 10
248.583915
 20
696.512245
 30
0.0
 10
248.247159
 20
696.053911
 30
0.0
  0
SPLINE
  5
15a
100
AcDbEntity
  8
Layer_1
 62
7
100
AcDbSpline
 70
8
 71
3
 72
8
 73
4
 74
0
 40
0
 40
0
 40
0
 40
0
 40
1
 40
1
 40
1
 40
1
 10
248.247159
 20
696.053911
 30
0.0
 10
247.910431
 20
695.595549
 30
0.0
 10
245.978620
 20
694.317634
 30
0.0
 10
243.954286
 20
693.214106
 30
0.0
  0
SPLINE
  5
15b
100
AcDbEntity
  8
Layer_1
 62
7
100
AcDbSpline
 70
8
 71
3
 72
8
 73
4
 74
0
 40
0
 40
0
 40
0
 40
0
 40
1
 40
1
 40
1
 40
1
 10
243.954286
 20
693.214106
 30
0.0
 10
235.710655
 20
688.720286
 30
0.0
 10
230.346173
 20
684.294752
 30
0.0
 10
217.686560
 20
671.544062
 30
0.0
  0
SPLINE
  5
15c
100
AcDbEntity
  8
Layer_1
 62
7
100
AcDbSpline
 70
8
 71
3
 72
8
 73
4
 74
0
 40
0
 40
0
 40
0
 40
0
 40
1
 40
1
 40
1
 40
1
 10
217.686560
 20
671.544062
 30
0.0
 10
210.382104
 20
664.187080
 30
0.0
 10
204.250312
 20
658.323133
 30
0.0
 10
204.060390
 20
658.513083
 30
0.0
  0
SPLINE
  5
15d
100
AcDbEntity
  8
Layer_1
 62
7
100
AcDbSpline
 70
8
 71
3
 72
8
 73
4
 74
0
 40
0
 40
0
 40
0
 40
0
 40
1
 40
1
 40
1
 40
1
 10
204.060390
 20
658.513083
 30
0.0
 10
203.870469
 20
658.703004
 30
0.0
 10
204.534598
 20
659.727020
 30
0.0
 10
205.536277
 20
660.788623
 30
0.0
  0
SPLINE
  5
15e
100
AcDbEntity
  8
Layer_1
 62
7
100
AcDbSpline
 70
8
 71
3
 72
8
 73
4
 74
0
 40
0
 40
0
 40
0
 40
0
 40
1
 40
1
 40
1
 40
1
 10
205.536277
 20
660.788623
 30
0.0
 10
208.004318
 20
663.404292
 30
0.0
 10
209.870875
 20
667.108466
 30
0.0
 10
208.993921
 20
667.650450
 30
0.0
  0
SPLINE
  5
15f
100
AcDbEntity
  8
Layer_1
 62
7
100
AcDbSpline
 70
8
 71
3
 72
8
 73
4
 74
0
 40
0
 40
0
 40
0
 40
0
 40
1
 40
1
 40
1
 40
1
 10
208.993921
 20
667.650450
 30
0.0
 10
208.600019
 20
667.893946
 30
0.0
 10
206.947987
 20
666.696365
 30
0.0
 10
205.322715
 20
664.989284
 30
0.0
  0
SPLINE
  5
160
100
AcDbEntity
  8
Layer_1
 62
7
100
AcDbSpline
 70
8
 71
3
 72
8
 73
4
 74
0
 40
0
 40
0
 40
0
 40
0
 40
1
 40
1
 40
1
 40
1
 10
205.322715
 20
664.989284
 30
0.0
 10
201.525253
 20
661.000569
 30
0.0
 10
197.075171
 20
657.301895
 30
0.0
 10
196.073634
 20
657.301895
 30
0.0
  0
SPLINE
  5
161
100
AcDbEntity
  8
Layer_1
 62
7
100
AcDbSpline
 70
8
 71
3
 72
8
 73
4
 74
0
 40
0
 40
0
 40
0
 40
0
 40
1
 40
1
 40
1
 40
1
 10
196.073634
 20
657.301895
 30
0.0
 10
195.642910
 20
657.301895
 30
0.0
 10
195.911209
 20
657.987681
 30
0.0
 10
196.669732
 20
658.825914
 30
0.0
  0
SPLINE
  5
162
100
AcDbEntity
  8
Layer_1
 62
7
100
AcDbSpline
 70
8
 71
3
 72
8
 73
4
 74
0
 40
0
 40
0
 40
0
 40
0
 40
1
 40
1
 40
1
 40
1
 10
196.669732
 20
658.825914
 30
0.0
 10
197.428311
 20
659.664119
 30
0.0
 10
198.048986
 20
660.954563
 30
0.0
 10
198.048986
 20
661.693555
 30
0.0
  0
SPLINE
  5
163
100
AcDbEntity
  8
Layer_1
 62
7
100
AcDbSpline
 70
8
 71
3
 72
8
 73
4
 74
0
 40
0
 40
0
 40
0
 40
0
 40
1
 40
1
 40
1
 40
1
 10
198.048986
 20
661.693555
 30
0.0
 10
198.048986
 20
662.432519
 30
0.0
 10
198.426645
 20
663.270582
 30
0.0
 10
198.888267
 20
663.555889
 30
0.0
  0
SPLINE
  5
164
100
AcDbEntity
  8
Layer_1
 62
7
100
AcDbSpline
 70
8
 71
3
 72
8
 73
4
 74
0
 40
0
 40
0
 40
0
 40
0
 40
1
 40
1
 40
1
 40
1
 10
198.888267
 20
663.555889
 30
0.0
 10
199.349889
 20
663.841168
 30
0.0
 10
200.320784
 20
665.221697
 30
0.0
 10
201.045773
 20
666.623713
 30
0.0
  0
SPLINE
  5
165
100
AcDbEntity
  8
Layer_1
 62
7
100
AcDbSpline
 70
8
 71
3
 72
8
 73
4
 74
0
 40
0
 40
0
 40
0
 40
0
 40
1
 40
1
 40
1
 40
1
 10
199.508658
 20
666.362529
 30
0.0
 10
196.060198
 20
662.968437
 30
0.0
 10
191.381956
 20
660.152472
 30
0.0
 10
191.381956
 20
661.470809
 30
0.0
  0
SPLINE
  5
166
100
AcDbEntity
  8
Layer_1
 62
7
100
AcDbSpline
 70
8
 71
3
 72
8
 73
4
 74
0
 40
0
 40
0
 40
0
 40
0
 40
1
 40
1
 40
1
 40
1
 10
191.381956
 20
661.470809
 30
0.0
 10
191.381956
 20
661.982151
 30
0.0
 10
191.006932
 20
662.168727
 30
0.0
 10
190.548570
 20
661.885432
 30
0.0
  0
SPLINE
  5
167
100
AcDbEntity
  8
Layer_1
 62
7
100
AcDbSpline
 70
8
 71
3
 72
8
 73
4
 74
0
 40
0
 40
0
 40
0
 40
0
 40
1
 40
1
 40
1
 40
1
 10
190.548570
 20
661.885432
 30
0.0
 10
188.841064
 20
660.830122
 30
0.0
 10
189.792967
 20
662.916620
 30
0.0
 10
191.908094
 20
664.865325
 30
0.0
  0
SPLINE
  5
168
100
AcDbEntity
  8
Layer_1
 62
7
100
AcDbSpline
 70
8
 71
3
 72
8
 73
4
 74
0
 40
0
 40
0
 40
0
 40
0
 40
1
 40
1
 40
1
 40
1
 10
191.908094
 20
664.865325
 30
0.0
 10
193.114179
 20
665.976535
 30
0.0
 10
195.971474
 20
669.135804
 30
0.0
 10
198.257644
 20
671.885949
 30
0.0
  0
SPLINE
  5
169
100
AcDbEntity
  8
Layer_1
 62
7
100
AcDbSpline
 70
8
 71
3
 72
8
 73
4
 74
0
 40
0
 40
0
 40
0
 40
0
 40
1
 40
1
 40
1
 40
1
 10
198.257644
 20
671.885949
 30
0.0
 10
200.543814
 20
674.636094
 30
0.0
 10
205.928053
 20
680.546784
 30
0.0
 10
210.222655
 20
685.020818
 30
0.0
  0
SPLINE
  5
16a
100
AcDbEntity
  8
Layer_1
 62
7
100
AcDbSpline
 70
8
 71
3
 72
8
 73
4
 74
0
 40
0
 40
0
 40
0
 40
0
 40
1
 40
1
 40
1
 40
1
 10
210.222655
 20
685.020818
 30
0.0
 10
214.517256
 20
689.494853
 30
0.0
 10
217.941537
 20
693.311647
 30
0.0
 10
217.832176
 20
693.502588
 30
0.0
  0
SPLINE
  5
16b
100
AcDbEntity
  8
Layer_1
 62
7
100
AcDbSpline
 70
8
 71
3
 72
8
 73
4
 74
0
 40
0
 40
0
 40
0
 40
0
 40
1
 40
1
 40
1
 40
1
 10
217.832176
 20
693.502588
 30
0.0
 10
217.722759
 20
693.693643
 30
0.0
 10
219.262056
 20
695.029584
 30
0.0
 10
221.252686
 20
696.471625
 30
0.0
  0
SPLINE
  5
16c
100
AcDbEntity
  8
Layer_1
 62
7
100
AcDbSpline
 70
8
 71
3
 72
8
 73
4
 74
0
 40
0
 40
0
 40
0
 40
0
 40
1
 40
1
 40
1
 40
1
 10
221.252686
 20
696.471625
 30
0.0
 10
225.387754
 20
699.467051
 30
0.0
 10
225.387726
 20
700.619193
 30
0.0
 10
221.252630
 20
698.497631
 30
0.0
  0
SPLINE
  5
16d
100
AcDbEntity
  8
Layer_1
 62
7
100
AcDbSpline
 70
8
 71
3
 72
8
 73
4
 74
0
 40
0
 40
0
 40
0
 40
0
 40
1
 40
1
 40
1
 40
1
 10
221.252630
 20
698.497631
 30
0.0
 10
217.417978
 20
696.530217
 30
0.0
 10
214.667719
 20
694.297026
 30
0.0
 10
215.300356
 20
693.664390
 30
0.0
  0
SPLINE
  5
16e
100
AcDbEntity
  8
Layer_1
 62
7
100
AcDbSpline
 70
8
 71
3
 72
8
 73
4
 74
0
 40
0
 40
0
 40
0
 40
0
 40
1
 40
1
 40
1
 40
1
 10
215.300356
 20
693.664390
 30
0.0
 10
215.590368
 20
693.374377
 30
0.0
 10
215.229206
 20
693.137061
 30
0.0
 10
214.497442
 20
693.137061
 30
0.0
  0
SPLINE
  5
16f
100
AcDbEntity
  8
Layer_1
 62
7
100
AcDbSpline
 70
8
 71
3
 72
8
 73
4
 74
0
 40
0
 40
0
 40
0
 40
0
 40
1
 40
1
 40
1
 40
1
 10
214.497442
 20
693.137061
 30
0.0
 10
213.000239
 20
693.137061
 30
0.0
 10
201.672541
 20
680.876878
 30
0.0
 10
202.028176
 20
679.641341
 30
0.0
  0
SPLINE
  5
170
100
AcDbEntity
  8
Layer_1
 62
7
100
AcDbSpline
 70
8
 71
3
 72
8
 73
4
 74
0
 40
0
 40
0
 40
0
 40
0
 40
1
 40
1
 40
1
 40
1
 10
202.028176
 20
679.641341
 30
0.0
 10
202.154034
 20
679.203785
 30
0.0
 10
201.915357
 20
679.057036
 30
0.0
 10
201.497559
 20
679.315243
 30
0.0
  0
SPLINE
  5
171
100
AcDbEntity
  8
Layer_1
 62
7
100
AcDbSpline
 70
8
 71
3
 72
8
 73
4
 74
0
 40
0
 40
0
 40
0
 40
0
 40
1
 40
1
 40
1
 40
1
 10
201.497559
 20
679.315243
 30
0.0
 10
200.424844
 20
679.978210
 30
0.0
 10
198.872932
 20
677.870963
 30
0.0
 10
198.380894
 20
675.083373
 30
0.0
  0
SPLINE
  5
172
100
AcDbEntity
  8
Layer_1
 62
7
100
AcDbSpline
 70
8
 71
3
 72
8
 73
4
 74
0
 40
0
 40
0
 40
0
 40
0
 40
1
 40
1
 40
1
 40
1
 10
198.380894
 20
675.083373
 30
0.0
 10
198.124359
 20
673.630305
 30
0.0
 10
195.821039
 20
670.551681
 30
0.0
 10
192.403363
 20
667.094037
 30
0.0
  0
SPLINE
  5
173
100
AcDbEntity
  8
Layer_1
 62
7
100
AcDbSpline
 70
8
 71
3
 72
8
 73
4
 74
0
 40
0
 40
0
 40
0
 40
0
 40
1
 40
1
 40
1
 40
1
 10
192.403363
 20
667.094037
 30
0.0
 10
187.253974
 20
661.884440
 30
0.0
 10
184.714954
 20
660.293325
 30
0.0
 10
184.714954
 20
662.275962
 30
0.0
  0
SPLINE
  5
174
100
AcDbEntity
  8
Layer_1
 62
7
100
AcDbSpline
 70
8
 71
3
 72
8
 73
4
 74
0
 40
0
 40
0
 40
0
 40
0
 40
1
 40
1
 40
1
 40
1
 10
184.714954
 20
662.275962
 30
0.0
 10
184.714954
 20
662.719952
 30
0.0
 10
185.277461
 20
662.867325
 30
0.0
 10
185.965004
 20
662.603505
 30
0.0
  0
SPLINE
  5
175
100
AcDbEntity
  8
Layer_1
 62
7
100
AcDbSpline
 70
8
 71
3
 72
8
 73
4
 74
0
 40
0
 40
0
 40
0
 40
0
 40
1
 40
1
 40
1
 40
1
 10
185.965004
 20
662.603505
 30
0.0
 10
186.652548
 20
662.339599
 30
0.0
 10
187.215083
 20
662.449017
 30
0.0
 10
187.215083
 20
662.846434
 30
0.0
  0
SPLINE
  5
176
100
AcDbEntity
  8
Layer_1
 62
7
100
AcDbSpline
 70
8
 71
3
 72
8
 73
4
 74
0
 40
0
 40
0
 40
0
 40
0
 40
1
 40
1
 40
1
 40
1
 10
187.215083
 20
662.846434
 30
0.0
 10
187.215083
 20
663.243908
 30
0.0
 10
188.148730
 20
664.576050
 30
0.0
 10
189.289902
 20
665.806740
 30
0.0
  0
SPLINE
  5
177
100
AcDbEntity
  8
Layer_1
 62
7
100
AcDbSpline
 70
8
 71
3
 72
8
 73
4
 74
0
 40
0
 40
0
 40
0
 40
0
 40
1
 40
1
 40
1
 40
1
 10
189.289902
 20
665.806740
 30
0.0
 10
190.431045
 20
667.037401
 30
0.0
 10
191.155864
 20
668.588519
 30
0.0
 10
190.900661
 20
669.253612
 30
0.0
  0
SPLINE
  5
178
100
AcDbEntity
  8
Layer_1
 62
7
100
AcDbSpline
 70
8
 71
3
 72
8
 73
4
 74
0
 40
0
 40
0
 40
0
 40
0
 40
1
 40
1
 40
1
 40
1
 10
190.900661
 20
669.253612
 30
0.0
 10
190.645543
 20
669.918705
 30
0.0
 10
191.136787
 20
670.970557
 30
0.0
 10
191.992311
 20
671.591061
 30
0.0
  0
SPLINE
  5
179
100
AcDbEntity
  8
Layer_1
 62
7
100
AcDbSpline
 70
8
 71
3
 72
8
 73
4
 74
0
 40
0
 40
0
 40
0
 40
0
 40
1
 40
1
 40
1
 40
1
 10
191.992311
 20
671.591061
 30
0.0
 10
192.847949
 20
672.211565
 30
0.0
 10
196.498406
 20
676.094434
 30
0.0
 10
200.104415
 20
680.219637
 30
0.0
  0
SPLINE
  5
17a
100
AcDbEntity
  8
Layer_1
 62
7
100
AcDbSpline
 70
8
 71
3
 72
8
 73
4
 74
0
 40
0
 40
0
 40
0
 40
0
 40
1
 40
1
 40
1
 40
1
 10
200.104415
 20
680.219637
 30
0.0
 10
203.710425
 20
684.344869
 30
0.0
 10
207.442037
 20
688.607580
 30
0.0
 10
208.396888
 20
689.692343
 30
0.0
  0
LWPOLYLINE
  5
17b
100
AcDbEntity
  8
Layer_1
 62
7
100
AcDbPolyline
 90
3
 70
0
 10
201.045773
 20
666.623713
 30
0.0
 10
202.363997
 20
669.172853
 30
0.0
 10
199.508658
 20
666.362529
 30
0.0
  0
SPLINE
  5
17c
100
AcDbEntity
  8
Layer_1
 62
7
100
AcDbSpline
 70
8
 71
3
 72
8
 73
4
 74
0
 40
0
 40
0
 40
0
 40
0
 40
1
 40
1
 40
1
 40
1
 10
207.216116
 20
691.066239
 30
0.0
 10
201.951442
 20
689.986182
 30
0.0
 10
197.283886
 20
687.461788
 30
0.0
 10
192.839729
 20
683.290947
 30
0.0
  0
SPLINE
  5
17d
100
AcDbEntity
  8
Layer_1
 62
7
100
AcDbSpline
 70
8
 71
3
 72
8
 73
4
 74
0
 40
0
 40
0
 40
0
 40
0
 40
1
 40
1
 40
1
 40
1
 10
192.839729
 20
683.290947
 30
0.0
 10
187.557111
 20
678.333209
 30
0.0
 10
183.048182
 20
675.748919
 30
0.0
 10
183.048182
 20
677.678916
 30
0.0
  0
SPLINE
  5
17e
100
AcDbEntity
  8
Layer_1
 62
7
100
AcDbSpline
 70
8
 71
3
 72
8
 73
4
 74
0
 40
0
 40
0
 40
0
 40
0
 40
1
 40
1
 40
1
 40
1
 10
183.048182
 20
677.678916
 30
0.0
 10
183.048182
 20
678.367650
 30
0.0
 10
184.079483
 20
679.569851
 30
0.0
 10
185.339965
 20
680.350484
 30
0.0
  0
SPLINE
  5
17f
100
AcDbEntity
  8
Layer_1
 62
7
100
AcDbSpline
 70
8
 71
3
 72
8
 73
4
 74
0
 40
0
 40
0
 40
0
 40
0
 40
1
 40
1
 40
1
 40
1
 10
185.339965
 20
680.350484
 30
0.0
 10
187.867108
 20
681.915549
 30
0.0
 10
189.715212
 20
683.889199
 30
0.0
 10
189.715212
 20
685.023001
 30
0.0
  0
SPLINE
  5
180
100
AcDbEntity
  8
Layer_1
 62
7
100
AcDbSpline
 70
8
 71
3
 72
8
 73
4
 74
0
 40
0
 40
0
 40
0
 40
0
 40
1
 40
1
 40
1
 40
1
 10
189.715212
 20
685.023001
 30
0.0
 10
189.715212
 20
685.427023
 30
0.0
 10
188.692869
 20
684.953269
 30
0.0
 10
187.443357
 20
683.970525
 30
0.0
  0
SPLINE
  5
181
100
AcDbEntity
  8
Layer_1
 62
7
100
AcDbSpline
 70
8
 71
3
 72
8
 73
4
 74
0
 40
0
 40
0
 40
0
 40
0
 40
1
 40
1
 40
1
 40
1
 10
187.443357
 20
683.970525
 30
0.0
 10
183.986904
 20
681.251703
 30
0.0
 10
184.109247
 20
683.475710
 30
0.0
 10
187.653971
 20
687.801719
 30
0.0
  0
SPLINE
  5
182
100
AcDbEntity
  8
Layer_1
 62
7
100
AcDbSpline
 70
8
 71
3
 72
8
 73
4
 74
0
 40
0
 40
0
 40
0
 40
0
 40
1
 40
1
 40
1
 40
1
 10
187.653971
 20
687.801719
 30
0.0
 10
191.544126
 20
692.549155
 30
0.0
 10
195.045877
 20
694.841477
 30
0.0
 10
203.465795
 20
698.152484
 30
0.0
  0
SPLINE
  5
183
100
AcDbEntity
  8
Layer_1
 62
7
100
AcDbSpline
 70
8
 71
3
 72
8
 73
4
 74
0
 40
0
 40
0
 40
0
 40
0
 40
1
 40
1
 40
1
 40
1
 10
203.465795
 20
698.152484
 30
0.0
 10
209.923600
 20
700.691930
 30
0.0
 10
213.347285
 20
702.814825
 30
0.0
 10
212.693020
 20
703.873933
 30
0.0
  0
SPLINE
  5
184
100
AcDbEntity
  8
Layer_1
 62
7
100
AcDbSpline
 70
8
 71
3
 72
8
 73
4
 74
0
 40
0
 40
0
 40
0
 40
0
 40
1
 40
1
 40
1
 40
1
 10
212.693020
 20
703.873933
 30
0.0
 10
212.120790
 20
704.800239
 30
0.0
 10
184.417571
 20
703.218223
 30
0.0
 10
179.297861
 20
701.966869
 30
0.0
  0
SPLINE
  5
185
100
AcDbEntity
  8
Layer_1
 62
7
100
AcDbSpline
 70
8
 71
3
 72
8
 73
4
 74
0
 40
0
 40
0
 40
0
 40
0
 40
1
 40
1
 40
1
 40
1
 10
179.297861
 20
701.966869
 30
0.0
 10
170.082570
 20
699.714488
 30
0.0
 10
170.186771
 20
699.713807
 30
0.0
 10
166.581499
 20
702.051625
 30
0.0
  0
SPLINE
  5
186
100
AcDbEntity
  8
Layer_1
 62
7
100
AcDbSpline
 70
8
 71
3
 72
8
 73
4
 74
0
 40
0
 40
0
 40
0
 40
0
 40
1
 40
1
 40
1
 40
1
 10
166.581499
 20
702.051625
 30
0.0
 10
164.706891
 20
703.267149
 30
0.0
 10
162.680715
 20
705.181725
 30
0.0
 10
162.078863
 20
706.306258
 30
0.0
  0
SPLINE
  5
187
100
AcDbEntity
  8
Layer_1
 62
7
100
AcDbSpline
 70
8
 71
3
 72
8
 73
4
 74
0
 40
0
 40
0
 40
0
 40
0
 40
1
 40
1
 40
1
 40
1
 10
162.078863
 20
706.306258
 30
0.0
 10
161.050822
 20
708.227184
 30
0.0
 10
161.210837
 20
708.547640
 30
0.0
 10
164.724296
 20
711.604097
 30
0.0
  0
SPLINE
  5
188
100
AcDbEntity
  8
Layer_1
 62
7
100
AcDbSpline
 70
8
 71
3
 72
8
 73
4
 74
0
 40
0
 40
0
 40
0
 40
0
 40
1
 40
1
 40
1
 40
1
 10
164.724296
 20
711.604097
 30
0.0
 10
168.990012
 20
715.314903
 30
0.0
 10
173.155978
 20
717.698614
 30
0.0
 10
185.548198
 20
723.519218
 30
0.0
  0
SPLINE
  5
189
100
AcDbEntity
  8
Layer_1
 62
7
100
AcDbSpline
 70
8
 71
3
 72
8
 73
4
 74
0
 40
0
 40
0
 40
0
 40
0
 40
1
 40
1
 40
1
 40
1
 10
185.548198
 20
723.519218
 30
0.0
 10
190.360945
 20
725.779763
 30
0.0
 10
196.361266
 20
729.147917
 30
0.0
 10
198.882230
 20
731.004015
 30
0.0
  0
SPLINE
  5
18a
100
AcDbEntity
  8
Layer_1
 62
7
100
AcDbSpline
 70
8
 71
3
 72
8
 73
4
 74
0
 40
0
 40
0
 40
0
 40
0
 40
1
 40
1
 40
1
 40
1
 10
198.882230
 20
731.004015
 30
0.0
 10
203.740500
 20
734.580998
 30
0.0
 10
210.220812
 20
738.069993
 30
0.0
 10
212.086888
 20
738.113392
 30
0.0
  0
SPLINE
  5
18b
100
AcDbEntity
  8
Layer_1
 62
7
100
AcDbSpline
 70
8
 71
3
 72
8
 73
4
 74
0
 40
0
 40
0
 40
0
 40
0
 40
1
 40
1
 40
1
 40
1
 10
212.086888
 20
738.113392
 30
0.0
 10
213.637099
 20
738.149392
 30
0.0
 10
224.944189
 20
741.566727
 30
0.0
 10
225.966986
 20
742.308327
 30
0.0
  0
SPLINE
  5
18c
100
AcDbEntity
  8
Layer_1
 62
7
100
AcDbSpline
 70
8
 71
3
 72
8
 73
4
 74
0
 40
0
 40
0
 40
0
 40
0
 40
1
 40
1
 40
1
 40
1
 10
225.966986
 20
742.308327
 30
0.0
 10
226.425319
 20
742.640632
 30
0.0
 10
228.957565
 20
743.154554
 30
0.0
 10
231.594154
 20
743.450321
 30
0.0
  0
SPLINE
  5
18d
100
AcDbEntity
  8
Layer_1
 62
7
100
AcDbSpline
 70
8
 71
3
 72
8
 73
4
 74
0
 40
0
 40
0
 40
0
 40
0
 40
1
 40
1
 40
1
 40
1
 10
231.594154
 20
743.450321
 30
0.0
 10
234.230743
 20
743.746116
 30
0.0
 10
237.793439
 20
744.535650
 30
0.0
 10
239.511234
 20
745.204910
 30
0.0
  0
SPLINE
  5
18e
100
AcDbEntity
  8
Layer_1
 62
7
100
AcDbSpline
 70
8
 71
3
 72
8
 73
4
 74
0
 40
0
 40
0
 40
0
 40
0
 40
1
 40
1
 40
1
 40
1
 10
239.511234
 20
745.204910
 30
0.0
 10
242.409574
 20
746.334062
 30
0.0
 10
259.236116
 20
748.201215
 30
0.0
 10
278.106636
 20
749.487634
 30
0.0
  0
SPLINE
  5
18f
100
AcDbEntity
  8
Layer_1
 62
7
100
AcDbSpline
 70
8
 71
3
 72
8
 73
4
 74
0
 40
0
 40
0
 40
0
 40
0
 40
1
 40
1
 40
1
 40
1
 10
278.106636
 20
749.487634
 30
0.0
 10
287.607458
 20
750.135294
 30
0.0
 10
290.894825
 20
749.152380
 30
0.0
 10
288.410230
 20
746.406913
 30
0.0
  0
SPLINE
  5
190
100
AcDbEntity
  8
Layer_1
 62
7
100
AcDbSpline
 70
8
 71
3
 72
8
 73
4
 74
0
 40
0
 40
0
 40
0
 40
0
 40
1
 40
1
 40
1
 40
1
 10
288.410230
 20
746.406913
 30
0.0
 10
286.653515
 20
744.465776
 30
0.0
 10
284.458167
 20
744.354034
 30
0.0
 10
282.696126
 20
746.116078
 30
0.0
  0
SPLINE
  5
191
100
AcDbEntity
  8
Layer_1
 62
7
100
AcDbSpline
 70
8
 71
3
 72
8
 73
4
 74
0
 40
0
 40
0
 40
0
 40
0
 40
1
 40
1
 40
1
 40
1
 10
282.696126
 20
746.116078
 30
0.0
 10
281.975842
 20
746.836333
 30
0.0
 10
281.386548
 20
747.117615
 30
0.0
 10
281.386548
 20
746.741089
 30
0.0
  0
SPLINE
  5
192
100
AcDbEntity
  8
Layer_1
 62
7
100
AcDbSpline
 70
8
 71
3
 72
8
 73
4
 74
0
 40
0
 40
0
 40
0
 40
0
 40
1
 40
1
 40
1
 40
1
 10
281.386548
 20
746.741089
 30
0.0
 10
281.386548
 20
746.364592
 30
0.0
 10
280.355219
 20
746.006916
 30
0.0
 10
279.094737
 20
745.946283
 30
0.0
  0
SPLINE
  5
193
100
AcDbEntity
  8
Layer_1
 62
7
100
AcDbSpline
 70
8
 71
3
 72
8
 73
4
 74
0
 40
0
 40
0
 40
0
 40
0
 40
1
 40
1
 40
1
 40
1
 10
279.094737
 20
745.946283
 30
0.0
 10
274.738510
 20
745.736803
 30
0.0
 10
273.052774
 20
745.281388
 30
0.0
 10
273.052774
 20
744.314491
 30
0.0
  0
SPLINE
  5
194
100
AcDbEntity
  8
Layer_1
 62
7
100
AcDbSpline
 70
8
 71
3
 72
8
 73
4
 74
0
 40
0
 40
0
 40
0
 40
0
 40
1
 40
1
 40
1
 40
1
 10
273.052774
 20
744.314491
 30
0.0
 10
273.052774
 20
742.166765
 30
0.0
 10
275.995789
 20
741.260614
 30
0.0
 10
286.568844
 20
740.152947
 30
0.0
  0
SPLINE
  5
195
100
AcDbEntity
  8
Layer_1
 62
7
100
AcDbSpline
 70
8
 71
3
 72
8
 73
4
 74
0
 40
0
 40
0
 40
0
 40
0
 40
1
 40
1
 40
1
 40
1
 10
286.568844
 20
740.152947
 30
0.0
 10
304.694277
 20
738.254018
 30
0.0
 10
323.604652
 20
735.224009
 30
0.0
 10
325.138791
 20
733.972853
 30
0.0
  0
SPLINE
  5
196
100
AcDbEntity
  8
Layer_1
 62
7
100
AcDbSpline
 70
8
 71
3
 72
8
 73
4
 74
0
 40
0
 40
0
 40
0
 40
0
 40
1
 40
1
 40
1
 40
1
 10
325.138791
 20
733.972853
 30
0.0
 10
325.597153
 20
733.599048
 30
0.0
 10
328.193972
 20
732.884151
 30
0.0
 10
330.909506
 20
732.384232
 30
0.0
  0
SPLINE
  5
197
100
AcDbEntity
  8
Layer_1
 62
7
100
AcDbSpline
 70
8
 71
3
 72
8
 73
4
 74
0
 40
0
 40
0
 40
0
 40
0
 40
1
 40
1
 40
1
 40
1
 10
330.909506
 20
732.384232
 30
0.0
 10
338.236441
 20
731.035338
 30
0.0
 10
347.401361
 20
727.966636
 30
0.0
 10
355.060091
 20
724.297867
 30
0.0
  0
SPLINE
  5
198
100
AcDbEntity
  8
Layer_1
 62
7
100
AcDbSpline
 70
8
 71
3
 72
8
 73
4
 74
0
 40
0
 40
0
 40
0
 40
0
 40
1
 40
1
 40
1
 40
1
 10
355.060091
 20
724.297867
 30
0.0
 10
356.390986
 20
723.660299
 30
0.0
 10
357.891080
 20
723.125940
 30
0.0
 10
358.393606
 20
723.110406
 30
0.0
  0
SPLINE
  5
199
100
AcDbEntity
  8
Layer_1
 62
7
100
AcDbSpline
 70
8
 71
3
 72
8
 73
4
 74
0
 40
0
 40
0
 40
0
 40
0
 40
1
 40
1
 40
1
 40
1
 10
358.393606
 20
723.110406
 30
0.0
 10
358.896132
 20
723.093398
 30
0.0
 10
360.807364
 20
722.357524
 30
0.0
 10
362.640784
 20
721.471924
 30
0.0
  0
SPLINE
  5
19a
100
AcDbEntity
  8
Layer_1
 62
7
100
AcDbSpline
 70
8
 71
3
 72
8
 73
4
 74
0
 40
0
 40
0
 40
0
 40
0
 40
1
 40
1
 40
1
 40
1
 10
362.640784
 20
721.471924
 30
0.0
 10
364.474205
 20
720.586324
 30
0.0
 10
366.279364
 20
719.849004
 30
0.0
 10
366.652205
 20
719.833442
 30
0.0
  0
SPLINE
  5
19b
100
AcDbEntity
  8
Layer_1
 62
7
100
AcDbSpline
 70
8
 71
3
 72
8
 73
4
 74
0
 40
0
 40
0
 40
0
 40
0
 40
1
 40
1
 40
1
 40
1
 10
366.652205
 20
719.833442
 30
0.0
 10
367.025046
 20
719.816434
 30
0.0
 10
371.179417
 20
717.966856
 30
0.0
 10
375.884164
 20
715.720059
 30
0.0
  0
SPLINE
  5
19c
100
AcDbEntity
  8
Layer_1
 62
7
100
AcDbSpline
 70
8
 71
3
 72
8
 73
4
 74
0
 40
0
 40
0
 40
0
 40
0
 40
1
 40
1
 40
1
 40
1
 10
375.884164
 20
715.720059
 30
0.0
 10
380.588910
 20
713.473234
 30
0.0
 10
386.207348
 20
711.034305
 30
0.0
 10
388.369616
 20
710.300217
 30
0.0
  0
SPLINE
  5
19d
100
AcDbEntity
  8
Layer_1
 62
7
100
AcDbSpline
 70
8
 71
3
 72
8
 73
4
 74
0
 40
0
 40
0
 40
0
 40
0
 40
1
 40
1
 40
1
 40
1
 10
388.369616
 20
710.300217
 30
0.0
 10
390.531883
 20
709.566100
 30
0.0
 10
393.315364
 20
708.258733
 30
0.0
 10
394.555124
 20
707.394988
 30
0.0
  0
SPLINE
  5
19e
100
AcDbEntity
  8
Layer_1
 62
7
100
AcDbSpline
 70
8
 71
3
 72
8
 73
4
 74
0
 40
0
 40
0
 40
0
 40
0
 40
1
 40
1
 40
1
 40
1
 10
394.555124
 20
707.394988
 30
0.0
 10
400.139178
 20
703.504466
 30
0.0
 10
406.238457
 20
699.855795
 30
0.0
 10
409.193915
 20
698.637804
 30
0.0
  0
SPLINE
  5
19f
100
AcDbEntity
  8
Layer_1
 62
7
100
AcDbSpline
 70
8
 71
3
 72
8
 73
4
 74
0
 40
0
 40
0
 40
0
 40
0
 40
1
 40
1
 40
1
 40
1
 10
409.193915
 20
698.637804
 30
0.0
 10
416.202576
 20
695.749499
 30
0.0
 10
433.823839
 20
678.548302
 30
0.0
 10
444.311717
 20
664.357130
 30
0.0
  0
SPLINE
  5
1a0
100
AcDbEntity
  8
Layer_1
 62
7
100
AcDbSpline
 70
8
 71
3
 72
8
 73
4
 74
0
 40
0
 40
0
 40
0
 40
0
 40
1
 40
1
 40
1
 40
1
 10
444.311717
 20
664.357130
 30
0.0
 10
446.603499
 20
661.256113
 30
0.0
 10
449.377172
 20
657.837558
 30
0.0
 10
450.475398
 20
656.760336
 30
0.0
  0
SPLINE
  5
1a1
100
AcDbEntity
  8
Layer_1
 62
7
100
AcDbSpline
 70
8
 71
3
 72
8
 73
4
 74
0
 40
0
 40
0
 40
0
 40
0
 40
1
 40
1
 40
1
 40
1
 10
450.475398
 20
656.760336
 30
0.0
 10
451.573625
 20
655.683143
 30
0.0
 10
452.227408
 20
654.801766
 30
0.0
 10
451.928239
 20
654.801766
 30
0.0
  0
SPLINE
  5
1a2
100
AcDbEntity
  8
Layer_1
 62
7
100
AcDbSpline
 70
8
 71
3
 72
8
 73
4
 74
0
 40
0
 40
0
 40
0
 40
0
 40
1
 40
1
 40
1
 40
1
 10
451.928239
 20
654.801766
 30
0.0
 10
451.629071
 20
654.801766
 30
0.0
 10
453.810189
 20
650.877086
 30
0.0
 10
456.775200
 20
646.080299
 30
0.0
  0
SPLINE
  5
1a3
100
AcDbEntity
  8
Layer_1
 62
7
100
AcDbSpline
 70
8
 71
3
 72
8
 73
4
 74
0
 40
0
 40
0
 40
0
 40
0
 40
1
 40
1
 40
1
 40
1
 10
456.775200
 20
646.080299
 30
0.0
 10
463.261805
 20
635.586157
 30
0.0
 10
468.328139
 20
625.026506
 30
0.0
 10
467.683002
 20
623.345335
 30
0.0
  0
SPLINE
  5
1a4
100
AcDbEntity
  8
Layer_1
 62
7
100
AcDbSpline
 70
8
 71
3
 72
8
 73
4
 74
0
 40
0
 40
0
 40
0
 40
0
 40
1
 40
1
 40
1
 40
1
 10
467.683002
 20
623.345335
 30
0.0
 10
467.424482
 20
622.671341
 30
0.0
 10
468.693553
 20
618.691527
 30
0.0
 10
470.503389
 20
614.501269
 30
0.0
  0
SPLINE
  5
1a5
100
AcDbEntity
  8
Layer_1
 62
7
100
AcDbSpline
 70
8
 71
3
 72
8
 73
4
 74
0
 40
0
 40
0
 40
0
 40
0
 40
1
 40
1
 40
1
 40
1
 10
470.503389
 20
614.501269
 30
0.0
 10
474.816926
 20
604.514234
 30
0.0
 10
476.732580
 20
597.952086
 30
0.0
 10
478.444592
 20
587.298240
 30
0.0
  0
SPLINE
  5
1a6
100
AcDbEntity
  8
Layer_1
 62
7
100
AcDbSpline
 70
8
 71
3
 72
8
 73
4
 74
0
 40
0
 40
0
 40
0
 40
0
 40
1
 40
1
 40
1
 40
1
 10
478.444592
 20
587.298240
 30
0.0
 10
479.217969
 20
582.485465
 30
0.0
 10
480.405685
 20
576.297632
 30
0.0
 10
481.083987
 20
573.547487
 30
0.0
  0
SPLINE
  5
1a7
100
AcDbEntity
  8
Layer_1
 62
7
100
AcDbSpline
 70
8
 71
3
 72
8
 73
4
 74
0
 40
0
 40
0
 40
0
 40
0
 40
1
 40
1
 40
1
 40
1
 10
481.083987
 20
573.547487
 30
0.0
 10
483.212891
 20
564.915623
 30
0.0
 10
483.336255
 20
563.813739
 30
0.0
 10
482.248885
 20
563.141701
 30
0.0
  0
SPLINE
  5
1a8
100
AcDbEntity
  8
Layer_1
 62
7
100
AcDbSpline
 70
8
 71
3
 72
8
 73
4
 74
0
 40
0
 40
0
 40
0
 40
0
 40
1
 40
1
 40
1
 40
1
 10
482.248885
 20
563.141701
 30
0.0
 10
481.558706
 20
562.715172
 30
0.0
 10
481.123446
 20
559.414823
 30
0.0
 10
480.932561
 20
553.160438
 30
0.0
  0
SPLINE
  5
1a9
100
AcDbEntity
  8
Layer_1
 62
7
100
AcDbSpline
 70
8
 71
3
 72
8
 73
4
 74
0
 40
0
 40
0
 40
0
 40
0
 40
1
 40
1
 40
1
 40
1
 10
480.932561
 20
553.160438
 30
0.0
 10
480.689348
 20
545.190746
 30
0.0
 10
480.828246
 20
543.885789
 30
0.0
 10
481.876696
 20
544.288139
 30
0.0
  0
SPLINE
  5
1aa
100
AcDbEntity
  8
Layer_1
 62
7
100
AcDbSpline
 70
8
 71
3
 72
8
 73
4
 74
0
 40
0
 40
0
 40
0
 40
0
 40
1
 40
1
 40
1
 40
1
 10
481.876696
 20
544.288139
 30
0.0
 10
482.932006
 20
544.693096
 30
0.0
 10
483.054066
 20
543.258369
 30
0.0
 10
482.738967
 20
534.152353
 30
0.0
  0
SPLINE
  5
1ab
100
AcDbEntity
  8
Layer_1
 62
7
100
AcDbSpline
 70
8
 71
3
 72
8
 73
4
 74
0
 40
0
 40
0
 40
0
 40
0
 40
1
 40
1
 40
1
 40
1
 10
482.738967
 20
534.152353
 30
0.0
 10
481.387408
 20
495.093033
 30
0.0
 10
463.472192
 20
453.723477
 30
0.0
 10
433.394220
 20
420.206202
 30
0.0
  0
SPLINE
  5
1ac
100
AcDbEntity
  8
Layer_1
 62
7
100
AcDbSpline
 70
8
 71
3
 72
8
 73
4
 74
0
 40
0
 40
0
 40
0
 40
0
 40
1
 40
1
 40
1
 40
1
 10
433.394220
 20
420.206202
 30
0.0
 10
416.364038
 20
401.228674
 30
0.0
 10
387.578324
 20
381.557282
 30
0.0
 10
363.474170
 20
372.424706
 30
0.0
  0
SPLINE
  5
1ad
100
AcDbEntity
  8
Layer_1
 62
7
100
AcDbSpline
 70
8
 71
3
 72
8
 73
4
 74
0
 40
0
 40
0
 40
0
 40
0
 40
1
 40
1
 40
1
 40
1
 10
363.474170
 20
372.424706
 30
0.0
 10
351.905839
 20
368.041691
 30
0.0
 10
336.801713
 20
363.916913
 30
0.0
 10
328.055613
 20
362.752214
 30
0.0
  0
SPLINE
  5
1ae
100
AcDbEntity
  8
Layer_1
 62
7
100
AcDbSpline
 70
8
 71
3
 72
8
 73
4
 74
0
 40
0
 40
0
 40
0
 40
0
 40
1
 40
1
 40
1
 40
1
 10
328.055613
 20
362.752214
 30
0.0
 10
322.608586
 20
362.026885
 30
0.0
 10
317.963083
 20
361.370948
 30
0.0
 10
315.346620
 20
360.957798
 30
0.0
  0
SPLINE
  5
1af
100
AcDbEntity
  8
Layer_1
 62
7
100
AcDbSpline
 70
8
 71
3
 72
8
 73
4
 74
0
 40
0
 40
0
 40
0
 40
0
 40
1
 40
1
 40
1
 40
1
 10
315.346620
 20
360.957798
 30
0.0
 10
314.045235
 20
360.752287
 30
0.0
 10
313.054838
 20
360.983310
 30
0.0
 10
313.054838
 20
361.490372
 30
0.0
  0
SPLINE
  5
1b0
100
AcDbEntity
  8
Layer_1
 62
7
100
AcDbSpline
 70
8
 71
3
 72
8
 73
4
 74
0
 40
0
 40
0
 40
0
 40
0
 40
1
 40
1
 40
1
 40
1
 10
313.054838
 20
361.490372
 30
0.0
 10
313.054838
 20
361.982296
 30
0.0
 10
313.343405
 20
362.206460
 30
0.0
 10
313.696091
 20
361.988504
 30
0.0
  0
SPLINE
  5
1b1
100
AcDbEntity
  8
Layer_1
 62
7
100
AcDbSpline
 70
8
 71
3
 72
8
 73
4
 74
0
 40
0
 40
0
 40
0
 40
0
 40
1
 40
1
 40
1
 40
1
 10
313.696091
 20
361.988504
 30
0.0
 10
314.048750
 20
361.770520
 30
0.0
 10
316.285597
 20
362.278318
 30
0.0
 10
318.666813
 20
363.116891
 30
0.0
  0
SPLINE
  5
1b2
100
AcDbEntity
  8
Layer_1
 62
7
100
AcDbSpline
 70
8
 71
3
 72
8
 73
4
 74
0
 40
0
 40
0
 40
0
 40
0
 40
1
 40
1
 40
1
 40
1
 10
318.666813
 20
363.116891
 30
0.0
 10
321.048028
 20
363.955465
 30
0.0
 10
324.790951
 20
364.878510
 30
0.0
 10
326.984372
 20
365.168069
 30
0.0
  0
SPLINE
  5
1b3
100
AcDbEntity
  8
Layer_1
 62
7
100
AcDbSpline
 70
8
 71
3
 72
8
 73
4
 74
0
 40
0
 40
0
 40
0
 40
0
 40
1
 40
1
 40
1
 40
1
 10
326.984372
 20
365.168069
 30
0.0
 10
329.177820
 20
365.457657
 30
0.0
 10
332.097506
 20
366.030935
 30
0.0
 10
333.472564
 20
366.442044
 30
0.0
  0
SPLINE
  5
1b4
100
AcDbEntity
  8
Layer_1
 62
7
100
AcDbSpline
 70
8
 71
3
 72
8
 73
4
 74
0
 40
0
 40
0
 40
0
 40
0
 40
1
 40
1
 40
1
 40
1
 10
333.472564
 20
366.442044
 30
0.0
 10
334.847650
 20
366.853153
 30
0.0
 10
338.222806
 20
367.625225
 30
0.0
 10
340.972951
 20
368.157798
 30
0.0
  0
SPLINE
  5
1b5
100
AcDbEntity
  8
Layer_1
 62
7
100
AcDbSpline
 70
8
 71
3
 72
8
 73
4
 74
0
 40
0
 40
0
 40
0
 40
0
 40
1
 40
1
 40
1
 40
1
 10
340.972951
 20
368.157798
 30
0.0
 10
346.681616
 20
369.263254
 30
0.0
 10
362.534655
 20
374.378967
 30
0.0
 10
370.557865
 20
377.704743
 30
0.0
  0
SPLINE
  5
1b6
100
AcDbEntity
  8
Layer_1
 62
7
100
AcDbSpline
 70
8
 71
3
 72
8
 73
4
 74
0
 40
0
 40
0
 40
0
 40
0
 40
1
 40
1
 40
1
 40
1
 10
370.557865
 20
377.704743
 30
0.0
 10
384.991540
 20
383.687745
 30
0.0
 10
397.479090
 20
391.552271
 30
0.0
 10
410.976652
 20
403.160060
 30
0.0
  0
SPLINE
  5
1b7
100
AcDbEntity
  8
Layer_1
 62
7
100
AcDbSpline
 70
8
 71
3
 72
8
 73
4
 74
0
 40
0
 40
0
 40
0
 40
0
 40
1
 40
1
 40
1
 40
1
 10
410.976652
 20
403.160060
 30
0.0
 10
419.003320
 20
410.062961
 30
0.0
 10
425.726731
 20
416.814633
 30
0.0
 10
419.310425
 20
411.528898
 30
0.0
  0
SPLINE
  5
1b8
100
AcDbEntity
  8
Layer_1
 62
7
100
AcDbSpline
 70
8
 71
3
 72
8
 73
4
 74
0
 40
0
 40
0
 40
0
 40
0
 40
1
 40
1
 40
1
 40
1
 10
419.310425
 20
411.528898
 30
0.0
 10
401.488072
 20
396.846935
 30
0.0
 10
390.737565
 20
389.555036
 30
0.0
 10
376.808202
 20
382.700353
 30
0.0
  0
SPLINE
  5
1b9
100
AcDbEntity
  8
Layer_1
 62
7
100
AcDbSpline
 70
8
 71
3
 72
8
 73
4
 74
0
 40
0
 40
0
 40
0
 40
0
 40
1
 40
1
 40
1
 40
1
 10
376.808202
 20
382.700353
 30
0.0
 10
362.941710
 20
375.876624
 30
0.0
 10
353.122356
 20
372.656580
 30
0.0
 10
337.497959
 20
369.809405
 30
0.0
  0
SPLINE
  5
1ba
100
AcDbEntity
  8
Layer_1
 62
7
100
AcDbSpline
 70
8
 71
3
 72
8
 73
4
 74
0
 40
0
 40
0
 40
0
 40
0
 40
1
 40
1
 40
1
 40
1
 10
337.497959
 20
369.809405
 30
0.0
 10
329.783698
 20
368.403647
 30
0.0
 10
322.534488
 20
367.051266
 30
0.0
 10
321.388611
 20
366.804085
 30
0.0
  0
SPLINE
  5
1bb
100
AcDbEntity
  8
Layer_1
 62
7
100
AcDbSpline
 70
8
 71
3
 72
8
 73
4
 74
0
 40
0
 40
0
 40
0
 40
0
 40
1
 40
1
 40
1
 40
1
 10
321.388611
 20
366.804085
 30
0.0
 10
320.242706
 20
366.556904
 30
0.0
 10
315.367455
 20
366.171902
 30
0.0
 10
310.554709
 20
365.948532
 30
0.0
  0
SPLINE
  5
1bc
100
AcDbEntity
  8
Layer_1
 62
7
100
AcDbSpline
 70
8
 71
3
 72
8
 73
4
 74
0
 40
0
 40
0
 40
0
 40
0
 40
1
 40
1
 40
1
 40
1
 10
310.554709
 20
365.948532
 30
0.0
 10
305.741962
 20
365.725162
 30
0.0
 10
300.716986
 20
365.184822
 30
0.0
 10
299.388104
 20
364.747776
 30
0.0
  0
SPLINE
  5
1bd
100
AcDbEntity
  8
Layer_1
 62
7
100
AcDbSpline
 70
8
 71
3
 72
8
 73
4
 74
0
 40
0
 40
0
 40
0
 40
0
 40
1
 40
1
 40
1
 40
1
 10
299.388104
 20
364.747776
 30
0.0
 10
296.080356
 20
363.659981
 30
0.0
 10
290.083805
 20
363.790176
 30
0.0
 10
279.734091
 20
365.174532
 30
0.0
  0
SPLINE
  5
1be
100
AcDbEntity
  8
Layer_1
 62
7
100
AcDbSpline
 70
8
 71
3
 72
8
 73
4
 74
0
 40
0
 40
0
 40
0
 40
0
 40
1
 40
1
 40
1
 40
1
 10
279.734091
 20
365.174532
 30
0.0
 10
274.929225
 20
365.817232
 30
0.0
 10
270.885745
 20
366.230835
 30
0.0
 10
270.748576
 20
366.093694
 30
0.0
  0
SPLINE
  5
1bf
100
AcDbEntity
  8
Layer_1
 62
7
100
AcDbSpline
 70
8
 71
3
 72
8
 73
4
 74
0
 40
0
 40
0
 40
0
 40
0
 40
1
 40
1
 40
1
 40
1
 10
270.748576
 20
366.093694
 30
0.0
 10
270.491190
 20
365.836592
 30
0.0
 10
272.938850
 20
364.886532
 30
0.0
 10
278.101250
 20
363.240028
 30
0.0
  0
SPLINE
  5
1c0
100
AcDbEntity
  8
Layer_1
 62
7
100
AcDbSpline
 70
8
 71
3
 72
8
 73
4
 74
0
 40
0
 40
0
 40
0
 40
0
 40
1
 40
1
 40
1
 40
1
 10
278.101250
 20
363.240028
 30
0.0
 10
280.795496
 20
362.380734
 30
0.0
 10
284.270173
 20
361.936828
 30
0.0
 10
294.485329
 20
361.146898
 30
0.0
  0
SPLINE
  5
1c1
100
AcDbEntity
  8
Layer_1
 62
7
100
AcDbSpline
 70
8
 71
3
 72
8
 73
4
 74
0
 40
0
 40
0
 40
0
 40
0
 40
1
 40
1
 40
1
 40
1
 10
294.485329
 20
361.146898
 30
0.0
 10
296.418557
 20
360.997512
 30
0.0
 10
298.119855
 20
361.233638
 30
0.0
 10
298.265981
 20
361.672129
 30
0.0
  0
SPLINE
  5
1c2
100
AcDbEntity
  8
Layer_1
 62
7
100
AcDbSpline
 70
8
 71
3
 72
8
 73
4
 74
0
 40
0
 40
0
 40
0
 40
0
 40
1
 40
1
 40
1
 40
1
 10
298.265981
 20
361.672129
 30
0.0
 10
298.412249
 20
362.110535
 30
0.0
 10
298.991509
 20
361.915058
 30
0.0
 10
299.553534
 20
361.237918
 30
0.0
  0
SPLINE
  5
1c3
100
AcDbEntity
  8
Layer_1
 62
7
100
AcDbSpline
 70
8
 71
3
 72
8
 73
4
 74
0
 40
0
 40
0
 40
0
 40
0
 40
1
 40
1
 40
1
 40
1
 10
299.553534
 20
361.237918
 30
0.0
 10
300.435562
 20
360.175153
 30
0.0
 10
299.937175
 20
360.020069
 30
0.0
 10
295.912035
 20
360.104797
 30
0.0
  0
SPLINE
  5
1c4
100
AcDbEntity
  8
Layer_1
 62
7
100
AcDbSpline
 70
8
 71
3
 72
8
 73
4
 74
0
 40
0
 40
0
 40
0
 40
0
 40
1
 40
1
 40
1
 40
1
 10
295.912035
 20
360.104797
 30
0.0
 10
293.347191
 20
360.158939
 30
0.0
 10
291.186057
 20
360.247946
 30
0.0
 10
291.109521
 20
360.302939
 30
0.0
  0
LWPOLYLINE
  5
1c5
100
AcDbEntity
  8
Layer_1
 62
7
100
AcDbPolyline
 90
3
 70
0
 10
208.396888
 20
689.692343
 30
0.0
 10
210.132938
 20
691.664632
 30
0.0
 10
207.216116
 20
691.066239
 30
0.0
  0
SPLINE
  5
1c6
100
AcDbEntity
  8
Layer_1
 62
7
100
AcDbSpline
 70
8
 71
3
 72
8
 73
4
 74
0
 40
0
 40
0
 40
0
 40
0
 40
1
 40
1
 40
1
 40
1
 10
243.051395
 20
375.202687
 30
0.0
 10
241.905489
 20
375.857717
 30
0.0
 10
240.522267
 20
376.406986
 30
0.0
 10
239.977562
 20
376.423200
 30
0.0
  0
SPLINE
  5
1c7
100
AcDbEntity
  8
Layer_1
 62
7
100
AcDbSpline
 70
8
 71
3
 72
8
 73
4
 74
0
 40
0
 40
0
 40
0
 40
0
 40
1
 40
1
 40
1
 40
1
 10
239.977562
 20
376.423200
 30
0.0
 10
239.432856
 20
376.440208
 30
0.0
 10
233.665004
 20
378.674702
 30
0.0
 10
227.160088
 20
381.390406
 30
0.0
  0
SPLINE
  5
1c8
100
AcDbEntity
  8
Layer_1
 62
7
100
AcDbSpline
 70
8
 71
3
 72
8
 73
4
 74
0
 40
0
 40
0
 40
0
 40
0
 40
1
 40
1
 40
1
 40
1
 10
227.160088
 20
381.390406
 30
0.0
 10
215.459606
 20
386.275238
 30
0.0
 10
204.089190
 20
392.545701
 30
0.0
 10
197.632349
 20
397.674142
 30
0.0
  0
SPLINE
  5
1c9
100
AcDbEntity
  8
Layer_1
 62
7
100
AcDbSpline
 70
8
 71
3
 72
8
 73
4
 74
0
 40
0
 40
0
 40
0
 40
0
 40
1
 40
1
 40
1
 40
1
 10
197.632349
 20
397.674142
 30
0.0
 10
193.193776
 20
401.199534
 30
0.0
 10
192.128403
 20
401.798098
 30
0.0
 10
192.681556
 20
400.455609
 30
0.0
  0
SPLINE
  5
1ca
100
AcDbEntity
  8
Layer_1
 62
7
100
AcDbSpline
 70
8
 71
3
 72
8
 73
4
 74
0
 40
0
 40
0
 40
0
 40
0
 40
1
 40
1
 40
1
 40
1
 10
192.681556
 20
400.455609
 30
0.0
 10
192.927319
 20
399.858860
 30
0.0
 10
194.483625
 20
398.339291
 30
0.0
 10
196.139710
 20
397.078809
 30
0.0
  0
SPLINE
  5
1cb
100
AcDbEntity
  8
Layer_1
 62
7
100
AcDbSpline
 70
8
 71
3
 72
8
 73
4
 74
0
 40
0
 40
0
 40
0
 40
0
 40
1
 40
1
 40
1
 40
1
 10
196.139710
 20
397.078809
 30
0.0
 10
199.285146
 20
394.684781
 30
0.0
 10
198.949637
 20
393.832261
 30
0.0
 10
195.745326
 20
396.076677
 30
0.0
  0
SPLINE
  5
1cc
100
AcDbEntity
  8
Layer_1
 62
7
100
AcDbSpline
 70
8
 71
3
 72
8
 73
4
 74
0
 40
0
 40
0
 40
0
 40
0
 40
1
 40
1
 40
1
 40
1
 10
195.745326
 20
396.076677
 30
0.0
 10
194.083571
 20
397.240611
 30
0.0
 10
193.952327
 20
397.240611
 30
0.0
 10
194.398982
 20
396.076677
 30
0.0
  0
SPLINE
  5
1cd
100
AcDbEntity
  8
Layer_1
 62
7
100
AcDbSpline
 70
8
 71
3
 72
8
 73
4
 74
0
 40
0
 40
0
 40
0
 40
0
 40
1
 40
1
 40
1
 40
1
 10
194.398982
 20
396.076677
 30
0.0
 10
194.671108
 20
395.367364
 30
0.0
 10
195.292973
 20
394.787027
 30
0.0
 10
195.780787
 20
394.787027
 30
0.0
  0
SPLINE
  5
1ce
100
AcDbEntity
  8
Layer_1
 62
7
100
AcDbSpline
 70
8
 71
3
 72
8
 73
4
 74
0
 40
0
 40
0
 40
0
 40
0
 40
1
 40
1
 40
1
 40
1
 10
195.780787
 20
394.787027
 30
0.0
 10
196.268630
 20
394.787027
 30
0.0
 10
197.418022
 20
394.130750
 30
0.0
 10
198.335030
 20
393.328630
 30
0.0
  0
SPLINE
  5
1cf
100
AcDbEntity
  8
Layer_1
 62
7
100
AcDbSpline
 70
8
 71
3
 72
8
 73
4
 74
0
 40
0
 40
0
 40
0
 40
0
 40
1
 40
1
 40
1
 40
1
 10
198.335030
 20
393.328630
 30
0.0
 10
199.252009
 20
392.526510
 30
0.0
 10
199.728201
 20
392.338998
 30
0.0
 10
199.393174
 20
392.911937
 30
0.0
  0
SPLINE
  5
1d0
100
AcDbEntity
  8
Layer_1
 62
7
100
AcDbSpline
 70
8
 71
3
 72
8
 73
4
 74
0
 40
0
 40
0
 40
0
 40
0
 40
1
 40
1
 40
1
 40
1
 10
199.393174
 20
392.911937
 30
0.0
 10
198.670028
 20
394.148665
 30
0.0
 10
199.634970
 20
394.249720
 30
0.0
 10
201.382557
 20
393.120283
 30
0.0
  0
SPLINE
  5
1d1
100
AcDbEntity
  8
Layer_1
 62
7
100
AcDbSpline
 70
8
 71
3
 72
8
 73
4
 74
0
 40
0
 40
0
 40
0
 40
0
 40
1
 40
1
 40
1
 40
1
 10
201.382557
 20
393.120283
 30
0.0
 10
202.445691
 20
392.433222
 30
0.0
 10
202.451927
 20
392.310510
 30
0.0
 10
201.424226
 20
392.299654
 30
0.0
  0
SPLINE
  5
1d2
100
AcDbEntity
  8
Layer_1
 62
7
100
AcDbSpline
 70
8
 71
3
 72
8
 73
4
 74
0
 40
0
 40
0
 40
0
 40
0
 40
1
 40
1
 40
1
 40
1
 10
201.424226
 20
392.299654
 30
0.0
 10
199.549732
 20
392.279811
 30
0.0
 10
201.507849
 20
390.717751
 30
0.0
 10
203.856494
 20
390.359310
 30
0.0
  0
SPLINE
  5
1d3
100
AcDbEntity
  8
Layer_1
 62
7
100
AcDbSpline
 70
8
 71
3
 72
8
 73
4
 74
0
 40
0
 40
0
 40
0
 40
0
 40
1
 40
1
 40
1
 40
1
 10
203.856494
 20
390.359310
 30
0.0
 10
204.968384
 20
390.189515
 30
0.0
 10
206.026019
 20
389.607052
 30
0.0
 10
206.206812
 20
389.064699
 30
0.0
  0
SPLINE
  5
1d4
100
AcDbEntity
  8
Layer_1
 62
7
100
AcDbSpline
 70
8
 71
3
 72
8
 73
4
 74
0
 40
0
 40
0
 40
0
 40
0
 40
1
 40
1
 40
1
 40
1
 10
206.206812
 20
389.064699
 30
0.0
 10
206.510913
 20
388.152425
 30
0.0
 10
212.417974
 20
385.215364
 30
0.0
 10
212.805612
 20
385.783710
 30
0.0
  0
SPLINE
  5
1d5
100
AcDbEntity
  8
Layer_1
 62
7
100
AcDbSpline
 70
8
 71
3
 72
8
 73
4
 74
0
 40
0
 40
0
 40
0
 40
0
 40
1
 40
1
 40
1
 40
1
 10
212.805612
 20
385.783710
 30
0.0
 10
212.900573
 20
385.922891
 30
0.0
 10
213.544831
 20
385.286542
 30
0.0
 10
214.237505
 20
384.369817
 30
0.0
  0
SPLINE
  5
1d6
100
AcDbEntity
  8
Layer_1
 62
7
100
AcDbSpline
 70
8
 71
3
 72
8
 73
4
 74
0
 40
0
 40
0
 40
0
 40
0
 40
1
 40
1
 40
1
 40
1
 10
214.237505
 20
384.369817
 30
0.0
 10
215.188727
 20
383.110980
 30
0.0
 10
215.509637
 20
383.008989
 30
0.0
 10
215.548784
 20
383.953124
 30
0.0
  0
SPLINE
  5
1d7
100
AcDbEntity
  8
Layer_1
 62
7
100
AcDbSpline
 70
8
 71
3
 72
8
 73
4
 74
0
 40
0
 40
0
 40
0
 40
0
 40
1
 40
1
 40
1
 40
1
 10
215.548784
 20
383.953124
 30
0.0
 10
215.589603
 20
384.933628
 30
0.0
 10
215.786044
 20
384.884929
 30
0.0
 10
216.459896
 20
383.727203
 30
0.0
  0
SPLINE
  5
1d8
100
AcDbEntity
  8
Layer_1
 62
7
100
AcDbSpline
 70
8
 71
3
 72
8
 73
4
 74
0
 40
0
 40
0
 40
0
 40
0
 40
1
 40
1
 40
1
 40
1
 10
216.459896
 20
383.727203
 30
0.0
 10
216.932488
 20
382.915446
 30
0.0
 10
217.671112
 20
382.468791
 30
0.0
 10
218.101297
 20
382.734652
 30
0.0
  0
SPLINE
  5
1d9
100
AcDbEntity
  8
Layer_1
 62
7
100
AcDbSpline
 70
8
 71
3
 72
8
 73
4
 74
0
 40
0
 40
0
 40
0
 40
0
 40
1
 40
1
 40
1
 40
1
 10
218.101297
 20
382.734652
 30
0.0
 10
218.531483
 20
383.000542
 30
0.0
 10
218.883461
 20
382.861644
 30
0.0
 10
218.883461
 20
382.425846
 30
0.0
  0
SPLINE
  5
1da
100
AcDbEntity
  8
Layer_1
 62
7
100
AcDbSpline
 70
8
 71
3
 72
8
 73
4
 74
0
 40
0
 40
0
 40
0
 40
0
 40
1
 40
1
 40
1
 40
1
 10
218.883461
 20
382.425846
 30
0.0
 10
218.883461
 20
381.738557
 30
0.0
 10
221.042015
 20
380.859676
 30
0.0
 10
224.467118
 20
380.152403
 30
0.0
  0
SPLINE
  5
1db
100
AcDbEntity
  8
Layer_1
 62
7
100
AcDbSpline
 70
8
 71
3
 72
8
 73
4
 74
0
 40
0
 40
0
 40
0
 40
0
 40
1
 40
1
 40
1
 40
1
 10
224.467118
 20
380.152403
 30
0.0
 10
225.940056
 20
379.848246
 30
0.0
 10
239.027247
 20
375.572920
 30
0.0
 10
240.967959
 20
374.761899
 30
0.0
  0
SPLINE
  5
1dc
100
AcDbEntity
  8
Layer_1
 62
7
100
AcDbSpline
 70
8
 71
3
 72
8
 73
4
 74
0
 40
0
 40
0
 40
0
 40
0
 40
1
 40
1
 40
1
 40
1
 10
240.967959
 20
374.761899
 30
0.0
 10
243.748774
 20
373.599808
 30
0.0
 10
245.286286
 20
373.925027
 30
0.0
 10
243.051395
 20
375.202630
 30
0.0
  0
LWPOLYLINE
  5
1dd
100
AcDbEntity
  8
Layer_1
 62
7
100
AcDbPolyline
 90
2
 70
0
 10
291.109521
 20
360.302939
 30
0.0
 10
291.109720
 20
360.301833
 30
0.0
  0
SPLINE
  5
1de
100
AcDbEntity
  8
Layer_1
 62
7
100
AcDbSpline
 70
8
 71
3
 72
8
 73
4
 74
0
 40
0
 40
0
 40
0
 40
0
 40
1
 40
1
 40
1
 40
1
 10
311.596639
 20
396.411449
 30
0.0
 10
312.398759
 20
396.434126
 30
0.0
 10
313.055036
 20
396.806343
 30
0.0
 10
313.055036
 20
397.237238
 30
0.0
  0
SPLINE
  5
1df
100
AcDbEntity
  8
Layer_1
 62
7
100
AcDbSpline
 70
8
 71
3
 72
8
 73
4
 74
0
 40
0
 40
0
 40
0
 40
0
 40
1
 40
1
 40
1
 40
1
 10
313.055036
 20
397.237238
 30
0.0
 10
313.055036
 20
397.668132
 30
0.0
 10
312.023735
 20
397.898391
 30
0.0
 10
310.763254
 20
397.748948
 30
0.0
  0
SPLINE
  5
1e0
100
AcDbEntity
  8
Layer_1
 62
7
100
AcDbSpline
 70
8
 71
3
 72
8
 73
4
 74
0
 40
0
 40
0
 40
0
 40
0
 40
1
 40
1
 40
1
 40
1
 10
310.763254
 20
397.748948
 30
0.0
 10
309.502772
 20
397.599562
 30
0.0
 10
307.252658
 20
397.434444
 30
0.0
 10
305.762995
 20
397.382202
 30
0.0
  0
SPLINE
  5
1e1
100
AcDbEntity
  8
Layer_1
 62
7
100
AcDbSpline
 70
8
 71
3
 72
8
 73
4
 74
0
 40
0
 40
0
 40
0
 40
0
 40
1
 40
1
 40
1
 40
1
 10
305.762995
 20
397.382202
 30
0.0
 10
304.273332
 20
397.330044
 30
0.0
 10
303.054520
 20
396.877181
 30
0.0
 10
303.054520
 20
396.376101
 30
0.0
  0
SPLINE
  5
1e2
100
AcDbEntity
  8
Layer_1
 62
7
100
AcDbSpline
 70
8
 71
3
 72
8
 73
4
 74
0
 40
0
 40
0
 40
0
 40
0
 40
1
 40
1
 40
1
 40
1
 10
303.054520
 20
396.376101
 30
0.0
 10
303.054520
 20
395.788904
 30
0.0
 10
304.313698
 20
395.625713
 30
0.0
 10
306.596353
 20
395.917058
 30
0.0
  0
SPLINE
  5
1e3
100
AcDbEntity
  8
Layer_1
 62
7
100
AcDbSpline
 70
8
 71
3
 72
8
 73
4
 74
0
 40
0
 40
0
 40
0
 40
0
 40
1
 40
1
 40
1
 40
1
 10
306.596353
 20
395.917058
 30
0.0
 10
308.544378
 20
396.165657
 30
0.0
 10
310.794491
 20
396.388148
 30
0.0
 10
311.596639
 20
396.411449
 30
0.0
  0
LWPOLYLINE
  5
1e4
100
AcDbEntity
  8
Layer_1
 62
7
100
AcDbPolyline
 90
1
 70
1
 10
243.051395
 20
375.202630
 30
0.0
  0
SPLINE
  5
1e5
100
AcDbEntity
  8
Layer_1
 62
7
100
AcDbSpline
 70
8
 71
3
 72
8
 73
4
 74
0
 40
0
 40
0
 40
0
 40
0
 40
1
 40
1
 40
1
 40
1
 10
315.555165
 20
397.287156
 30
0.0
 10
315.555165
 20
397.745518
 30
0.0
 10
315.158003
 20
398.120542
 30
0.0
 10
314.672598
 20
398.120542
 30
0.0
  0
SPLINE
  5
1e6
100
AcDbEntity
  8
Layer_1
 62
7
100
AcDbSpline
 70
8
 71
3
 72
8
 73
4
 74
0
 40
0
 40
0
 40
0
 40
0
 40
1
 40
1
 40
1
 40
1
 10
314.672598
 20
398.120542
 30
0.0
 10
314.187194
 20
398.120542
 30
0.0
 10
314.021820
 20
397.745518
 30
0.0
 10
314.305115
 20
397.287156
 30
0.0
  0
SPLINE
  5
1e7
100
AcDbEntity
  8
Layer_1
 62
7
100
AcDbSpline
 70
8
 71
3
 72
8
 73
4
 74
0
 40
0
 40
0
 40
0
 40
0
 40
1
 40
1
 40
1
 40
1
 10
314.305115
 20
397.287156
 30
0.0
 10
314.588296
 20
396.828822
 30
0.0
 10
314.985543
 20
396.453798
 30
0.0
 10
315.187654
 20
396.453798
 30
0.0
  0
SPLINE
  5
1e8
100
AcDbEntity
  8
Layer_1
 62
7
100
AcDbSpline
 70
8
 71
3
 72
8
 73
4
 74
0
 40
0
 40
0
 40
0
 40
0
 40
1
 40
1
 40
1
 40
1
 10
315.187654
 20
396.453798
 30
0.0
 10
315.389764
 20
396.453798
 30
0.0
 10
315.555165
 20
396.828822
 30
0.0
 10
315.555165
 20
397.287156
 30
0.0
  0
LWPOLYLINE
  5
1e9
100
AcDbEntity
  8
Layer_1
 62
7
100
AcDbPolyline
 90
1
 70
1
 10
311.596639
 20
396.411449
 30
0.0
  0
SPLINE
  5
1ea
100
AcDbEntity
  8
Layer_1
 62
7
100
AcDbSpline
 70
8
 71
3
 72
8
 73
4
 74
0
 40
0
 40
0
 40
0
 40
0
 40
1
 40
1
 40
1
 40
1
 10
228.050620
 20
407.704365
 30
0.0
 10
225.323776
 20
409.263194
 30
0.0
 10
223.846415
 20
409.244825
 30
0.0
 10
225.918116
 20
407.678854
 30
0.0
  0
SPLINE
  5
1eb
100
AcDbEntity
  8
Layer_1
 62
7
100
AcDbSpline
 70
8
 71
3
 72
8
 73
4
 74
0
 40
0
 40
0
 40
0
 40
0
 40
1
 40
1
 40
1
 40
1
 10
225.918116
 20
407.678854
 30
0.0
 10
226.807826
 20
407.005880
 30
0.0
 10
228.120409
 20
406.468573
 30
0.0
 10
228.834938
 20
406.484816
 30
0.0
  0
SPLINE
  5
1ec
100
AcDbEntity
  8
Layer_1
 62
7
100
AcDbSpline
 70
8
 71
3
 72
8
 73
4
 74
0
 40
0
 40
0
 40
0
 40
0
 40
1
 40
1
 40
1
 40
1
 10
228.834938
 20
406.484816
 30
0.0
 10
229.667615
 20
406.504658
 30
0.0
 10
229.386050
 20
406.941931
 30
0.0
 10
228.050620
 20
407.705329
 30
0.0
  0
LWPOLYLINE
  5
1ed
100
AcDbEntity
  8
Layer_1
 62
7
100
AcDbPolyline
 90
1
 70
1
 10
315.555165
 20
397.287156
 30
0.0
  0
SPLINE
  5
1ee
100
AcDbEntity
  8
Layer_1
 62
7
100
AcDbSpline
 70
8
 71
3
 72
8
 73
4
 74
0
 40
0
 40
0
 40
0
 40
0
 40
1
 40
1
 40
1
 40
1
 10
353.057159
 20
407.287701
 30
0.0
 10
353.744702
 20
407.732003
 30
0.0
 10
353.932186
 20
408.095546
 30
0.0
 10
353.473852
 20
408.095546
 30
0.0
  0
SPLINE
  5
1ef
100
AcDbEntity
  8
Layer_1
 62
7
100
AcDbSpline
 70
8
 71
3
 72
8
 73
4
 74
0
 40
0
 40
0
 40
0
 40
0
 40
1
 40
1
 40
1
 40
1
 10
353.473852
 20
408.095546
 30
0.0
 10
353.015490
 20
408.095546
 30
0.0
 10
352.077902
 20
407.732003
 30
0.0
 10
351.390359
 20
407.287701
 30
0.0
  0
SPLINE
  5
1f0
100
AcDbEntity
  8
Layer_1
 62
7
100
AcDbSpline
 70
8
 71
3
 72
8
 73
4
 74
0
 40
0
 40
0
 40
0
 40
0
 40
1
 40
1
 40
1
 40
1
 10
351.390359
 20
407.287701
 30
0.0
 10
350.702844
 20
406.843370
 30
0.0
 10
350.515332
 20
406.479827
 30
0.0
 10
350.973694
 20
406.479827
 30
0.0
  0
SPLINE
  5
1f1
100
AcDbEntity
  8
Layer_1
 62
7
100
AcDbSpline
 70
8
 71
3
 72
8
 73
4
 74
0
 40
0
 40
0
 40
0
 40
0
 40
1
 40
1
 40
1
 40
1
 10
350.973694
 20
406.479827
 30
0.0
 10
351.432028
 20
406.479827
 30
0.0
 10
352.369616
 20
406.843370
 30
0.0
 10
353.057159
 20
407.287701
 30
0.0
  0
LWPOLYLINE
  5
1f2
100
AcDbEntity
  8
Layer_1
 62
7
100
AcDbPolyline
 90
2
 70
0
 10
228.050620
 20
407.705329
 30
0.0
 10
228.050620
 20
407.704365
 30
0.0
  0
SPLINE
  5
1f3
100
AcDbEntity
  8
Layer_1
 62
7
100
AcDbSpline
 70
8
 71
3
 72
8
 73
4
 74
0
 40
0
 40
0
 40
0
 40
0
 40
1
 40
1
 40
1
 40
1
 10
227.217234
 20
410.115345
 30
0.0
 10
227.217234
 20
410.295628
 30
0.0
 10
226.635225
 20
410.666202
 30
0.0
 10
225.923871
 20
410.939178
 30
0.0
  0
SPLINE
  5
1f4
100
AcDbEntity
  8
Layer_1
 62
7
100
AcDbSpline
 70
8
 71
3
 72
8
 73
4
 74
0
 40
0
 40
0
 40
0
 40
0
 40
1
 40
1
 40
1
 40
1
 10
225.923871
 20
410.939178
 30
0.0
 10
225.182242
 20
411.223776
 30
0.0
 10
224.847726
 20
411.084028
 30
0.0
 10
225.139694
 20
410.611663
 30
0.0
  0
SPLINE
  5
1f5
100
AcDbEntity
  8
Layer_1
 62
7
100
AcDbSpline
 70
8
 71
3
 72
8
 73
4
 74
0
 40
0
 40
0
 40
0
 40
0
 40
1
 40
1
 40
1
 40
1
 10
225.139694
 20
410.611663
 30
0.0
 10
225.629096
 20
409.819776
 30
0.0
 10
227.217234
 20
409.440387
 30
0.0
 10
227.217234
 20
410.115345
 30
0.0
  0
LWPOLYLINE
  5
1f6
100
AcDbEntity
  8
Layer_1
 62
7
100
AcDbPolyline
 90
1
 70
1
 10
353.057159
 20
407.287701
 30
0.0
  0
SPLINE
  5
1f7
100
AcDbEntity
  8
Layer_1
 62
7
100
AcDbSpline
 70
8
 71
3
 72
8
 73
4
 74
0
 40
0
 40
0
 40
0
 40
0
 40
1
 40
1
 40
1
 40
1
 10
208.891307
 20
411.861203
 30
0.0
 10
207.609990
 20
413.405065
 30
0.0
 10
202.247719
 20
416.764403
 30
0.0
 10
201.792022
 20
416.308706
 30
0.0
  0
SPLINE
  5
1f8
100
AcDbEntity
  8
Layer_1
 62
7
100
AcDbSpline
 70
8
 71
3
 72
8
 73
4
 74
0
 40
0
 40
0
 40
0
 40
0
 40
1
 40
1
 40
1
 40
1
 10
201.792022
 20
416.308706
 30
0.0
 10
201.500904
 20
416.017616
 30
0.0
 10
208.769474
 20
410.766151
 30
0.0
 10
209.610003
 20
410.660277
 30
0.0
  0
SPLINE
  5
1f9
100
AcDbEntity
  8
Layer_1
 62
7
100
AcDbSpline
 70
8
 71
3
 72
8
 73
4
 74
0
 40
0
 40
0
 40
0
 40
0
 40
1
 40
1
 40
1
 40
1
 10
209.610003
 20
410.660277
 30
0.0
 10
209.780649
 20
410.637600
 30
0.0
 10
209.457215
 20
411.179187
 30
0.0
 10
208.891307
 20
411.861203
 30
0.0
  0
LWPOLYLINE
  5
1fa
100
AcDbEntity
  8
Layer_1
 62
7
100
AcDbPolyline
 90
1
 70
1
 10
227.217234
 20
410.115345
 30
0.0
  0
SPLINE
  5
1fb
100
AcDbEntity
  8
Layer_1
 62
7
100
AcDbSpline
 70
8
 71
3
 72
8
 73
4
 74
0
 40
0
 40
0
 40
0
 40
0
 40
1
 40
1
 40
1
 40
1
 10
361.841868
 20
411.510019
 30
0.0
 10
362.738806
 20
412.961301
 30
0.0
 10
361.717143
 20
413.268633
 30
0.0
 10
360.574271
 20
411.891392
 30
0.0
  0
SPLINE
  5
1fc
100
AcDbEntity
  8
Layer_1
 62
7
100
AcDbSpline
 70
8
 71
3
 72
8
 73
4
 74
0
 40
0
 40
0
 40
0
 40
0
 40
1
 40
1
 40
1
 40
1
 10
360.574271
 20
411.891392
 30
0.0
 10
359.916945
 20
411.099364
 30
0.0
 10
359.853704
 20
410.621187
 30
0.0
 10
360.406176
 20
410.621187
 30
0.0
  0
SPLINE
  5
1fd
100
AcDbEntity
  8
Layer_1
 62
7
100
AcDbSpline
 70
8
 71
3
 72
8
 73
4
 74
0
 40
0
 40
0
 40
0
 40
0
 40
1
 40
1
 40
1
 40
1
 10
360.406176
 20
410.621187
 30
0.0
 10
360.893594
 20
410.621187
 30
0.0
 10
361.539609
 20
411.021156
 30
0.0
 10
361.841726
 20
411.510019
 30
0.0
  0
LWPOLYLINE
  5
1fe
100
AcDbEntity
  8
Layer_1
 62
7
100
AcDbPolyline
 90
1
 70
1
 10
208.891307
 20
411.861203
 30
0.0
  0
SPLINE
  5
1ff
100
AcDbEntity
  8
Layer_1
 62
7
100
AcDbSpline
 70
8
 71
3
 72
8
 73
4
 74
0
 40
0
 40
0
 40
0
 40
0
 40
1
 40
1
 40
1
 40
1
 10
175.547880
 20
430.989732
 30
0.0
 10
175.547880
 20
431.191843
 30
0.0
 10
175.172856
 20
431.589033
 30
0.0
 10
174.714494
 20
431.872299
 30
0.0
  0
SPLINE
  5
200
100
AcDbEntity
  8
Layer_1
 62
7
100
AcDbSpline
 70
8
 71
3
 72
8
 73
4
 74
0
 40
0
 40
0
 40
0
 40
0
 40
1
 40
1
 40
1
 40
1
 10
174.714494
 20
431.872299
 30
0.0
 10
174.256132
 20
432.155480
 30
0.0
 10
173.881108
 20
431.990220
 30
0.0
 10
173.881108
 20
431.504816
 30
0.0
  0
SPLINE
  5
201
100
AcDbEntity
  8
Layer_1
 62
7
100
AcDbSpline
 70
8
 71
3
 72
8
 73
4
 74
0
 40
0
 40
0
 40
0
 40
0
 40
1
 40
1
 40
1
 40
1
 10
173.881108
 20
431.504816
 30
0.0
 10
173.881108
 20
431.019411
 30
0.0
 10
174.256132
 20
430.622249
 30
0.0
 10
174.714494
 20
430.622249
 30
0.0
  0
SPLINE
  5
202
100
AcDbEntity
  8
Layer_1
 62
7
100
AcDbSpline
 70
8
 71
3
 72
8
 73
4
 74
0
 40
0
 40
0
 40
0
 40
0
 40
1
 40
1
 40
1
 40
1
 10
174.714494
 20
430.622249
 30
0.0
 10
175.172856
 20
430.622249
 30
0.0
 10
175.547880
 20
430.787509
 30
0.0
 10
175.547880
 20
430.989732
 30
0.0
  0
LWPOLYLINE
  5
203
100
AcDbEntity
  8
Layer_1
 62
7
100
AcDbPolyline
 90
2
 70
0
 10
361.841726
 20
411.510019
 30
0.0
 10
361.841868
 20
411.510019
 30
0.0
  0
SPLINE
  5
204
100
AcDbEntity
  8
Layer_1
 62
7
100
AcDbSpline
 70
8
 71
3
 72
8
 73
4
 74
0
 40
0
 40
0
 40
0
 40
0
 40
1
 40
1
 40
1
 40
1
 10
169.858264
 20
437.842913
 30
0.0
 10
168.769534
 20
439.863279
 30
0.0
 10
164.713978
 20
443.633017
 30
0.0
 10
164.713978
 20
442.624677
 30
0.0
  0
SPLINE
  5
205
100
AcDbEntity
  8
Layer_1
 62
7
100
AcDbSpline
 70
8
 71
3
 72
8
 73
4
 74
0
 40
0
 40
0
 40
0
 40
0
 40
1
 40
1
 40
1
 40
1
 10
164.713978
 20
442.624677
 30
0.0
 10
164.713978
 20
441.553039
 30
0.0
 10
169.807467
 20
435.437943
 30
0.0
 10
170.294460
 20
435.924935
 30
0.0
  0
SPLINE
  5
206
100
AcDbEntity
  8
Layer_1
 62
7
100
AcDbSpline
 70
8
 71
3
 72
8
 73
4
 74
0
 40
0
 40
0
 40
0
 40
0
 40
1
 40
1
 40
1
 40
1
 10
170.294460
 20
435.924935
 30
0.0
 10
170.507908
 20
436.138384
 30
0.0
 10
170.311467
 20
437.001534
 30
0.0
 10
169.858264
 20
437.842913
 30
0.0
  0
LWPOLYLINE
  5
207
100
AcDbEntity
  8
Layer_1
 62
7
100
AcDbPolyline
 90
1
 70
1
 10
175.547880
 20
430.989732
 30
0.0
  0
SPLINE
  5
208
100
AcDbEntity
  8
Layer_1
 62
7
100
AcDbSpline
 70
8
 71
3
 72
8
 73
4
 74
0
 40
0
 40
0
 40
0
 40
0
 40
1
 40
1
 40
1
 40
1
 10
169.714264
 20
442.657020
 30
0.0
 10
169.714264
 20
442.859131
 30
0.0
 10
169.339241
 20
443.256293
 30
0.0
 10
168.880907
 20
443.539587
 30
0.0
  0
SPLINE
  5
209
100
AcDbEntity
  8
Layer_1
 62
7
100
AcDbSpline
 70
8
 71
3
 72
8
 73
4
 74
0
 40
0
 40
0
 40
0
 40
0
 40
1
 40
1
 40
1
 40
1
 10
168.880907
 20
443.539587
 30
0.0
 10
168.422545
 20
443.822769
 30
0.0
 10
168.047521
 20
443.657509
 30
0.0
 10
168.047521
 20
443.172076
 30
0.0
  0
SPLINE
  5
20a
100
AcDbEntity
  8
Layer_1
 62
7
100
AcDbSpline
 70
8
 71
3
 72
8
 73
4
 74
0
 40
0
 40
0
 40
0
 40
0
 40
1
 40
1
 40
1
 40
1
 10
168.047521
 20
443.172076
 30
0.0
 10
168.047521
 20
442.686671
 30
0.0
 10
168.422545
 20
442.289509
 30
0.0
 10
168.880907
 20
442.289509
 30
0.0
  0
SPLINE
  5
20b
100
AcDbEntity
  8
Layer_1
 62
7
100
AcDbSpline
 70
8
 71
3
 72
8
 73
4
 74
0
 40
0
 40
0
 40
0
 40
0
 40
1
 40
1
 40
1
 40
1
 10
168.880907
 20
442.289509
 30
0.0
 10
169.339241
 20
442.289509
 30
0.0
 10
169.714264
 20
442.454769
 30
0.0
 10
169.714264
 20
442.657020
 30
0.0
  0
LWPOLYLINE
  5
20c
100
AcDbEntity
  8
Layer_1
 62
7
100
AcDbPolyline
 90
1
 70
1
 10
169.858264
 20
437.842913
 30
0.0
  0
SPLINE
  5
20d
100
AcDbEntity
  8
Layer_1
 62
7
100
AcDbSpline
 70
8
 71
3
 72
8
 73
4
 74
0
 40
0
 40
0
 40
0
 40
0
 40
1
 40
1
 40
1
 40
1
 10
407.226671
 20
445.827118
 30
0.0
 10
407.226671
 20
446.292000
 30
0.0
 10
406.673943
 20
446.201745
 30
0.0
 10
405.976620
 20
445.623024
 30
0.0
  0
SPLINE
  5
20e
100
AcDbEntity
  8
Layer_1
 62
7
100
AcDbSpline
 70
8
 71
3
 72
8
 73
4
 74
0
 40
0
 40
0
 40
0
 40
0
 40
1
 40
1
 40
1
 40
1
 10
405.976620
 20
445.623024
 30
0.0
 10
405.289077
 20
445.052409
 30
0.0
 10
404.726542
 20
444.210548
 30
0.0
 10
404.726542
 20
443.752186
 30
0.0
  0
SPLINE
  5
20f
100
AcDbEntity
  8
Layer_1
 62
7
100
AcDbSpline
 70
8
 71
3
 72
8
 73
4
 74
0
 40
0
 40
0
 40
0
 40
0
 40
1
 40
1
 40
1
 40
1
 10
404.726542
 20
443.752186
 30
0.0
 10
404.726542
 20
443.287304
 30
0.0
 10
405.279298
 20
443.377559
 30
0.0
 10
405.976620
 20
443.956280
 30
0.0
  0
SPLINE
  5
210
100
AcDbEntity
  8
Layer_1
 62
7
100
AcDbSpline
 70
8
 71
3
 72
8
 73
4
 74
0
 40
0
 40
0
 40
0
 40
0
 40
1
 40
1
 40
1
 40
1
 10
405.976620
 20
443.956280
 30
0.0
 10
406.664135
 20
444.526866
 30
0.0
 10
407.226671
 20
445.368756
 30
0.0
 10
407.226671
 20
445.827118
 30
0.0
  0
LWPOLYLINE
  5
211
100
AcDbEntity
  8
Layer_1
 62
7
100
AcDbPolyline
 90
1
 70
1
 10
169.714264
 20
442.657020
 30
0.0
  0
SPLINE
  5
212
100
AcDbEntity
  8
Layer_1
 62
7
100
AcDbSpline
 70
8
 71
3
 72
8
 73
4
 74
0
 40
0
 40
0
 40
0
 40
0
 40
1
 40
1
 40
1
 40
1
 10
418.144422
 20
461.040491
 30
0.0
 10
418.716567
 20
462.147562
 30
0.0
 10
418.433584
 20
462.007644
 30
0.0
 10
417.301654
 20
460.623798
 30
0.0
  0
SPLINE
  5
213
100
AcDbEntity
  8
Layer_1
 62
7
100
AcDbSpline
 70
8
 71
3
 72
8
 73
4
 74
0
 40
0
 40
0
 40
0
 40
0
 40
1
 40
1
 40
1
 40
1
 10
417.301654
 20
460.623798
 30
0.0
 10
416.364378
 20
459.477921
 30
0.0
 10
415.594913
 20
458.165339
 30
0.0
 10
415.591739
 20
457.707005
 30
0.0
  0
SPLINE
  5
214
100
AcDbEntity
  8
Layer_1
 62
7
100
AcDbSpline
 70
8
 71
3
 72
8
 73
4
 74
0
 40
0
 40
0
 40
0
 40
0
 40
1
 40
1
 40
1
 40
1
 10
415.591739
 20
457.707005
 30
0.0
 10
415.586069
 20
456.815225
 30
0.0
 10
416.739572
 20
458.322208
 30
0.0
 10
418.144422
 20
461.040491
 30
0.0
  0
LWPOLYLINE
  5
215
100
AcDbEntity
  8
Layer_1
 62
7
100
AcDbPolyline
 90
1
 70
1
 10
407.226671
 20
445.827118
 30
0.0
  0
SPLINE
  5
216
100
AcDbEntity
  8
Layer_1
 62
7
100
AcDbSpline
 70
8
 71
3
 72
8
 73
4
 74
0
 40
0
 40
0
 40
0
 40
0
 40
1
 40
1
 40
1
 40
1
 10
471.405600
 20
487.734888
 30
0.0
 10
472.775783
 20
491.788403
 30
0.0
 10
473.868595
 20
495.503348
 30
0.0
 10
473.834098
 20
495.990312
 30
0.0
  0
SPLINE
  5
217
100
AcDbEntity
  8
Layer_1
 62
7
100
AcDbSpline
 70
8
 71
3
 72
8
 73
4
 74
0
 40
0
 40
0
 40
0
 40
0
 40
1
 40
1
 40
1
 40
1
 10
473.834098
 20
495.990312
 30
0.0
 10
473.799515
 20
496.477276
 30
0.0
 10
472.690743
 20
493.753238
 30
0.0
 10
471.369969
 20
489.936898
 30
0.0
  0
SPLINE
  5
218
100
AcDbEntity
  8
Layer_1
 62
7
100
AcDbSpline
 70
8
 71
3
 72
8
 73
4
 74
0
 40
0
 40
0
 40
0
 40
0
 40
1
 40
1
 40
1
 40
1
 10
471.369969
 20
489.936898
 30
0.0
 10
468.194542
 20
480.761433
 30
0.0
 10
467.755540
 20
479.280671
 30
0.0
 10
468.385257
 20
479.869824
 30
0.0
  0
SPLINE
  5
219
100
AcDbEntity
  8
Layer_1
 62
7
100
AcDbSpline
 70
8
 71
3
 72
8
 73
4
 74
0
 40
0
 40
0
 40
0
 40
0
 40
1
 40
1
 40
1
 40
1
 10
468.385257
 20
479.869824
 30
0.0
 10
468.676261
 20
480.142233
 30
0.0
 10
470.035417
 20
483.681373
 30
0.0
 10
471.405600
 20
487.734888
 30
0.0
  0
LWPOLYLINE
  5
21a
100
AcDbEntity
  8
Layer_1
 62
7
100
AcDbPolyline
 90
1
 70
1
 10
418.144422
 20
461.040491
 30
0.0
  0
SPLINE
  5
21b
100
AcDbEntity
  8
Layer_1
 62
7
100
AcDbSpline
 70
8
 71
3
 72
8
 73
4
 74
0
 40
0
 40
0
 40
0
 40
0
 40
1
 40
1
 40
1
 40
1
 10
475.446444
 20
501.459279
 30
0.0
 10
475.446444
 20
502.247225
 30
0.0
 10
475.181688
 20
502.093191
 30
0.0
 10
474.730214
 20
501.042586
 30
0.0
  0
SPLINE
  5
21c
100
AcDbEntity
  8
Layer_1
 62
7
100
AcDbSpline
 70
8
 71
3
 72
8
 73
4
 74
0
 40
0
 40
0
 40
0
 40
0
 40
1
 40
1
 40
1
 40
1
 10
474.730214
 20
501.042586
 30
0.0
 10
474.336283
 20
500.125890
 30
0.0
 10
474.013984
 20
498.813307
 30
0.0
 10
474.013984
 20
498.125764
 30
0.0
  0
SPLINE
  5
21d
100
AcDbEntity
  8
Layer_1
 62
7
100
AcDbSpline
 70
8
 71
3
 72
8
 73
4
 74
0
 40
0
 40
0
 40
0
 40
0
 40
1
 40
1
 40
1
 40
1
 10
474.013984
 20
498.125764
 30
0.0
 10
474.013984
 20
497.337846
 30
0.0
 10
474.278740
 20
497.491880
 30
0.0
 10
474.730214
 20
498.542457
 30
0.0
  0
SPLINE
  5
21e
100
AcDbEntity
  8
Layer_1
 62
7
100
AcDbSpline
 70
8
 71
3
 72
8
 73
4
 74
0
 40
0
 40
0
 40
0
 40
0
 40
1
 40
1
 40
1
 40
1
 10
474.730214
 20
498.542457
 30
0.0
 10
475.124145
 20
499.459181
 30
0.0
 10
475.446444
 20
500.771735
 30
0.0
 10
475.446444
 20
501.459279
 30
0.0
  0
LWPOLYLINE
  5
21f
100
AcDbEntity
  8
Layer_1
 62
7
100
AcDbPolyline
 90
1
 70
1
 10
471.405600
 20
487.734888
 30
0.0
  0
SPLINE
  5
220
100
AcDbEntity
  8
Layer_1
 62
7
100
AcDbSpline
 70
8
 71
3
 72
8
 73
4
 74
0
 40
0
 40
0
 40
0
 40
0
 40
1
 40
1
 40
1
 40
1
 10
477.064205
 20
508.542973
 30
0.0
 10
477.064205
 20
509.862784
 30
0.0
 10
476.925307
 20
509.776044
 30
0.0
 10
476.396957
 20
508.126309
 30
0.0
  0
SPLINE
  5
221
100
AcDbEntity
  8
Layer_1
 62
7
100
AcDbSpline
 70
8
 71
3
 72
8
 73
4
 74
0
 40
0
 40
0
 40
0
 40
0
 40
1
 40
1
 40
1
 40
1
 10
476.396957
 20
508.126309
 30
0.0
 10
476.029984
 20
506.980403
 30
0.0
 10
475.729710
 20
505.292825
 30
0.0
 10
475.729710
 20
504.376101
 30
0.0
  0
SPLINE
  5
222
100
AcDbEntity
  8
Layer_1
 62
7
100
AcDbSpline
 70
8
 71
3
 72
8
 73
4
 74
0
 40
0
 40
0
 40
0
 40
0
 40
1
 40
1
 40
1
 40
1
 10
475.729710
 20
504.376101
 30
0.0
 10
475.729710
 20
503.056318
 30
0.0
 10
475.868608
 20
503.143058
 30
0.0
 10
476.396957
 20
504.792794
 30
0.0
  0
SPLINE
  5
223
100
AcDbEntity
  8
Layer_1
 62
7
100
AcDbSpline
 70
8
 71
3
 72
8
 73
4
 74
0
 40
0
 40
0
 40
0
 40
0
 40
1
 40
1
 40
1
 40
1
 10
476.396957
 20
504.792794
 30
0.0
 10
476.763931
 20
505.938671
 30
0.0
 10
477.064205
 20
507.626277
 30
0.0
 10
477.064205
 20
508.542973
 30
0.0
  0
LWPOLYLINE
  5
224
100
AcDbEntity
  8
Layer_1
 62
7
100
AcDbPolyline
 90
1
 70
1
 10
475.446444
 20
501.459279
 30
0.0
  0
SPLINE
  5
225
100
AcDbEntity
  8
Layer_1
 62
7
100
AcDbSpline
 70
8
 71
3
 72
8
 73
4
 74
0
 40
0
 40
0
 40
0
 40
0
 40
1
 40
1
 40
1
 40
1
 10
477.782249
 20
513.334913
 30
0.0
 10
477.551225
 20
513.907852
 30
0.0
 10
477.361928
 20
513.438945
 30
0.0
 10
477.361928
 20
512.293181
 30
0.0
  0
SPLINE
  5
226
100
AcDbEntity
  8
Layer_1
 62
7
100
AcDbSpline
 70
8
 71
3
 72
8
 73
4
 74
0
 40
0
 40
0
 40
0
 40
0
 40
1
 40
1
 40
1
 40
1
 10
477.361928
 20
512.293181
 30
0.0
 10
477.361928
 20
511.147276
 30
0.0
 10
477.550998
 20
510.678510
 30
0.0
 10
477.782249
 20
511.251449
 30
0.0
  0
SPLINE
  5
227
100
AcDbEntity
  8
Layer_1
 62
7
100
AcDbSpline
 70
8
 71
3
 72
8
 73
4
 74
0
 40
0
 40
0
 40
0
 40
0
 40
1
 40
1
 40
1
 40
1
 10
477.782249
 20
511.251449
 30
0.0
 10
478.013556
 20
511.824416
 30
0.0
 10
478.013556
 20
512.761946
 30
0.0
 10
477.782249
 20
513.334913
 30
0.0
  0
LWPOLYLINE
  5
228
100
AcDbEntity
  8
Layer_1
 62
7
100
AcDbPolyline
 90
1
 70
1
 10
477.064205
 20
508.542973
 30
0.0
  0
SPLINE
  5
229
100
AcDbEntity
  8
Layer_1
 62
7
100
AcDbSpline
 70
8
 71
3
 72
8
 73
4
 74
0
 40
0
 40
0
 40
0
 40
0
 40
1
 40
1
 40
1
 40
1
 10
479.548800
 20
521.043619
 30
0.0
 10
479.560139
 20
522.349682
 30
0.0
 10
479.419824
 20
522.259512
 30
0.0
 10
478.897087
 20
520.626926
 30
0.0
  0
SPLINE
  5
22a
100
AcDbEntity
  8
Layer_1
 62
7
100
AcDbSpline
 70
8
 71
3
 72
8
 73
4
 74
0
 40
0
 40
0
 40
0
 40
0
 40
1
 40
1
 40
1
 40
1
 10
478.897087
 20
520.626926
 30
0.0
 10
478.530113
 20
519.481020
 30
0.0
 10
478.236841
 20
517.605931
 30
0.0
 10
478.245373
 20
516.460054
 30
0.0
  0
SPLINE
  5
22b
100
AcDbEntity
  8
Layer_1
 62
7
100
AcDbSpline
 70
8
 71
3
 72
8
 73
4
 74
0
 40
0
 40
0
 40
0
 40
0
 40
1
 40
1
 40
1
 40
1
 10
478.245373
 20
516.460054
 30
0.0
 10
478.259546
 20
514.588620
 30
0.0
 10
478.325594
 20
514.631027
 30
0.0
 10
478.897087
 20
516.876718
 30
0.0
  0
SPLINE
  5
22c
100
AcDbEntity
  8
Layer_1
 62
7
100
AcDbSpline
 70
8
 71
3
 72
8
 73
4
 74
0
 40
0
 40
0
 40
0
 40
0
 40
1
 40
1
 40
1
 40
1
 10
478.897087
 20
516.876718
 30
0.0
 10
479.246967
 20
518.251805
 30
0.0
 10
479.540268
 20
520.126894
 30
0.0
 10
479.548800
 20
521.043619
 30
0.0
  0
LWPOLYLINE
  5
22d
100
AcDbEntity
  8
Layer_1
 62
7
100
AcDbPolyline
 90
1
 70
1
 10
477.782249
 20
513.334913
 30
0.0
  0
LWPOLYLINE
  5
22e
100
AcDbEntity
  8
Layer_1
 62
7
100
AcDbPolyline
 90
1
 70
1
 10
479.548800
 20
521.043619
 30
0.0
  0
SPLINE
  5
22f
100
AcDbEntity
  8
Layer_1
 62
7
100
AcDbSpline
 70
8
 71
3
 72
8
 73
4
 74
0
 40
0
 40
0
 40
0
 40
0
 40
1
 40
1
 40
1
 40
1
 10
480.515953
 20
536.877780
 30
0.0
 10
480.136734
 20
535.044331
 30
0.0
 10
479.847969
 20
531.481663
 30
0.0
 10
479.874246
 20
528.960699
 30
0.0
  0
LWPOLYLINE
  5
230
100
AcDbEntity
  8
Layer_1
 62
7
100
AcDbPolyline
 90
3
 70
0
 10
481.253357
 20
535.627701
 30
0.0
 10
481.205452
 20
540.211266
 30
0.0
 10
480.515953
 20
536.877780
 30
0.0
  0
SPLINE
  5
231
100
AcDbEntity
  8
Layer_1
 62
7
100
AcDbSpline
 70
8
 71
3
 72
8
 73
4
 74
0
 40
0
 40
0
 40
0
 40
0
 40
1
 40
1
 40
1
 40
1
 10
480.611650
 20
527.710620
 30
0.0
 10
480.990869
 20
529.544041
 30
0.0
 10
481.279635
 20
533.106737
 30
0.0
 10
481.253357
 20
535.627701
 30
0.0
  0
LWPOLYLINE
  5
232
100
AcDbEntity
  8
Layer_1
 62
7
100
AcDbPolyline
 90
3
 70
0
 10
479.874246
 20
528.960699
 30
0.0
 10
479.922151
 20
524.377106
 30
0.0
 10
480.611650
 20
527.710620
 30
0.0
  0
SPLINE
  5
233
100
AcDbEntity
  8
Layer_1
 62
7
100
AcDbSpline
 70
8
 71
3
 72
8
 73
4
 74
0
 40
0
 40
0
 40
0
 40
0
 40
1
 40
1
 40
1
 40
1
 10
201.630815
 20
672.718258
 30
0.0
 10
204.331467
 20
676.532812
 30
0.0
 10
201.213584
 20
673.766056
 30
0.0
 10
197.030894
 20
668.636368
 30
0.0
  0
LWPOLYLINE
  5
234
100
AcDbEntity
  8
Layer_1
 62
7
100
AcDbPolyline
 90
1
 70
1
 10
481.253357
 20
535.627701
 30
0.0
  0
SPLINE
  5
235
100
AcDbEntity
  8
Layer_1
 62
7
100
AcDbSpline
 70
8
 71
3
 72
8
 73
4
 74
0
 40
0
 40
0
 40
0
 40
0
 40
1
 40
1
 40
1
 40
1
 10
196.712365
 20
667.301306
 30
0.0
 10
198.443993
 20
668.905574
 30
0.0
 10
200.657285
 20
671.343199
 30
0.0
 10
201.630815
 20
672.718258
 30
0.0
  0
LWPOLYLINE
  5
236
100
AcDbEntity
  8
Layer_1
 62
7
100
AcDbPolyline
 90
3
 70
0
 10
197.030894
 20
668.636368
 30
0.0
 10
193.563952
 20
664.384484
 30
0.0
 10
196.712365
 20
667.301306
 30
0.0
  0
SPLINE
  5
237
100
AcDbEntity
  8
Layer_1
 62
7
100
AcDbSpline
 70
8
 71
3
 72
8
 73
4
 74
0
 40
0
 40
0
 40
0
 40
0
 40
1
 40
1
 40
1
 40
1
 10
194.401477
 20
670.843168
 30
0.0
 10
199.182022
 20
676.298302
 30
0.0
 10
199.116116
 20
677.234925
 30
0.0
 10
194.298863
 20
672.301565
 30
0.0
  0
SPLINE
  5
238
100
AcDbEntity
  8
Layer_1
 62
7
100
AcDbSpline
 70
8
 71
3
 72
8
 73
4
 74
0
 40
0
 40
0
 40
0
 40
0
 40
1
 40
1
 40
1
 40
1
 10
194.298863
 20
672.301565
 30
0.0
 10
192.508557
 20
670.468144
 30
0.0
 10
191.429521
 20
668.968078
 30
0.0
 10
191.901008
 20
668.968078
 30
0.0
  0
SPLINE
  5
239
100
AcDbEntity
  8
Layer_1
 62
7
100
AcDbSpline
 70
8
 71
3
 72
8
 73
4
 74
0
 40
0
 40
0
 40
0
 40
0
 40
1
 40
1
 40
1
 40
1
 10
191.901008
 20
668.968078
 30
0.0
 10
192.372494
 20
668.968078
 30
0.0
 10
193.497707
 20
669.811867
 30
0.0
 10
194.401477
 20
670.843168
 30
0.0
  0
LWPOLYLINE
  5
23a
100
AcDbEntity
  8
Layer_1
 62
7
100
AcDbPolyline
 90
1
 70
1
 10
201.630815
 20
672.718258
 30
0.0
  0
LWPOLYLINE
  5
23b
100
AcDbEntity
  8
Layer_1
 62
7
100
AcDbPolyline
 90
1
 70
1
 10
194.401477
 20
670.843168
 30
0.0
  0
SPLINE
  5
23c
100
AcDbEntity
  8
Layer_1
 62
7
100
AcDbSpline
 70
8
 71
3
 72
8
 73
4
 74
0
 40
0
 40
0
 40
0
 40
0
 40
1
 40
1
 40
1
 40
1
 10
206.524888
 20
679.437700
 30
0.0
 10
205.071678
 20
678.091470
 30
0.0
 10
203.882686
 20
676.663007
 30
0.0
 10
203.882686
 20
676.263351
 30
0.0
  0
SPLINE
  5
23d
100
AcDbEntity
  8
Layer_1
 62
7
100
AcDbSpline
 70
8
 71
3
 72
8
 73
4
 74
0
 40
0
 40
0
 40
0
 40
0
 40
1
 40
1
 40
1
 40
1
 10
203.882686
 20
676.263351
 30
0.0
 10
203.882686
 20
675.082154
 30
0.0
 10
205.341480
 20
676.329681
 30
0.0
 10
207.319467
 20
679.202141
 30
0.0
  0
LWPOLYLINE
  5
23e
100
AcDbEntity
  8
Layer_1
 62
7
100
AcDbPolyline
 90
3
 70
0
 10
207.319467
 20
679.202141
 30
0.0
 10
209.167118
 20
681.885417
 30
0.0
 10
206.524888
 20
679.437700
 30
0.0
  0
SPLINE
  5
23f
100
AcDbEntity
  8
Layer_1
 62
7
100
AcDbSpline
 70
8
 71
3
 72
8
 73
4
 74
0
 40
0
 40
0
 40
0
 40
0
 40
1
 40
1
 40
1
 40
1
 10
207.177168
 20
714.366913
 30
0.0
 10
209.764831
 20
715.705036
 30
0.0
 10
213.049874
 20
720.374803
 30
0.0
 10
213.049874
 20
722.715058
 30
0.0
  0
SPLINE
  5
240
100
AcDbEntity
  8
Layer_1
 62
7
100
AcDbSpline
 70
8
 71
3
 72
8
 73
4
 74
0
 40
0
 40
0
 40
0
 40
0
 40
1
 40
1
 40
1
 40
1
 10
213.049874
 20
722.715058
 30
0.0
 10
213.049874
 20
723.916352
 30
0.0
 10
212.573313
 20
724.083965
 30
0.0
 10
210.396107
 20
723.648535
 30
0.0
  0
SPLINE
  5
241
100
AcDbEntity
  8
Layer_1
 62
7
100
AcDbSpline
 70
8
 71
3
 72
8
 73
4
 74
0
 40
0
 40
0
 40
0
 40
0
 40
1
 40
1
 40
1
 40
1
 10
210.396107
 20
723.648535
 30
0.0
 10
207.291121
 20
723.027521
 30
0.0
 10
205.333912
 20
721.417130
 30
0.0
 10
202.902097
 20
717.482330
 30
0.0
  0
SPLINE
  5
242
100
AcDbEntity
  8
Layer_1
 62
7
100
AcDbSpline
 70
8
 71
3
 72
8
 73
4
 74
0
 40
0
 40
0
 40
0
 40
0
 40
1
 40
1
 40
1
 40
1
 10
202.902097
 20
717.482330
 30
0.0
 10
201.443275
 20
715.121921
 30
0.0
 10
201.340860
 20
714.508248
 30
0.0
 10
202.303959
 20
713.898403
 30
0.0
  0
SPLINE
  5
243
100
AcDbEntity
  8
Layer_1
 62
7
100
AcDbSpline
 70
8
 71
3
 72
8
 73
4
 74
0
 40
0
 40
0
 40
0
 40
0
 40
1
 40
1
 40
1
 40
1
 10
202.303959
 20
713.898403
 30
0.0
 10
203.889433
 20
712.894484
 30
0.0
 10
204.430397
 20
712.946472
 30
0.0
 10
207.177168
 20
714.366913
 30
0.0
  0
LWPOLYLINE
  5
244
100
AcDbEntity
  8
Layer_1
 62
7
100
AcDbPolyline
 90
1
 70
1
 10
207.319467
 20
679.202141
 30
0.0
  0
SPLINE
  5
245
100
AcDbEntity
  8
Layer_1
 62
7
100
AcDbSpline
 70
8
 71
3
 72
8
 73
4
 74
0
 40
0
 40
0
 40
0
 40
0
 40
1
 40
1
 40
1
 40
1
 10
300.653688
 20
360.852690
 30
0.0
 10
299.000069
 20
362.506309
 30
0.0
 10
299.652123
 20
362.958746
 30
0.0
 10
302.698630
 20
362.271628
 30
0.0
  0
SPLINE
  5
246
100
AcDbEntity
  8
Layer_1
 62
7
100
AcDbSpline
 70
8
 71
3
 72
8
 73
4
 74
0
 40
0
 40
0
 40
0
 40
0
 40
1
 40
1
 40
1
 40
1
 10
302.698630
 20
362.271628
 30
0.0
 10
305.101219
 20
361.729757
 30
0.0
 10
305.589033
 20
361.827184
 30
0.0
 10
305.224923
 20
362.776082
 30
0.0
  0
SPLINE
  5
247
100
AcDbEntity
  8
Layer_1
 62
7
100
AcDbSpline
 70
8
 71
3
 72
8
 73
4
 74
0
 40
0
 40
0
 40
0
 40
0
 40
1
 40
1
 40
1
 40
1
 10
305.224923
 20
362.776082
 30
0.0
 10
304.976608
 20
363.422891
 30
0.0
 10
305.093112
 20
363.952091
 30
0.0
 10
305.483726
 20
363.952091
 30
0.0
  0
SPLINE
  5
248
100
AcDbEntity
  8
Layer_1
 62
7
100
AcDbSpline
 70
8
 71
3
 72
8
 73
4
 74
0
 40
0
 40
0
 40
0
 40
0
 40
1
 40
1
 40
1
 40
1
 10
305.483726
 20
363.952091
 30
0.0
 10
306.316602
 20
363.952091
 30
0.0
 10
307.325480
 20
360.645874
 30
0.0
 10
306.518457
 20
360.561175
 30
0.0
  0
SPLINE
  5
249
100
AcDbEntity
  8
Layer_1
 62
7
100
AcDbSpline
 70
8
 71
3
 72
8
 73
4
 74
0
 40
0
 40
0
 40
0
 40
0
 40
1
 40
1
 40
1
 40
1
 10
306.518457
 20
360.561175
 30
0.0
 10
306.217587
 20
360.529710
 30
0.0
 10
304.984800
 20
360.372387
 30
0.0
 10
303.778885
 20
360.211918
 30
0.0
  0
SPLINE
  5
24a
100
AcDbEntity
  8
Layer_1
 62
7
100
AcDbSpline
 70
8
 71
3
 72
8
 73
4
 74
0
 40
0
 40
0
 40
0
 40
0
 40
1
 40
1
 40
1
 40
1
 10
303.778885
 20
360.211918
 30
0.0
 10
302.572998
 20
360.051477
 30
0.0
 10
301.166674
 20
360.339761
 30
0.0
 10
300.653745
 20
360.852690
 30
0.0
  0
LWPOLYLINE
  5
24b
100
AcDbEntity
  8
Layer_1
 62
7
100
AcDbPolyline
 90
1
 70
1
 10
207.177168
 20
714.366913
 30
0.0
  0
SPLINE
  5
24c
100
AcDbEntity
  8
Layer_1
 62
7
100
AcDbSpline
 70
8
 71
3
 72
8
 73
4
 74
0
 40
0
 40
0
 40
0
 40
0
 40
1
 40
1
 40
1
 40
1
 10
309.112413
 20
361.196107
 30
0.0
 10
309.923263
 20
361.407288
 30
0.0
 10
311.048334
 20
361.393398
 30
0.0
 10
311.612542
 20
361.165209
 30
0.0
  0
SPLINE
  5
24d
100
AcDbEntity
  8
Layer_1
 62
7
100
AcDbSpline
 70
8
 71
3
 72
8
 73
4
 74
0
 40
0
 40
0
 40
0
 40
0
 40
1
 40
1
 40
1
 40
1
 10
311.612542
 20
361.165209
 30
0.0
 10
312.176750
 20
360.937020
 30
0.0
 10
311.513329
 20
360.764050
 30
0.0
 10
310.138271
 20
360.781030
 30
0.0
  0
SPLINE
  5
24e
100
AcDbEntity
  8
Layer_1
 62
7
100
AcDbSpline
 70
8
 71
3
 72
8
 73
4
 74
0
 40
0
 40
0
 40
0
 40
0
 40
1
 40
1
 40
1
 40
1
 10
310.138271
 20
360.781030
 30
0.0
 10
308.763213
 20
360.798038
 30
0.0
 10
308.301562
 20
360.984841
 30
0.0
 10
309.112413
 20
361.196079
 30
0.0
  0
LWPOLYLINE
  5
24f
100
AcDbEntity
  8
Layer_1
 62
7
100
AcDbPolyline
 90
1
 70
1
 10
300.653745
 20
360.852690
 30
0.0
  0
SPLINE
  5
250
100
AcDbEntity
  8
Layer_1
 62
7
100
AcDbSpline
 70
8
 71
3
 72
8
 73
4
 74
0
 40
0
 40
0
 40
0
 40
0
 40
1
 40
1
 40
1
 40
1
 10
180.964860
 20
441.456151
 30
0.0
 10
180.681678
 20
441.914513
 30
0.0
 10
180.824828
 20
442.289509
 30
0.0
 10
181.283190
 20
442.289509
 30
0.0
  0
SPLINE
  5
251
100
AcDbEntity
  8
Layer_1
 62
7
100
AcDbSpline
 70
8
 71
3
 72
8
 73
4
 74
0
 40
0
 40
0
 40
0
 40
0
 40
1
 40
1
 40
1
 40
1
 10
181.283190
 20
442.289509
 30
0.0
 10
181.741552
 20
442.289509
 30
0.0
 10
182.348337
 20
441.914513
 30
0.0
 10
182.631631
 20
441.456151
 30
0.0
  0
SPLINE
  5
252
100
AcDbEntity
  8
Layer_1
 62
7
100
AcDbSpline
 70
8
 71
3
 72
8
 73
4
 74
0
 40
0
 40
0
 40
0
 40
0
 40
1
 40
1
 40
1
 40
1
 10
182.631631
 20
441.456151
 30
0.0
 10
182.914812
 20
440.997789
 30
0.0
 10
182.771663
 20
440.622765
 30
0.0
 10
182.313300
 20
440.622765
 30
0.0
  0
SPLINE
  5
253
100
AcDbEntity
  8
Layer_1
 62
7
100
AcDbSpline
 70
8
 71
3
 72
8
 73
4
 74
0
 40
0
 40
0
 40
0
 40
0
 40
1
 40
1
 40
1
 40
1
 10
182.313300
 20
440.622765
 30
0.0
 10
181.854938
 20
440.622765
 30
0.0
 10
181.248154
 20
440.997789
 30
0.0
 10
180.964860
 20
441.456151
 30
0.0
  0
LWPOLYLINE
  5
254
100
AcDbEntity
  8
Layer_1
 62
7
100
AcDbPolyline
 90
1
 70
1
 10
309.112413
 20
361.196079
 30
0.0
  0
SPLINE
  5
255
100
AcDbEntity
  8
Layer_1
 62
7
100
AcDbSpline
 70
8
 71
3
 72
8
 73
4
 74
0
 40
0
 40
0
 40
0
 40
0
 40
1
 40
1
 40
1
 40
1
 10
135.129149
 20
497.292406
 30
0.0
 10
134.845968
 20
497.750740
 30
0.0
 10
135.011228
 20
498.125764
 30
0.0
 10
135.496661
 20
498.125764
 30
0.0
  0
SPLINE
  5
256
100
AcDbEntity
  8
Layer_1
 62
7
100
AcDbSpline
 70
8
 71
3
 72
8
 73
4
 74
0
 40
0
 40
0
 40
0
 40
0
 40
1
 40
1
 40
1
 40
1
 10
135.496661
 20
498.125764
 30
0.0
 10
135.982066
 20
498.125764
 30
0.0
 10
136.379200
 20
497.750740
 30
0.0
 10
136.379200
 20
497.292406
 30
0.0
  0
SPLINE
  5
257
100
AcDbEntity
  8
Layer_1
 62
7
100
AcDbSpline
 70
8
 71
3
 72
8
 73
4
 74
0
 40
0
 40
0
 40
0
 40
0
 40
1
 40
1
 40
1
 40
1
 10
136.379200
 20
497.292406
 30
0.0
 10
136.379200
 20
496.834044
 30
0.0
 10
136.213940
 20
496.459020
 30
0.0
 10
136.011716
 20
496.459020
 30
0.0
  0
SPLINE
  5
258
100
AcDbEntity
  8
Layer_1
 62
7
100
AcDbSpline
 70
8
 71
3
 72
8
 73
4
 74
0
 40
0
 40
0
 40
0
 40
0
 40
1
 40
1
 40
1
 40
1
 10
136.011716
 20
496.459020
 30
0.0
 10
135.809606
 20
496.459020
 30
0.0
 10
135.412415
 20
496.834044
 30
0.0
 10
135.129149
 20
497.292406
 30
0.0
  0
LWPOLYLINE
  5
259
100
AcDbEntity
  8
Layer_1
 62
7
100
AcDbPolyline
 90
1
 70
1
 10
180.964860
 20
441.456151
 30
0.0
  0
SPLINE
  5
25a
100
AcDbEntity
  8
Layer_1
 62
7
100
AcDbSpline
 70
8
 71
3
 72
8
 73
4
 74
0
 40
0
 40
0
 40
0
 40
0
 40
1
 40
1
 40
1
 40
1
 10
148.059244
 20
526.252224
 30
0.0
 10
148.088157
 20
529.553197
 30
0.0
 10
148.936226
 20
529.747597
 30
0.0
 10
164.334192
 20
529.982476
 30
0.0
  0
SPLINE
  5
25b
100
AcDbEntity
  8
Layer_1
 62
7
100
AcDbSpline
 70
8
 71
3
 72
8
 73
4
 74
0
 40
0
 40
0
 40
0
 40
0
 40
1
 40
1
 40
1
 40
1
 10
164.334192
 20
529.982476
 30
0.0
 10
183.988293
 20
530.282296
 30
0.0
 10
184.154800
 20
531.793332
 30
0.0
 10
164.568050
 20
532.106164
 30
0.0
  0
SPLINE
  5
25c
100
AcDbEntity
  8
Layer_1
 62
7
100
AcDbSpline
 70
8
 71
3
 72
8
 73
4
 74
0
 40
0
 40
0
 40
0
 40
0
 40
1
 40
1
 40
1
 40
1
 10
164.568050
 20
532.106164
 30
0.0
 10
155.732488
 20
532.247329
 30
0.0
 10
149.829480
 20
532.685169
 30
0.0
 10
149.148995
 20
533.249943
 30
0.0
  0
SPLINE
  5
25d
100
AcDbEntity
  8
Layer_1
 62
7
100
AcDbSpline
 70
8
 71
3
 72
8
 73
4
 74
0
 40
0
 40
0
 40
0
 40
0
 40
1
 40
1
 40
1
 40
1
 10
149.148995
 20
533.249943
 30
0.0
 10
148.280913
 20
533.970369
 30
0.0
 10
148.046346
 20
539.290261
 30
0.0
 10
148.046346
 20
558.257102
 30
0.0
  0
SPLINE
  5
25e
100
AcDbEntity
  8
Layer_1
 62
7
100
AcDbSpline
 70
8
 71
3
 72
8
 73
4
 74
0
 40
0
 40
0
 40
0
 40
0
 40
1
 40
1
 40
1
 40
1
 10
148.046346
 20
558.257102
 30
0.0
 10
148.046346
 20
578.903494
 30
0.0
 10
147.867480
 20
582.417774
 30
0.0
 10
146.796267
 20
582.828854
 30
0.0
  0
SPLINE
  5
25f
100
AcDbEntity
  8
Layer_1
 62
7
100
AcDbSpline
 70
8
 71
3
 72
8
 73
4
 74
0
 40
0
 40
0
 40
0
 40
0
 40
1
 40
1
 40
1
 40
1
 10
146.796267
 20
582.828854
 30
0.0
 10
146.108752
 20
583.092760
 30
0.0
 10
145.546217
 20
583.830958
 30
0.0
 10
145.546217
 20
584.469462
 30
0.0
  0
SPLINE
  5
260
100
AcDbEntity
  8
Layer_1
 62
7
100
AcDbSpline
 70
8
 71
3
 72
8
 73
4
 74
0
 40
0
 40
0
 40
0
 40
0
 40
1
 40
1
 40
1
 40
1
 10
145.546217
 20
584.469462
 30
0.0
 10
145.546217
 20
586.210275
 30
0.0
 10
148.694403
 20
585.867056
 30
0.0
 10
149.683779
 20
584.018413
 30
0.0
  0
SPLINE
  5
261
100
AcDbEntity
  8
Layer_1
 62
7
100
AcDbSpline
 70
8
 71
3
 72
8
 73
4
 74
0
 40
0
 40
0
 40
0
 40
0
 40
1
 40
1
 40
1
 40
1
 10
149.683779
 20
584.018413
 30
0.0
 10
150.220689
 20
583.015147
 30
0.0
 10
150.546475
 20
573.416782
 30
0.0
 10
150.546475
 20
558.600372
 30
0.0
  0
LWPOLYLINE
  5
262
100
AcDbEntity
  8
Layer_1
 62
7
100
AcDbPolyline
 90
1
 70
1
 10
135.129149
 20
497.292406
 30
0.0
  0
SPLINE
  5
263
100
AcDbEntity
  8
Layer_1
 62
7
100
AcDbSpline
 70
8
 71
3
 72
8
 73
4
 74
0
 40
0
 40
0
 40
0
 40
0
 40
1
 40
1
 40
1
 40
1
 10
165.071030
 20
534.794315
 30
0.0
 10
177.164025
 20
534.794315
 30
0.0
 10
179.814844
 20
534.575197
 30
0.0
 10
180.905190
 20
533.484737
 30
0.0
  0
SPLINE
  5
264
100
AcDbEntity
  8
Layer_1
 62
7
100
AcDbSpline
 70
8
 71
3
 72
8
 73
4
 74
0
 40
0
 40
0
 40
0
 40
0
 40
1
 40
1
 40
1
 40
1
 10
180.905190
 20
533.484737
 30
0.0
 10
181.625474
 20
532.764454
 30
0.0
 10
182.214797
 20
531.666198
 30
0.0
 10
182.214797
 20
531.044135
 30
0.0
  0
SPLINE
  5
265
100
AcDbEntity
  8
Layer_1
 62
7
100
AcDbSpline
 70
8
 71
3
 72
8
 73
4
 74
0
 40
0
 40
0
 40
0
 40
0
 40
1
 40
1
 40
1
 40
1
 10
182.214797
 20
531.044135
 30
0.0
 10
182.214797
 20
530.422072
 30
0.0
 10
181.625474
 20
529.323789
 30
0.0
 10
180.905190
 20
528.603534
 30
0.0
  0
SPLINE
  5
266
100
AcDbEntity
  8
Layer_1
 62
7
100
AcDbSpline
 70
8
 71
3
 72
8
 73
4
 74
0
 40
0
 40
0
 40
0
 40
0
 40
1
 40
1
 40
1
 40
1
 10
180.905190
 20
528.603534
 30
0.0
 10
179.814844
 20
527.513187
 30
0.0
 10
177.164025
 20
527.293928
 30
0.0
 10
165.071030
 20
527.293928
 30
0.0
  0
SPLINE
  5
267
100
AcDbEntity
  8
Layer_1
 62
7
100
AcDbSpline
 70
8
 71
3
 72
8
 73
4
 74
0
 40
0
 40
0
 40
0
 40
0
 40
1
 40
1
 40
1
 40
1
 10
165.071030
 20
527.293928
 30
0.0
 10
152.715886
 20
527.293928
 30
0.0
 10
150.546475
 20
527.107124
 30
0.0
 10
150.546475
 20
526.043877
 30
0.0
  0
SPLINE
  5
268
100
AcDbEntity
  8
Layer_1
 62
7
100
AcDbSpline
 70
8
 71
3
 72
8
 73
4
 74
0
 40
0
 40
0
 40
0
 40
0
 40
1
 40
1
 40
1
 40
1
 10
150.546475
 20
526.043877
 30
0.0
 10
150.546475
 20
525.356334
 30
0.0
 10
149.983940
 20
524.793798
 30
0.0
 10
149.296397
 20
524.793798
 30
0.0
  0
SPLINE
  5
269
100
AcDbEntity
  8
Layer_1
 62
7
100
AcDbSpline
 70
8
 71
3
 72
8
 73
4
 74
0
 40
0
 40
0
 40
0
 40
0
 40
1
 40
1
 40
1
 40
1
 10
149.296397
 20
524.793798
 30
0.0
 10
148.608882
 20
524.793798
 30
0.0
 10
148.052072
 20
525.450104
 30
0.0
 10
148.059102
 20
526.252224
 30
0.0
  0
LWPOLYLINE
  5
26a
100
AcDbEntity
  8
Layer_1
 62
7
100
AcDbPolyline
 90
3
 70
0
 10
150.546475
 20
558.600372
 30
0.0
 10
150.546475
 20
534.794315
 30
0.0
 10
165.071030
 20
534.794315
 30
0.0
  0
SPLINE
  5
26b
100
AcDbEntity
  8
Layer_1
 62
7
100
AcDbSpline
 70
8
 71
3
 72
8
 73
4
 74
0
 40
0
 40
0
 40
0
 40
0
 40
1
 40
1
 40
1
 40
1
 10
206.549549
 20
528.293991
 30
0.0
 10
205.814497
 20
529.029043
 30
0.0
 10
205.549486
 20
536.179124
 30
0.0
 10
205.549486
 20
555.276728
 30
0.0
  0
SPLINE
  5
26c
100
AcDbEntity
  8
Layer_1
 62
7
100
AcDbSpline
 70
8
 71
3
 72
8
 73
4
 74
0
 40
0
 40
0
 40
0
 40
0
 40
1
 40
1
 40
1
 40
1
 10
205.549486
 20
555.276728
 30
0.0
 10
205.549486
 20
577.355749
 30
0.0
 10
205.361833
 20
581.415273
 30
0.0
 10
204.299436
 20
582.296876
 30
0.0
  0
SPLINE
  5
26d
100
AcDbEntity
  8
Layer_1
 62
7
100
AcDbSpline
 70
8
 71
3
 72
8
 73
4
 74
0
 40
0
 40
0
 40
0
 40
0
 40
1
 40
1
 40
1
 40
1
 10
204.299436
 20
582.296876
 30
0.0
 10
202.713849
 20
583.612775
 30
0.0
 10
202.677820
 20
585.630363
 30
0.0
 10
204.239908
 20
585.630363
 30
0.0
  0
SPLINE
  5
26e
100
AcDbEntity
  8
Layer_1
 62
7
100
AcDbSpline
 70
8
 71
3
 72
8
 73
4
 74
0
 40
0
 40
0
 40
0
 40
0
 40
1
 40
1
 40
1
 40
1
 10
204.239908
 20
585.630363
 30
0.0
 10
204.894712
 20
585.630363
 30
0.0
 10
206.019754
 20
585.041068
 30
0.0
 10
206.740037
 20
584.320785
 30
0.0
  0
SPLINE
  5
26f
100
AcDbEntity
  8
Layer_1
 62
7
100
AcDbSpline
 70
8
 71
3
 72
8
 73
4
 74
0
 40
0
 40
0
 40
0
 40
0
 40
1
 40
1
 40
1
 40
1
 10
206.740037
 20
584.320785
 30
0.0
 10
207.875001
 20
583.185793
 30
0.0
 10
208.049615
 20
579.518952
 30
0.0
 10
208.049615
 20
556.819313
 30
0.0
  0
SPLINE
  5
270
100
AcDbEntity
  8
Layer_1
 62
7
100
AcDbSpline
 70
8
 71
3
 72
8
 73
4
 74
0
 40
0
 40
0
 40
0
 40
0
 40
1
 40
1
 40
1
 40
1
 10
208.049615
 20
556.819313
 30
0.0
 10
208.049615
 20
540.357165
 30
0.0
 10
208.351534
 20
530.627443
 30
0.0
 10
208.862365
 20
530.627443
 30
0.0
  0
SPLINE
  5
271
100
AcDbEntity
  8
Layer_1
 62
7
100
AcDbSpline
 70
8
 71
3
 72
8
 73
4
 74
0
 40
0
 40
0
 40
0
 40
0
 40
1
 40
1
 40
1
 40
1
 10
208.862365
 20
530.627443
 30
0.0
 10
209.347685
 20
530.627443
 30
0.0
 10
209.767326
 20
536.083002
 30
0.0
 10
209.904069
 20
544.169820
 30
0.0
  0
LWPOLYLINE
  5
272
100
AcDbEntity
  8
Layer_1
 62
7
100
AcDbPolyline
 90
2
 70
0
 10
148.059102
 20
526.252224
 30
0.0
 10
148.059244
 20
526.252224
 30
0.0
  0
SPLINE
  5
273
100
AcDbEntity
  8
Layer_1
 62
7
100
AcDbSpline
 70
8
 71
3
 72
8
 73
4
 74
0
 40
0
 40
0
 40
0
 40
0
 40
1
 40
1
 40
1
 40
1
 10
235.551121
 20
570.289629
 30
0.0
 10
235.551121
 20
582.719380
 30
0.0
 10
236.157650
 20
585.630618
 30
0.0
 10
238.747269
 20
585.630618
 30
0.0
  0
SPLINE
  5
274
100
AcDbEntity
  8
Layer_1
 62
7
100
AcDbSpline
 70
8
 71
3
 72
8
 73
4
 74
0
 40
0
 40
0
 40
0
 40
0
 40
1
 40
1
 40
1
 40
1
 10
238.747269
 20
585.630618
 30
0.0
 10
242.095042
 20
585.630618
 30
0.0
 10
242.218123
 20
584.618848
 30
0.0
 10
242.218123
 20
557.102948
 30
0.0
  0
SPLINE
  5
275
100
AcDbEntity
  8
Layer_1
 62
7
100
AcDbSpline
 70
8
 71
3
 72
8
 73
4
 74
0
 40
0
 40
0
 40
0
 40
0
 40
1
 40
1
 40
1
 40
1
 10
242.218123
 20
557.102948
 30
0.0
 10
242.218123
 20
534.291676
 30
0.0
 10
242.393304
 20
530.508189
 30
0.0
 10
243.468201
 20
530.095691
 30
0.0
  0
SPLINE
  5
276
100
AcDbEntity
  8
Layer_1
 62
7
100
AcDbSpline
 70
8
 71
3
 72
8
 73
4
 74
0
 40
0
 40
0
 40
0
 40
0
 40
1
 40
1
 40
1
 40
1
 10
243.468201
 20
530.095691
 30
0.0
 10
245.059628
 20
529.484995
 30
0.0
 10
245.106173
 20
527.294183
 30
0.0
 10
243.527729
 20
527.294183
 30
0.0
  0
SPLINE
  5
277
100
AcDbEntity
  8
Layer_1
 62
7
100
AcDbSpline
 70
8
 71
3
 72
8
 73
4
 74
0
 40
0
 40
0
 40
0
 40
0
 40
1
 40
1
 40
1
 40
1
 10
243.527729
 20
527.294183
 30
0.0
 10
242.872926
 20
527.294183
 30
0.0
 10
241.747855
 20
527.883506
 30
0.0
 10
241.027600
 20
528.603789
 30
0.0
  0
SPLINE
  5
278
100
AcDbEntity
  8
Layer_1
 62
7
100
AcDbSpline
 70
8
 71
3
 72
8
 73
4
 74
0
 40
0
 40
0
 40
0
 40
0
 40
1
 40
1
 40
1
 40
1
 10
241.027600
 20
528.603789
 30
0.0
 10
239.892608
 20
529.738753
 30
0.0
 10
239.717993
 20
533.405622
 30
0.0
 10
239.717993
 20
556.105238
 30
0.0
  0
SPLINE
  5
279
100
AcDbEntity
  8
Layer_1
 62
7
100
AcDbSpline
 70
8
 71
3
 72
8
 73
4
 74
0
 40
0
 40
0
 40
0
 40
0
 40
1
 40
1
 40
1
 40
1
 10
239.717993
 20
556.105238
 30
0.0
 10
239.718022
 20
573.010889
 30
0.0
 10
239.422538
 20
582.297131
 30
0.0
 10
238.884636
 20
582.297131
 30
0.0
  0
SPLINE
  5
27a
100
AcDbEntity
  8
Layer_1
 62
7
100
AcDbSpline
 70
8
 71
3
 72
8
 73
4
 74
0
 40
0
 40
0
 40
0
 40
0
 40
1
 40
1
 40
1
 40
1
 10
238.884636
 20
582.297131
 30
0.0
 10
238.366604
 20
582.297131
 30
0.0
 10
238.051278
 20
577.630171
 30
0.0
 10
238.051278
 20
569.963106
 30
0.0
  0
SPLINE
  5
27b
100
AcDbEntity
  8
Layer_1
 62
7
100
AcDbSpline
 70
8
 71
3
 72
8
 73
4
 74
0
 40
0
 40
0
 40
0
 40
0
 40
1
 40
1
 40
1
 40
1
 10
238.051278
 20
569.963106
 30
0.0
 10
238.051278
 20
561.481194
 30
0.0
 10
237.738929
 20
557.316822
 30
0.0
 10
237.051215
 20
556.629080
 30
0.0
  0
SPLINE
  5
27c
100
AcDbEntity
  8
Layer_1
 62
7
100
AcDbSpline
 70
8
 71
3
 72
8
 73
4
 74
0
 40
0
 40
0
 40
0
 40
0
 40
1
 40
1
 40
1
 40
1
 10
237.051215
 20
556.629080
 30
0.0
 10
236.366649
 20
555.944513
 30
0.0
 10
232.291704
 20
555.629046
 30
0.0
 10
224.133877
 20
555.629046
 30
0.0
  0
LWPOLYLINE
  5
27d
100
AcDbEntity
  8
Layer_1
 62
7
100
AcDbPolyline
 90
5
 70
0
 10
209.904069
 20
544.169820
 30
0.0
 10
210.133108
 20
557.712227
 30
0.0
 10
222.842100
 20
557.942400
 30
0.0
 10
235.551121
 20
558.172573
 30
0.0
 10
235.551121
 20
570.289629
 30
0.0
  0
SPLINE
  5
27e
100
AcDbEntity
  8
Layer_1
 62
7
100
AcDbSpline
 70
8
 71
3
 72
8
 73
4
 74
0
 40
0
 40
0
 40
0
 40
0
 40
1
 40
1
 40
1
 40
1
 10
212.216573
 20
542.461663
 30
0.0
 10
212.216573
 20
529.011553
 30
0.0
 10
211.839140
 20
527.294183
 30
0.0
 10
208.883086
 20
527.294183
 30
0.0
  0
SPLINE
  5
27f
100
AcDbEntity
  8
Layer_1
 62
7
100
AcDbSpline
 70
8
 71
3
 72
8
 73
4
 74
0
 40
0
 40
0
 40
0
 40
0
 40
1
 40
1
 40
1
 40
1
 10
208.883086
 20
527.294183
 30
0.0
 10
208.149707
 20
527.294183
 30
0.0
 10
207.099641
 20
527.744211
 30
0.0
 10
206.549606
 20
528.294246
 30
0.0
  0
LWPOLYLINE
  5
280
100
AcDbEntity
  8
Layer_1
 62
7
100
AcDbPolyline
 90
3
 70
0
 10
224.133877
 20
555.629046
 30
0.0
 10
212.216573
 20
555.629046
 30
0.0
 10
212.216573
 20
542.461663
 30
0.0
  0
SPLINE
  5
281
100
AcDbEntity
  8
Layer_1
 62
7
100
AcDbSpline
 70
8
 71
3
 72
8
 73
4
 74
0
 40
0
 40
0
 40
0
 40
0
 40
1
 40
1
 40
1
 40
1
 10
255.086478
 20
528.371093
 30
0.0
 10
254.836746
 20
529.021616
 30
0.0
 10
257.111436
 20
534.951921
 30
0.0
 10
260.141077
 20
541.549616
 30
0.0
  0
SPLINE
  5
282
100
AcDbEntity
  8
Layer_1
 62
7
100
AcDbSpline
 70
8
 71
3
 72
8
 73
4
 74
0
 40
0
 40
0
 40
0
 40
0
 40
1
 40
1
 40
1
 40
1
 10
260.141077
 20
541.549616
 30
0.0
 10
263.170718
 20
548.147339
 30
0.0
 10
265.688110
 20
554.107975
 30
0.0
 10
265.735335
 20
554.795490
 30
0.0
  0
SPLINE
  5
283
100
AcDbEntity
  8
Layer_1
 62
7
100
AcDbSpline
 70
8
 71
3
 72
8
 73
4
 74
0
 40
0
 40
0
 40
0
 40
0
 40
1
 40
1
 40
1
 40
1
 10
265.735335
 20
554.795490
 30
0.0
 10
265.782390
 20
555.483033
 30
0.0
 10
262.740872
 20
561.625761
 30
0.0
 10
258.976094
 20
568.446004
 30
0.0
  0
SPLINE
  5
284
100
AcDbEntity
  8
Layer_1
 62
7
100
AcDbSpline
 70
8
 71
3
 72
8
 73
4
 74
0
 40
0
 40
0
 40
0
 40
0
 40
1
 40
1
 40
1
 40
1
 10
258.976094
 20
568.446004
 30
0.0
 10
255.211288
 20
575.266218
 30
0.0
 10
252.244463
 20
581.603295
 30
0.0
 10
252.383134
 20
582.528325
 30
0.0
  0
SPLINE
  5
285
100
AcDbEntity
  8
Layer_1
 62
7
100
AcDbSpline
 70
8
 71
3
 72
8
 73
4
 74
0
 40
0
 40
0
 40
0
 40
0
 40
1
 40
1
 40
1
 40
1
 10
252.383134
 20
582.528325
 30
0.0
 10
252.691316
 20
584.583868
 30
0.0
 10
254.871924
 20
586.069790
 30
0.0
 10
256.604545
 20
585.404923
 30
0.0
  0
SPLINE
  5
286
100
AcDbEntity
  8
Layer_1
 62
7
100
AcDbSpline
 70
8
 71
3
 72
8
 73
4
 74
0
 40
0
 40
0
 40
0
 40
0
 40
1
 40
1
 40
1
 40
1
 10
256.604545
 20
585.404923
 30
0.0
 10
257.307990
 20
585.135065
 30
0.0
 10
260.570157
 20
580.012549
 30
0.0
 10
263.853782
 20
574.021695
 30
0.0
  0
SPLINE
  5
287
100
AcDbEntity
  8
Layer_1
 62
7
100
AcDbSpline
 70
8
 71
3
 72
8
 73
4
 74
0
 40
0
 40
0
 40
0
 40
0
 40
1
 40
1
 40
1
 40
1
 10
263.853782
 20
574.021695
 30
0.0
 10
267.137436
 20
568.030870
 30
0.0
 10
269.985348
 20
563.129286
 30
0.0
 10
270.182497
 20
563.129286
 30
0.0
  0
SPLINE
  5
288
100
AcDbEntity
  8
Layer_1
 62
7
100
AcDbSpline
 70
8
 71
3
 72
8
 73
4
 74
0
 40
0
 40
0
 40
0
 40
0
 40
1
 40
1
 40
1
 40
1
 10
270.182497
 20
563.129286
 30
0.0
 10
270.379505
 20
563.129286
 30
0.0
 10
272.969096
 20
567.974886
 30
0.0
 10
275.936800
 20
573.897254
 30
0.0
  0
SPLINE
  5
289
100
AcDbEntity
  8
Layer_1
 62
7
100
AcDbSpline
 70
8
 71
3
 72
8
 73
4
 74
0
 40
0
 40
0
 40
0
 40
0
 40
1
 40
1
 40
1
 40
1
 10
275.936800
 20
573.897254
 30
0.0
 10
278.904532
 20
579.819679
 30
0.0
 10
281.723219
 20
584.906678
 30
0.0
 10
282.200545
 20
585.201679
 30
0.0
  0
SPLINE
  5
28a
100
AcDbEntity
  8
Layer_1
 62
7
100
AcDbSpline
 70
8
 71
3
 72
8
 73
4
 74
0
 40
0
 40
0
 40
0
 40
0
 40
1
 40
1
 40
1
 40
1
 10
282.200545
 20
585.201679
 30
0.0
 10
283.321536
 20
585.894495
 30
0.0
 10
286.387030
 20
584.927286
 30
0.0
 10
286.387030
 20
583.880706
 30
0.0
  0
SPLINE
  5
28b
100
AcDbEntity
  8
Layer_1
 62
7
100
AcDbSpline
 70
8
 71
3
 72
8
 73
4
 74
0
 40
0
 40
0
 40
0
 40
0
 40
1
 40
1
 40
1
 40
1
 10
286.387030
 20
583.880706
 30
0.0
 10
286.387030
 20
583.438473
 30
0.0
 10
285.587291
 20
582.780807
 30
0.0
 10
284.609849
 20
582.419220
 30
0.0
  0
SPLINE
  5
28c
100
AcDbEntity
  8
Layer_1
 62
7
100
AcDbSpline
 70
8
 71
3
 72
8
 73
4
 74
0
 40
0
 40
0
 40
0
 40
0
 40
1
 40
1
 40
1
 40
1
 10
284.609849
 20
582.419220
 30
0.0
 10
283.422875
 20
581.980133
 30
0.0
 10
280.862677
 20
577.925484
 30
0.0
 10
276.901118
 20
570.210854
 30
0.0
  0
SPLINE
  5
28d
100
AcDbEntity
  8
Layer_1
 62
7
100
AcDbSpline
 70
8
 71
3
 72
8
 73
4
 74
0
 40
0
 40
0
 40
0
 40
0
 40
1
 40
1
 40
1
 40
1
 10
276.901118
 20
570.210854
 30
0.0
 10
273.638752
 20
563.857875
 30
0.0
 10
270.594541
 20
558.634246
 30
0.0
 10
270.136208
 20
558.602838
 30
0.0
  0
SPLINE
  5
28e
100
AcDbEntity
  8
Layer_1
 62
7
100
AcDbSpline
 70
8
 71
3
 72
8
 73
4
 74
0
 40
0
 40
0
 40
0
 40
0
 40
1
 40
1
 40
1
 40
1
 10
270.136208
 20
558.602838
 30
0.0
 10
269.677845
 20
558.571374
 30
0.0
 10
266.406579
 20
563.792593
 30
0.0
 10
262.866730
 20
570.205440
 30
0.0
  0
SPLINE
  5
28f
100
AcDbEntity
  8
Layer_1
 62
7
100
AcDbSpline
 70
8
 71
3
 72
8
 73
4
 74
0
 40
0
 40
0
 40
0
 40
0
 40
1
 40
1
 40
1
 40
1
 10
262.866730
 20
570.205440
 30
0.0
 10
259.326910
 20
576.618316
 30
0.0
 10
255.989597
 20
582.012249
 30
0.0
 10
255.450475
 20
582.191966
 30
0.0
  0
SPLINE
  5
290
100
AcDbEntity
  8
Layer_1
 62
7
100
AcDbSpline
 70
8
 71
3
 72
8
 73
4
 74
0
 40
0
 40
0
 40
0
 40
0
 40
1
 40
1
 40
1
 40
1
 10
255.450475
 20
582.191966
 30
0.0
 10
254.911382
 20
582.371683
 30
0.0
 10
256.672661
 20
578.437336
 30
0.0
 10
259.364441
 20
573.449012
 30
0.0
  0
SPLINE
  5
291
100
AcDbEntity
  8
Layer_1
 62
7
100
AcDbSpline
 70
8
 71
3
 72
8
 73
4
 74
0
 40
0
 40
0
 40
0
 40
0
 40
1
 40
1
 40
1
 40
1
 10
259.364441
 20
573.449012
 30
0.0
 10
262.056220
 20
568.460687
 30
0.0
 10
265.373804
 20
562.277730
 30
0.0
 10
266.736787
 20
559.709116
 30
0.0
  0
LWPOLYLINE
  5
292
100
AcDbEntity
  8
Layer_1
 62
7
100
AcDbPolyline
 90
2
 70
0
 10
206.549606
 20
528.294246
 30
0.0
 10
206.549549
 20
528.293991
 30
0.0
  0
SPLINE
  5
293
100
AcDbEntity
  8
Layer_1
 62
7
100
AcDbSpline
 70
8
 71
3
 72
8
 73
4
 74
0
 40
0
 40
0
 40
0
 40
0
 40
1
 40
1
 40
1
 40
1
 10
263.060507
 20
541.535669
 30
0.0
 10
259.675543
 20
534.108898
 30
0.0
 10
256.598734
 20
527.842545
 30
0.0
 10
256.223171
 20
527.610444
 30
0.0
  0
SPLINE
  5
294
100
AcDbEntity
  8
Layer_1
 62
7
100
AcDbSpline
 70
8
 71
3
 72
8
 73
4
 74
0
 40
0
 40
0
 40
0
 40
0
 40
1
 40
1
 40
1
 40
1
 10
256.223171
 20
527.610444
 30
0.0
 10
255.847609
 20
527.378287
 30
0.0
 10
255.336097
 20
527.720712
 30
0.0
 10
255.086478
 20
528.371121
 30
0.0
  0
LWPOLYLINE
  5
295
100
AcDbEntity
  8
Layer_1
 62
7
100
AcDbPolyline
 90
3
 70
0
 10
266.736787
 20
559.709116
 30
0.0
 10
269.214976
 20
555.038901
 30
0.0
 10
263.060507
 20
541.535669
 30
0.0
  0
SPLINE
  5
296
100
AcDbEntity
  8
Layer_1
 62
7
100
AcDbSpline
 70
8
 71
3
 72
8
 73
4
 74
0
 40
0
 40
0
 40
0
 40
0
 40
1
 40
1
 40
1
 40
1
 10
297.845972
 20
528.142904
 30
0.0
 10
296.506176
 20
528.970394
 30
0.0
 10
296.387546
 20
531.211578
 30
0.0
 10
296.387546
 20
555.696482
 30
0.0
  0
SPLINE
  5
297
100
AcDbEntity
  8
Layer_1
 62
7
100
AcDbSpline
 70
8
 71
3
 72
8
 73
4
 74
0
 40
0
 40
0
 40
0
 40
0
 40
1
 40
1
 40
1
 40
1
 10
296.387546
 20
555.696482
 30
0.0
 10
296.387546
 20
578.619122
 30
0.0
 10
296.212649
 20
582.416470
 30
0.0
 10
295.137496
 20
582.829024
 30
0.0
  0
SPLINE
  5
298
100
AcDbEntity
  8
Layer_1
 62
7
100
AcDbSpline
 70
8
 71
3
 72
8
 73
4
 74
0
 40
0
 40
0
 40
0
 40
0
 40
1
 40
1
 40
1
 40
1
 10
295.137496
 20
582.829024
 30
0.0
 10
293.628331
 20
583.408142
 30
0.0
 10
293.461909
 20
585.635720
 30
0.0
 10
294.929150
 20
585.617777
 30
0.0
  0
SPLINE
  5
299
100
AcDbEntity
  8
Layer_1
 62
7
100
AcDbSpline
 70
8
 71
3
 72
8
 73
4
 74
0
 40
0
 40
0
 40
0
 40
0
 40
1
 40
1
 40
1
 40
1
 10
294.929150
 20
585.617777
 30
0.0
 10
298.396148
 20
585.575257
 30
0.0
 10
298.453380
 20
585.163157
 30
0.0
 10
298.887676
 20
557.118539
 30
0.0
  0
LWPOLYLINE
  5
29a
100
AcDbEntity
  8
Layer_1
 62
7
100
AcDbPolyline
 90
1
 70
1
 10
255.086478
 20
528.371121
 30
0.0
  0
SPLINE
  5
29b
100
AcDbEntity
  8
Layer_1
 62
7
100
AcDbSpline
 70
8
 71
3
 72
8
 73
4
 74
0
 40
0
 40
0
 40
0
 40
0
 40
1
 40
1
 40
1
 40
1
 10
309.746409
 20
530.255424
 30
0.0
 10
319.205735
 20
530.295959
 30
0.0
 10
320.539039
 20
530.491833
 30
0.0
 10
323.913798
 20
532.338888
 30
0.0
  0
SPLINE
  5
29c
100
AcDbEntity
  8
Layer_1
 62
7
100
AcDbSpline
 70
8
 71
3
 72
8
 73
4
 74
0
 40
0
 40
0
 40
0
 40
0
 40
1
 40
1
 40
1
 40
1
 10
323.913798
 20
532.338888
 30
0.0
 10
326.675565
 20
533.850293
 30
0.0
 10
328.178098
 20
535.455468
 30
0.0
 10
329.722639
 20
538.544523
 30
0.0
  0
SPLINE
  5
29d
100
AcDbEntity
  8
Layer_1
 62
7
100
AcDbSpline
 70
8
 71
3
 72
8
 73
4
 74
0
 40
0
 40
0
 40
0
 40
0
 40
1
 40
1
 40
1
 40
1
 10
329.722639
 20
538.544523
 30
0.0
 10
331.563798
 20
542.226898
 30
0.0
 10
331.839524
 20
543.984038
 30
0.0
 10
332.093820
 20
553.655792
 30
0.0
  0
SPLINE
  5
29e
100
AcDbEntity
  8
Layer_1
 62
7
100
AcDbSpline
 70
8
 71
3
 72
8
 73
4
 74
0
 40
0
 40
0
 40
0
 40
0
 40
1
 40
1
 40
1
 40
1
 10
332.093820
 20
553.655792
 30
0.0
 10
332.449342
 20
567.177727
 30
0.0
 10
331.386094
 20
572.959667
 30
0.0
 10
327.791055
 20
577.054199
 30
0.0
  0
SPLINE
  5
29f
100
AcDbEntity
  8
Layer_1
 62
7
100
AcDbSpline
 70
8
 71
3
 72
8
 73
4
 74
0
 40
0
 40
0
 40
0
 40
0
 40
1
 40
1
 40
1
 40
1
 10
327.791055
 20
577.054199
 30
0.0
 10
324.133200
 20
581.220306
 30
0.0
 10
320.630003
 20
582.427922
 30
0.0
 10
310.734255
 20
582.934133
 30
0.0
  0
SPLINE
  5
2a0
100
AcDbEntity
  8
Layer_1
 62
7
100
AcDbSpline
 70
8
 71
3
 72
8
 73
4
 74
0
 40
0
 40
0
 40
0
 40
0
 40
1
 40
1
 40
1
 40
1
 10
310.734255
 20
582.934133
 30
0.0
 10
305.008753
 20
583.227009
 30
0.0
 10
302.267849
 20
583.678227
 30
0.0
 10
302.478633
 20
584.293147
 30
0.0
  0
SPLINE
  5
2a1
100
AcDbEntity
  8
Layer_1
 62
7
100
AcDbSpline
 70
8
 71
3
 72
8
 73
4
 74
0
 40
0
 40
0
 40
0
 40
0
 40
1
 40
1
 40
1
 40
1
 10
302.478633
 20
584.293147
 30
0.0
 10
302.682728
 20
584.888848
 30
0.0
 10
305.863682
 20
585.202445
 30
0.0
 10
311.492098
 20
585.181837
 30
0.0
  0
SPLINE
  5
2a2
100
AcDbEntity
  8
Layer_1
 62
7
100
AcDbSpline
 70
8
 71
3
 72
8
 73
4
 74
0
 40
0
 40
0
 40
0
 40
0
 40
1
 40
1
 40
1
 40
1
 10
311.492098
 20
585.181837
 30
0.0
 10
319.019613
 20
585.153490
 30
0.0
 10
320.746535
 20
584.873909
 30
0.0
 10
324.325757
 20
583.098401
 30
0.0
  0
SPLINE
  5
2a3
100
AcDbEntity
  8
Layer_1
 62
7
100
AcDbSpline
 70
8
 71
3
 72
8
 73
4
 74
0
 40
0
 40
0
 40
0
 40
0
 40
1
 40
1
 40
1
 40
1
 10
324.325757
 20
583.098401
 30
0.0
 10
332.702816
 20
578.942838
 30
0.0
 10
335.097269
 20
571.927941
 30
0.0
 10
334.585247
 20
553.042063
 30
0.0
  0
SPLINE
  5
2a4
100
AcDbEntity
  8
Layer_1
 62
7
100
AcDbSpline
 70
8
 71
3
 72
8
 73
4
 74
0
 40
0
 40
0
 40
0
 40
0
 40
1
 40
1
 40
1
 40
1
 10
334.585247
 20
553.042063
 30
0.0
 10
334.296879
 20
542.405225
 30
0.0
 10
334.124164
 20
541.404283
 30
0.0
 10
331.789663
 20
536.839483
 30
0.0
  0
SPLINE
  5
2a5
100
AcDbEntity
  8
Layer_1
 62
7
100
AcDbSpline
 70
8
 71
3
 72
8
 73
4
 74
0
 40
0
 40
0
 40
0
 40
0
 40
1
 40
1
 40
1
 40
1
 10
331.789663
 20
536.839483
 30
0.0
 10
329.746989
 20
532.845383
 30
0.0
 10
328.566444
 20
531.595871
 30
0.0
 10
325.197071
 20
529.861946
 30
0.0
  0
SPLINE
  5
2a6
100
AcDbEntity
  8
Layer_1
 62
7
100
AcDbSpline
 70
8
 71
3
 72
8
 73
4
 74
0
 40
0
 40
0
 40
0
 40
0
 40
1
 40
1
 40
1
 40
1
 10
325.197071
 20
529.861946
 30
0.0
 10
321.527027
 20
527.973279
 30
0.0
 10
319.939880
 20
527.722894
 30
0.0
 10
310.198535
 20
527.495896
 30
0.0
  0
SPLINE
  5
2a7
100
AcDbEntity
  8
Layer_1
 62
7
100
AcDbSpline
 70
8
 71
3
 72
8
 73
4
 74
0
 40
0
 40
0
 40
0
 40
0
 40
1
 40
1
 40
1
 40
1
 10
310.198535
 20
527.495896
 30
0.0
 10
303.399468
 20
527.337439
 30
0.0
 10
298.756176
 20
527.580652
 30
0.0
 10
297.845972
 20
528.142762
 30
0.0
  0
LWPOLYLINE
  5
2a8
100
AcDbEntity
  8
Layer_1
 62
7
100
AcDbPolyline
 90
3
 70
0
 10
298.887676
 20
557.118539
 30
0.0
 10
299.304369
 20
530.210920
 30
0.0
 10
309.746409
 20
530.255424
 30
0.0
  0
SPLINE
  5
2a9
100
AcDbEntity
  8
Layer_1
 62
7
100
AcDbSpline
 70
8
 71
3
 72
8
 73
4
 74
0
 40
0
 40
0
 40
0
 40
0
 40
1
 40
1
 40
1
 40
1
 10
345.556800
 20
555.392835
 30
0.0
 10
345.556800
 20
576.244227
 30
0.0
 10
345.818438
 20
583.892016
 30
0.0
 10
346.556835
 20
584.630498
 30
0.0
  0
SPLINE
  5
2aa
100
AcDbEntity
  8
Layer_1
 62
7
100
AcDbSpline
 70
8
 71
3
 72
8
 73
4
 74
0
 40
0
 40
0
 40
0
 40
0
 40
1
 40
1
 40
1
 40
1
 10
346.556835
 20
584.630498
 30
0.0
 10
347.243641
 20
585.317305
 30
0.0
 10
351.381572
 20
585.630533
 30
0.0
 10
359.767672
 20
585.630533
 30
0.0
  0
SPLINE
  5
2ab
100
AcDbEntity
  8
Layer_1
 62
7
100
AcDbSpline
 70
8
 71
3
 72
8
 73
4
 74
0
 40
0
 40
0
 40
0
 40
0
 40
1
 40
1
 40
1
 40
1
 10
359.767672
 20
585.630533
 30
0.0
 10
371.051972
 20
585.630533
 30
0.0
 10
372.193228
 20
585.487667
 30
0.0
 10
374.810117
 20
583.748725
 30
0.0
  0
SPLINE
  5
2ac
100
AcDbEntity
  8
Layer_1
 62
7
100
AcDbSpline
 70
8
 71
3
 72
8
 73
4
 74
0
 40
0
 40
0
 40
0
 40
0
 40
1
 40
1
 40
1
 40
1
 10
374.810117
 20
583.748725
 30
0.0
 10
383.228476
 20
578.154268
 30
0.0
 10
383.588391
 20
561.475922
 30
0.0
 10
375.398504
 20
556.482671
 30
0.0
  0
SPLINE
  5
2ad
100
AcDbEntity
  8
Layer_1
 62
7
100
AcDbSpline
 70
8
 71
3
 72
8
 73
4
 74
0
 40
0
 40
0
 40
0
 40
0
 40
1
 40
1
 40
1
 40
1
 10
375.398504
 20
556.482671
 30
0.0
 10
373.161798
 20
555.118980
 30
0.0
 10
371.192485
 20
554.801216
 30
0.0
 10
364.962161
 20
554.798693
 30
0.0
  0
SPLINE
  5
2ae
100
AcDbEntity
  8
Layer_1
 62
7
100
AcDbSpline
 70
8
 71
3
 72
8
 73
4
 74
0
 40
0
 40
0
 40
0
 40
0
 40
1
 40
1
 40
1
 40
1
 10
364.962161
 20
554.798693
 30
0.0
 10
358.102063
 20
554.796198
 30
0.0
 10
357.186246
 20
554.615291
 30
0.0
 10
356.378230
 20
553.105474
 30
0.0
  0
SPLINE
  5
2af
100
AcDbEntity
  8
Layer_1
 62
7
100
AcDbSpline
 70
8
 71
3
 72
8
 73
4
 74
0
 40
0
 40
0
 40
0
 40
0
 40
1
 40
1
 40
1
 40
1
 10
356.378230
 20
553.105474
 30
0.0
 10
355.426639
 20
551.327443
 30
0.0
 10
353.890573
 20
551.592765
 30
0.0
 10
353.890573
 20
553.535178
 30
0.0
  0
SPLINE
  5
2b0
100
AcDbEntity
  8
Layer_1
 62
7
100
AcDbSpline
 70
8
 71
3
 72
8
 73
4
 74
0
 40
0
 40
0
 40
0
 40
0
 40
1
 40
1
 40
1
 40
1
 10
353.890573
 20
553.535178
 30
0.0
 10
353.890573
 20
556.402479
 30
0.0
 10
356.352378
 20
557.295704
 30
0.0
 10
364.254945
 20
557.295704
 30
0.0
  0
SPLINE
  5
2b1
100
AcDbEntity
  8
Layer_1
 62
7
100
AcDbSpline
 70
8
 71
3
 72
8
 73
4
 74
0
 40
0
 40
0
 40
0
 40
0
 40
1
 40
1
 40
1
 40
1
 10
364.254945
 20
557.295704
 30
0.0
 10
370.938161
 20
557.295704
 30
0.0
 10
372.315033
 20
557.543452
 30
0.0
 10
374.296932
 20
559.102388
 30
0.0
  0
SPLINE
  5
2b2
100
AcDbEntity
  8
Layer_1
 62
7
100
AcDbSpline
 70
8
 71
3
 72
8
 73
4
 74
0
 40
0
 40
0
 40
0
 40
0
 40
1
 40
1
 40
1
 40
1
 10
374.296932
 20
559.102388
 30
0.0
 10
378.975458
 20
562.782495
 30
0.0
 10
380.247449
 20
570.636816
 30
0.0
 10
377.188299
 20
576.956149
 30
0.0
  0
SPLINE
  5
2b3
100
AcDbEntity
  8
Layer_1
 62
7
100
AcDbSpline
 70
8
 71
3
 72
8
 73
4
 74
0
 40
0
 40
0
 40
0
 40
0
 40
1
 40
1
 40
1
 40
1
 10
377.188299
 20
576.956149
 30
0.0
 10
374.571751
 20
582.361251
 30
0.0
 10
371.958123
 20
583.228284
 30
0.0
 10
359.128658
 20
582.947172
 30
0.0
  0
LWPOLYLINE
  5
2b4
100
AcDbEntity
  8
Layer_1
 62
7
100
AcDbPolyline
 90
2
 70
0
 10
297.845972
 20
528.142762
 30
0.0
 10
297.845972
 20
528.142904
 30
0.0
  0
SPLINE
  5
2b5
100
AcDbEntity
  8
Layer_1
 62
7
100
AcDbSpline
 70
8
 71
3
 72
8
 73
4
 74
0
 40
0
 40
0
 40
0
 40
0
 40
1
 40
1
 40
1
 40
1
 10
348.056929
 20
555.281121
 30
0.0
 10
347.739392
 20
534.377112
 30
0.0
 10
347.392318
 20
527.766094
 30
0.0
 10
346.598504
 20
527.501849
 30
0.0
  0
SPLINE
  5
2b6
100
AcDbEntity
  8
Layer_1
 62
7
100
AcDbSpline
 70
8
 71
3
 72
8
 73
4
 74
0
 40
0
 40
0
 40
0
 40
0
 40
1
 40
1
 40
1
 40
1
 10
346.598504
 20
527.501849
 30
0.0
 10
345.778809
 20
527.228872
 30
0.0
 10
345.556800
 20
533.173266
 30
0.0
 10
345.556800
 20
555.392721
 30
0.0
  0
LWPOLYLINE
  5
2b7
100
AcDbEntity
  8
Layer_1
 62
7
100
AcDbPolyline
 90
3
 70
0
 10
359.128658
 20
582.947172
 30
0.0
 10
348.473622
 20
582.713597
 30
0.0
 10
348.056929
 20
555.281121
 30
0.0
  0
SPLINE
  5
2b8
100
AcDbEntity
  8
Layer_1
 62
7
100
AcDbSpline
 70
8
 71
3
 72
8
 73
4
 74
0
 40
0
 40
0
 40
0
 40
0
 40
1
 40
1
 40
1
 40
1
 10
376.119184
 20
530.419266
 30
0.0
 10
375.041055
 20
532.138110
 30
0.0
 10
371.848706
 20
537.220488
 30
0.0
 10
369.025030
 20
541.713430
 30
0.0
  0
SPLINE
  5
2b9
100
AcDbEntity
  8
Layer_1
 62
7
100
AcDbSpline
 70
8
 71
3
 72
8
 73
4
 74
0
 40
0
 40
0
 40
0
 40
0
 40
1
 40
1
 40
1
 40
1
 10
369.025030
 20
541.713430
 30
0.0
 10
364.034041
 20
549.655030
 30
0.0
 10
362.798844
 20
552.788986
 30
0.0
 10
364.932822
 20
552.096113
 30
0.0
  0
SPLINE
  5
2ba
100
AcDbEntity
  8
Layer_1
 62
7
100
AcDbSpline
 70
8
 71
3
 72
8
 73
4
 74
0
 40
0
 40
0
 40
0
 40
0
 40
1
 40
1
 40
1
 40
1
 10
364.932822
 20
552.096113
 30
0.0
 10
366.164561
 20
551.696173
 30
0.0
 10
379.725279
 20
529.951266
 30
0.0
 10
379.725279
 20
528.376110
 30
0.0
  0
SPLINE
  5
2bb
100
AcDbEntity
  8
Layer_1
 62
7
100
AcDbSpline
 70
8
 71
3
 72
8
 73
4
 74
0
 40
0
 40
0
 40
0
 40
0
 40
1
 40
1
 40
1
 40
1
 10
379.725279
 20
528.376110
 30
0.0
 10
379.725279
 20
526.354838
 30
0.0
 10
378.086003
 20
527.283638
 30
0.0
 10
376.119184
 20
530.419266
 30
0.0
  0
LWPOLYLINE
  5
2bc
100
AcDbEntity
  8
Layer_1
 62
7
100
AcDbPolyline
 90
2
 70
0
 10
345.556800
 20
555.392721
 30
0.0
 10
345.556800
 20
555.392835
 30
0.0
  0
SPLINE
  5
2bd
100
AcDbEntity
  8
Layer_1
 62
7
100
AcDbSpline
 70
8
 71
3
 72
8
 73
4
 74
0
 40
0
 40
0
 40
0
 40
0
 40
1
 40
1
 40
1
 40
1
 10
394.059345
 20
528.294161
 30
0.0
 10
393.322904
 20
529.030602
 30
0.0
 10
393.059310
 20
536.373950
 30
0.0
 10
393.059310
 20
556.152775
 30
0.0
  0
SPLINE
  5
2be
100
AcDbEntity
  8
Layer_1
 62
7
100
AcDbSpline
 70
8
 71
3
 72
8
 73
4
 74
0
 40
0
 40
0
 40
0
 40
0
 40
1
 40
1
 40
1
 40
1
 10
393.059310
 20
556.152775
 30
0.0
 10
393.059310
 20
579.636249
 30
0.0
 10
393.226554
 20
583.178536
 30
0.0
 10
394.389638
 20
584.341705
 30
0.0
  0
SPLINE
  5
2bf
100
AcDbEntity
  8
Layer_1
 62
7
100
AcDbSpline
 70
8
 71
3
 72
8
 73
4
 74
0
 40
0
 40
0
 40
0
 40
0
 40
1
 40
1
 40
1
 40
1
 10
394.389638
 20
584.341705
 30
0.0
 10
395.515191
 20
585.467257
 30
0.0
 10
397.717682
 20
585.636797
 30
0.0
 10
408.696860
 20
585.442936
 30
0.0
  0
SPLINE
  5
2c0
100
AcDbEntity
  8
Layer_1
 62
7
100
AcDbSpline
 70
8
 71
3
 72
8
 73
4
 74
0
 40
0
 40
0
 40
0
 40
0
 40
1
 40
1
 40
1
 40
1
 10
408.696860
 20
585.442936
 30
0.0
 10
418.020803
 20
585.278243
 30
0.0
 10
421.769225
 20
584.926662
 30
0.0
 10
422.012891
 20
584.193594
 30
0.0
  0
SPLINE
  5
2c1
100
AcDbEntity
  8
Layer_1
 62
7
100
AcDbSpline
 70
8
 71
3
 72
8
 73
4
 74
0
 40
0
 40
0
 40
0
 40
0
 40
1
 40
1
 40
1
 40
1
 10
422.012891
 20
584.193594
 30
0.0
 10
422.268860
 20
583.423818
 30
0.0
 10
419.114580
 20
583.116939
 30
0.0
 10
409.164094
 20
582.943544
 30
0.0
  0
LWPOLYLINE
  5
2c2
100
AcDbEntity
  8
Layer_1
 62
7
100
AcDbPolyline
 90
1
 70
1
 10
376.119184
 20
530.419266
 30
0.0
  0
SPLINE
  5
2c3
100
AcDbEntity
  8
Layer_1
 62
7
100
AcDbSpline
 70
8
 71
3
 72
8
 73
4
 74
0
 40
0
 40
0
 40
0
 40
0
 40
1
 40
1
 40
1
 40
1
 10
395.755880
 20
556.670608
 30
0.0
 10
395.614148
 20
539.900447
 30
0.0
 10
395.829298
 20
530.627556
 30
0.0
 10
396.360255
 20
530.627556
 30
0.0
  0
SPLINE
  5
2c4
100
AcDbEntity
  8
Layer_1
 62
7
100
AcDbSpline
 70
8
 71
3
 72
8
 73
4
 74
0
 40
0
 40
0
 40
0
 40
0
 40
1
 40
1
 40
1
 40
1
 10
396.360255
 20
530.627556
 30
0.0
 10
396.860939
 20
530.627556
 30
0.0
 10
397.274825
 20
535.947591
 30
0.0
 10
397.413865
 20
544.169934
 30
0.0
  0
LWPOLYLINE
  5
2c5
100
AcDbEntity
  8
Layer_1
 62
7
100
AcDbPolyline
 90
3
 70
0
 10
409.164094
 20
582.943544
 30
0.0
 10
395.976132
 20
582.713654
 30
0.0
 10
395.755880
 20
556.670608
 30
0.0
  0
SPLINE
  5
2c6
100
AcDbEntity
  8
Layer_1
 62
7
100
AcDbSpline
 70
8
 71
3
 72
8
 73
4
 74
0
 40
0
 40
0
 40
0
 40
0
 40
1
 40
1
 40
1
 40
1
 10
404.934945
 20
557.953002
 30
0.0
 10
411.047490
 20
558.154828
 30
0.0
 10
412.226986
 20
557.986450
 30
0.0
 10
412.226986
 20
556.911298
 30
0.0
  0
SPLINE
  5
2c7
100
AcDbEntity
  8
Layer_1
 62
7
100
AcDbSpline
 70
8
 71
3
 72
8
 73
4
 74
0
 40
0
 40
0
 40
0
 40
0
 40
1
 40
1
 40
1
 40
1
 10
412.226986
 20
556.911298
 30
0.0
 10
412.226986
 20
555.870869
 30
0.0
 10
411.047206
 20
555.628791
 30
0.0
 10
405.976677
 20
555.628791
 30
0.0
  0
LWPOLYLINE
  5
2c8
100
AcDbEntity
  8
Layer_1
 62
7
100
AcDbPolyline
 90
3
 70
0
 10
397.413865
 20
544.169934
 30
0.0
 10
397.642904
 20
557.712340
 30
0.0
 10
404.934945
 20
557.953002
 30
0.0
  0
SPLINE
  5
2c9
100
AcDbEntity
  8
Layer_1
 62
7
100
AcDbSpline
 70
8
 71
3
 72
8
 73
4
 74
0
 40
0
 40
0
 40
0
 40
0
 40
1
 40
1
 40
1
 40
1
 10
399.726340
 20
543.073323
 30
0.0
 10
399.726340
 20
536.012220
 30
0.0
 10
399.348822
 20
529.812454
 30
0.0
 10
398.863644
 20
528.905906
 30
0.0
  0
SPLINE
  5
2ca
100
AcDbEntity
  8
Layer_1
 62
7
100
AcDbSpline
 70
8
 71
3
 72
8
 73
4
 74
0
 40
0
 40
0
 40
0
 40
0
 40
1
 40
1
 40
1
 40
1
 10
398.863644
 20
528.905906
 30
0.0
 10
397.891361
 20
527.089181
 30
0.0
 10
395.560998
 20
526.792365
 30
0.0
 10
394.059373
 20
528.293991
 30
0.0
  0
LWPOLYLINE
  5
2cb
100
AcDbEntity
  8
Layer_1
 62
7
100
AcDbPolyline
 90
3
 70
0
 10
405.976677
 20
555.628791
 30
0.0
 10
399.726340
 20
555.628791
 30
0.0
 10
399.726340
 20
543.073323
 30
0.0
  0
SPLINE
  5
2cc
100
AcDbEntity
  8
Layer_1
 62
7
100
AcDbSpline
 70
8
 71
3
 72
8
 73
4
 74
0
 40
0
 40
0
 40
0
 40
0
 40
1
 40
1
 40
1
 40
1
 10
401.948646
 20
527.849688
 30
0.0
 10
400.412891
 20
529.385443
 30
0.0
 10
402.126945
 20
529.794227
 30
0.0
 10
410.102107
 20
529.794227
 30
0.0
  0
SPLINE
  5
2cd
100
AcDbEntity
  8
Layer_1
 62
7
100
AcDbSpline
 70
8
 71
3
 72
8
 73
4
 74
0
 40
0
 40
0
 40
0
 40
0
 40
1
 40
1
 40
1
 40
1
 10
410.102107
 20
529.794227
 30
0.0
 10
417.308258
 20
529.794227
 30
0.0
 10
418.943197
 20
530.030069
 30
0.0
 10
419.576202
 20
531.161320
 30
0.0
  0
SPLINE
  5
2ce
100
AcDbEntity
  8
Layer_1
 62
7
100
AcDbSpline
 70
8
 71
3
 72
8
 73
4
 74
0
 40
0
 40
0
 40
0
 40
0
 40
1
 40
1
 40
1
 40
1
 10
419.576202
 20
531.161320
 30
0.0
 10
419.996976
 20
531.913209
 30
0.0
 10
420.765676
 20
532.266094
 30
0.0
 10
421.284359
 20
531.945496
 30
0.0
  0
SPLINE
  5
2cf
100
AcDbEntity
  8
Layer_1
 62
7
100
AcDbSpline
 70
8
 71
3
 72
8
 73
4
 74
0
 40
0
 40
0
 40
0
 40
0
 40
1
 40
1
 40
1
 40
1
 10
421.284359
 20
531.945496
 30
0.0
 10
422.576249
 20
531.147090
 30
0.0
 10
422.467228
 20
530.153036
 30
0.0
 10
420.917896
 20
528.603704
 30
0.0
  0
SPLINE
  5
2d0
100
AcDbEntity
  8
Layer_1
 62
7
100
AcDbSpline
 70
8
 71
3
 72
8
 73
4
 74
0
 40
0
 40
0
 40
0
 40
0
 40
1
 40
1
 40
1
 40
1
 10
420.917896
 20
528.603704
 30
0.0
 10
419.897509
 20
527.583317
 30
0.0
 10
417.719679
 20
527.294098
 30
0.0
 10
411.056277
 20
527.294098
 30
0.0
  0
SPLINE
  5
2d1
100
AcDbEntity
  8
Layer_1
 62
7
100
AcDbSpline
 70
8
 71
3
 72
8
 73
4
 74
0
 40
0
 40
0
 40
0
 40
0
 40
1
 40
1
 40
1
 40
1
 10
411.056277
 20
527.294098
 30
0.0
 10
406.352665
 20
527.294098
 30
0.0
 10
402.254220
 20
527.544113
 30
0.0
 10
401.948646
 20
527.849688
 30
0.0
  0
LWPOLYLINE
  5
2d2
100
AcDbEntity
  8
Layer_1
 62
7
100
AcDbPolyline
 90
2
 70
0
 10
394.059373
 20
528.293991
 30
0.0
 10
394.059345
 20
528.294161
 30
0.0
  0
SPLINE
  5
2d3
100
AcDbEntity
  8
Layer_1
 62
7
100
AcDbSpline
 70
8
 71
3
 72
8
 73
4
 74
0
 40
0
 40
0
 40
0
 40
0
 40
1
 40
1
 40
1
 40
1
 10
189.715269
 20
580.213582
 30
0.0
 10
189.715269
 20
584.473062
 30
0.0
 10
189.982293
 20
585.630533
 30
0.0
 10
190.965348
 20
585.630533
 30
0.0
  0
SPLINE
  5
2d4
100
AcDbEntity
  8
Layer_1
 62
7
100
AcDbSpline
 70
8
 71
3
 72
8
 73
4
 74
0
 40
0
 40
0
 40
0
 40
0
 40
1
 40
1
 40
1
 40
1
 10
190.965348
 20
585.630533
 30
0.0
 10
191.948289
 20
585.630533
 30
0.0
 10
192.215398
 20
584.473062
 30
0.0
 10
192.215398
 20
580.213582
 30
0.0
  0
SPLINE
  5
2d5
100
AcDbEntity
  8
Layer_1
 62
7
100
AcDbSpline
 70
8
 71
3
 72
8
 73
4
 74
0
 40
0
 40
0
 40
0
 40
0
 40
1
 40
1
 40
1
 40
1
 10
192.215398
 20
580.213582
 30
0.0
 10
192.215398
 20
575.954073
 30
0.0
 10
191.948374
 20
574.796602
 30
0.0
 10
190.965348
 20
574.796602
 30
0.0
  0
SPLINE
  5
2d6
100
AcDbEntity
  8
Layer_1
 62
7
100
AcDbSpline
 70
8
 71
3
 72
8
 73
4
 74
0
 40
0
 40
0
 40
0
 40
0
 40
1
 40
1
 40
1
 40
1
 10
190.965348
 20
574.796602
 30
0.0
 10
189.982378
 20
574.796602
 30
0.0
 10
189.715269
 20
575.954073
 30
0.0
 10
189.715269
 20
580.213582
 30
0.0
  0
LWPOLYLINE
  5
2d7
100
AcDbEntity
  8
Layer_1
 62
7
100
AcDbPolyline
 90
1
 70
1
 10
401.948646
 20
527.849688
 30
0.0
  0
SPLINE
  5
2d8
100
AcDbEntity
  8
Layer_1
 62
7
100
AcDbSpline
 70
8
 71
3
 72
8
 73
4
 74
0
 40
0
 40
0
 40
0
 40
0
 40
1
 40
1
 40
1
 40
1
 10
144.629096
 20
629.382648
 30
0.0
 10
146.033918
 20
632.100932
 30
0.0
 10
147.187930
 20
633.607943
 30
0.0
 10
147.181751
 20
632.716163
 30
0.0
  0
SPLINE
  5
2d9
100
AcDbEntity
  8
Layer_1
 62
7
100
AcDbSpline
 70
8
 71
3
 72
8
 73
4
 74
0
 40
0
 40
0
 40
0
 40
0
 40
1
 40
1
 40
1
 40
1
 10
147.181751
 20
632.716163
 30
0.0
 10
147.178916
 20
632.257801
 30
0.0
 10
146.409111
 20
630.945247
 30
0.0
 10
145.471836
 20
629.799341
 30
0.0
  0
SPLINE
  5
2da
100
AcDbEntity
  8
Layer_1
 62
7
100
AcDbSpline
 70
8
 71
3
 72
8
 73
4
 74
0
 40
0
 40
0
 40
0
 40
0
 40
1
 40
1
 40
1
 40
1
 10
145.471836
 20
629.799341
 30
0.0
 10
144.339934
 20
628.415524
 30
0.0
 10
144.056951
 20
628.275606
 30
0.0
 10
144.629096
 20
629.382648
 30
0.0
  0
LWPOLYLINE
  5
2db
100
AcDbEntity
  8
Layer_1
 62
7
100
AcDbPolyline
 90
1
 70
1
 10
189.715269
 20
580.213582
 30
0.0
  0
SPLINE
  5
2dc
100
AcDbEntity
  8
Layer_1
 62
7
100
AcDbSpline
 70
8
 71
3
 72
8
 73
4
 74
0
 40
0
 40
0
 40
0
 40
0
 40
1
 40
1
 40
1
 40
1
 10
146.526919
 20
645.325603
 30
0.0
 10
146.675171
 20
646.072957
 30
0.0
 10
147.718066
 20
647.291769
 30
0.0
 10
148.844582
 20
648.034078
 30
0.0
  0
LWPOLYLINE
  5
2dd
100
AcDbEntity
  8
Layer_1
 62
7
100
AcDbPolyline
 90
1
 70
1
 10
144.629096
 20
629.382648
 30
0.0
  0
SPLINE
  5
2de
100
AcDbEntity
  8
Layer_1
 62
7
100
AcDbSpline
 70
8
 71
3
 72
8
 73
4
 74
0
 40
0
 40
0
 40
0
 40
0
 40
1
 40
1
 40
1
 40
1
 10
148.896201
 20
646.675234
 30
0.0
 10
146.658305
 20
643.639414
 30
0.0
 10
146.133244
 20
643.340302
 30
0.0
 10
146.526919
 20
645.325603
 30
0.0
  0
LWPOLYLINE
  5
2df
100
AcDbEntity
  8
Layer_1
 62
7
100
AcDbPolyline
 90
3
 70
0
 10
148.844582
 20
648.034078
 30
0.0
 10
150.892784
 20
649.383710
 30
0.0
 10
148.896201
 20
646.675234
 30
0.0
  0
SPLINE
  5
2e0
100
AcDbEntity
  8
Layer_1
 62
7
100
AcDbSpline
 70
8
 71
3
 72
8
 73
4
 74
0
 40
0
 40
0
 40
0
 40
0
 40
1
 40
1
 40
1
 40
1
 10
161.690488
 20
662.577568
 30
0.0
 10
161.978346
 20
663.417162
 30
0.0
 10
162.213849
 20
664.403958
 30
0.0
 10
162.213849
 20
664.770450
 30
0.0
  0
SPLINE
  5
2e1
100
AcDbEntity
  8
Layer_1
 62
7
100
AcDbSpline
 70
8
 71
3
 72
8
 73
4
 74
0
 40
0
 40
0
 40
0
 40
0
 40
1
 40
1
 40
1
 40
1
 10
162.213849
 20
664.770450
 30
0.0
 10
162.213849
 20
666.295858
 30
0.0
 10
167.524415
 20
670.463977
 30
0.0
 10
170.667924
 20
671.405788
 30
0.0
  0
SPLINE
  5
2e2
100
AcDbEntity
  8
Layer_1
 62
7
100
AcDbSpline
 70
8
 71
3
 72
8
 73
4
 74
0
 40
0
 40
0
 40
0
 40
0
 40
1
 40
1
 40
1
 40
1
 10
170.667924
 20
671.405788
 30
0.0
 10
172.530598
 20
671.963845
 30
0.0
 10
174.639631
 20
672.644954
 30
0.0
 10
175.354642
 20
672.919319
 30
0.0
  0
SPLINE
  5
2e3
100
AcDbEntity
  8
Layer_1
 62
7
100
AcDbSpline
 70
8
 71
3
 72
8
 73
4
 74
0
 40
0
 40
0
 40
0
 40
0
 40
1
 40
1
 40
1
 40
1
 10
175.354642
 20
672.919319
 30
0.0
 10
178.388450
 20
674.083508
 30
0.0
 10
175.283776
 20
671.607162
 30
0.0
 10
170.978856
 20
669.429020
 30
0.0
  0
SPLINE
  5
2e4
100
AcDbEntity
  8
Layer_1
 62
7
100
AcDbSpline
 70
8
 71
3
 72
8
 73
4
 74
0
 40
0
 40
0
 40
0
 40
0
 40
1
 40
1
 40
1
 40
1
 10
170.978856
 20
669.429020
 30
0.0
 10
168.409817
 20
668.129221
 30
0.0
 10
165.151222
 20
665.712431
 30
0.0
 10
163.737527
 20
664.058358
 30
0.0
  0
SPLINE
  5
2e5
100
AcDbEntity
  8
Layer_1
 62
7
100
AcDbSpline
 70
8
 71
3
 72
8
 73
4
 74
0
 40
0
 40
0
 40
0
 40
0
 40
1
 40
1
 40
1
 40
1
 10
163.737527
 20
664.058358
 30
0.0
 10
162.323804
 20
662.404314
 30
0.0
 10
161.402658
 20
661.737946
 30
0.0
 10
161.690488
 20
662.577568
 30
0.0
  0
LWPOLYLINE
  5
2e6
100
AcDbEntity
  8
Layer_1
 62
7
100
AcDbPolyline
 90
1
 70
1
 10
146.526919
 20
645.325603
 30
0.0
  0
SPLINE
  5
2e7
100
AcDbEntity
  8
Layer_1
 62
7
100
AcDbSpline
 70
8
 71
3
 72
8
 73
4
 74
0
 40
0
 40
0
 40
0
 40
0
 40
1
 40
1
 40
1
 40
1
 10
114.300326
 20
195.500750
 30
0.0
 10
114.300326
 20
198.205191
 30
0.0
 10
115.626034
 20
199.557411
 30
0.0
 10
118.277450
 20
199.557411
 30
0.0
  0
LWPOLYLINE
  5
2e8
100
AcDbEntity
  8
Layer_1
 62
7
100
AcDbPolyline
 90
1
 70
1
 10
161.690488
 20
662.577568
 30
0.0
  0
SPLINE
  5
2e9
100
AcDbEntity
  8
Layer_1
 62
7
100
AcDbSpline
 70
8
 71
3
 72
8
 73
4
 74
0
 40
0
 40
0
 40
0
 40
0
 40
1
 40
1
 40
1
 40
1
 10
145.321869
 20
199.557411
 30
0.0
 10
145.640037
 20
199.557411
 30
0.0
 10
145.852149
 20
199.689978
 30
0.0
 10
145.958204
 20
199.955112
 30
0.0
  0
SPLINE
  5
2ea
100
AcDbEntity
  8
Layer_1
 62
7
100
AcDbSpline
 70
8
 71
3
 72
8
 73
4
 74
0
 40
0
 40
0
 40
0
 40
0
 40
1
 40
1
 40
1
 40
1
 10
145.958204
 20
199.955112
 30
0.0
 10
146.117285
 20
200.220265
 30
0.0
 10
146.117285
 20
200.458894
 30
0.0
 10
145.958204
 20
200.671002
 30
0.0
  0
SPLINE
  5
2eb
100
AcDbEntity
  8
Layer_1
 62
7
100
AcDbSpline
 70
8
 71
3
 72
8
 73
4
 74
0
 40
0
 40
0
 40
0
 40
0
 40
1
 40
1
 40
1
 40
1
 10
145.958204
 20
200.671002
 30
0.0
 10
145.852151
 20
200.936154
 30
0.0
 10
145.640039
 20
201.068731
 30
0.0
 10
145.321869
 20
201.068731
 30
0.0
  0
LWPOLYLINE
  5
2ec
100
AcDbEntity
  8
Layer_1
 62
7
100
AcDbPolyline
 90
2
 70
0
 10
118.277450
 20
199.557411
 30
0.0
 10
145.321869
 20
199.557411
 30
0.0
  0
SPLINE
  5
2ed
100
AcDbEntity
  8
Layer_1
 62
7
100
AcDbSpline
 70
8
 71
3
 72
8
 73
4
 74
0
 40
0
 40
0
 40
0
 40
0
 40
1
 40
1
 40
1
 40
1
 10
118.038824
 20
201.068731
 30
0.0
 10
117.031285
 20
201.068731
 30
0.0
 10
116.156319
 20
201.413414
 30
0.0
 10
115.413925
 20
202.102781
 30
0.0
  0
SPLINE
  5
2ee
100
AcDbEntity
  8
Layer_1
 62
7
100
AcDbSpline
 70
8
 71
3
 72
8
 73
4
 74
0
 40
0
 40
0
 40
0
 40
0
 40
1
 40
1
 40
1
 40
1
 10
115.413925
 20
202.102781
 30
0.0
 10
114.671526
 20
202.845175
 30
0.0
 10
114.300326
 20
203.746649
 30
0.0
 10
114.300326
 20
204.807203
 30
0.0
  0
LWPOLYLINE
  5
2ef
100
AcDbEntity
  8
Layer_1
 62
7
100
AcDbPolyline
 90
2
 70
0
 10
145.321869
 20
201.068731
 30
0.0
 10
118.038824
 20
201.068731
 30
0.0
  0
SPLINE
  5
2f0
100
AcDbEntity
  8
Layer_1
 62
7
100
AcDbSpline
 70
8
 71
3
 72
8
 73
4
 74
0
 40
0
 40
0
 40
0
 40
0
 40
1
 40
1
 40
1
 40
1
 10
114.300326
 20
248.396457
 30
0.0
 10
114.194272
 20
249.191877
 30
0.0
 10
113.770048
 20
249.589587
 30
0.0
 10
113.027652
 20
249.589587
 30
0.0
  0
SPLINE
  5
2f1
100
AcDbEntity
  8
Layer_1
 62
7
100
AcDbSpline
 70
8
 71
3
 72
8
 73
4
 74
0
 40
0
 40
0
 40
0
 40
0
 40
1
 40
1
 40
1
 40
1
 10
113.027652
 20
249.589587
 30
0.0
 10
112.126169
 20
249.589587
 30
0.0
 10
111.675427
 20
250.040334
 30
0.0
 10
111.675427
 20
250.941827
 30
0.0
  0
SPLINE
  5
2f2
100
AcDbEntity
  8
Layer_1
 62
7
100
AcDbSpline
 70
8
 71
3
 72
8
 73
4
 74
0
 40
0
 40
0
 40
0
 40
0
 40
1
 40
1
 40
1
 40
1
 10
111.675427
 20
250.941827
 30
0.0
 10
111.675427
 20
251.896328
 30
0.0
 10
112.126169
 20
252.373578
 30
0.0
 10
113.027652
 20
252.373578
 30
0.0
  0
SPLINE
  5
2f3
100
AcDbEntity
  8
Layer_1
 62
7
100
AcDbSpline
 70
8
 71
3
 72
8
 73
4
 74
0
 40
0
 40
0
 40
0
 40
0
 40
1
 40
1
 40
1
 40
1
 10
113.027652
 20
252.373578
 30
0.0
 10
115.732095
 20
252.373578
 30
0.0
 10
117.084317
 20
251.047871
 30
0.0
 10
117.084317
 20
248.396457
 30
0.0
  0
LWPOLYLINE
  5
2f4
100
AcDbEntity
  8
Layer_1
 62
7
100
AcDbPolyline
 90
2
 70
0
 10
114.300326
 20
204.807203
 30
0.0
 10
114.300326
 20
248.396457
 30
0.0
  0
SPLINE
  5
2f5
100
AcDbEntity
  8
Layer_1
 62
7
100
AcDbSpline
 70
8
 71
3
 72
8
 73
4
 74
0
 40
0
 40
0
 40
0
 40
0
 40
1
 40
1
 40
1
 40
1
 10
117.084317
 20
204.807203
 30
0.0
 10
117.084317
 20
204.170863
 30
0.0
 10
117.402486
 20
203.852693
 30
0.0
 10
118.038824
 20
203.852693
 30
0.0
  0
LWPOLYLINE
  5
2f6
100
AcDbEntity
  8
Layer_1
 62
7
100
AcDbPolyline
 90
2
 70
0
 10
117.084317
 20
248.396457
 30
0.0
 10
117.084317
 20
204.807203
 30
0.0
  0
SPLINE
  5
2f7
100
AcDbEntity
  8
Layer_1
 62
7
100
AcDbSpline
 70
8
 71
3
 72
8
 73
4
 74
0
 40
0
 40
0
 40
0
 40
0
 40
1
 40
1
 40
1
 40
1
 10
145.321869
 20
203.852693
 30
0.0
 10
146.329402
 20
203.852693
 30
0.0
 10
147.177853
 20
203.508009
 30
0.0
 10
147.867222
 20
202.818643
 30
0.0
  0
SPLINE
  5
2f8
100
AcDbEntity
  8
Layer_1
 62
7
100
AcDbSpline
 70
8
 71
3
 72
8
 73
4
 74
0
 40
0
 40
0
 40
0
 40
0
 40
1
 40
1
 40
1
 40
1
 10
147.867222
 20
202.818643
 30
0.0
 10
148.556591
 20
202.129276
 30
0.0
 10
148.901275
 20
201.280828
 30
0.0
 10
148.901275
 20
200.273301
 30
0.0
  0
SPLINE
  5
2f9
100
AcDbEntity
  8
Layer_1
 62
7
100
AcDbSpline
 70
8
 71
3
 72
8
 73
4
 74
0
 40
0
 40
0
 40
0
 40
0
 40
1
 40
1
 40
1
 40
1
 10
148.901275
 20
200.273301
 30
0.0
 10
148.901275
 20
199.265754
 30
0.0
 10
148.556591
 20
198.417298
 30
0.0
 10
147.867222
 20
197.727931
 30
0.0
  0
SPLINE
  5
2fa
100
AcDbEntity
  8
Layer_1
 62
7
100
AcDbSpline
 70
8
 71
3
 72
8
 73
4
 74
0
 40
0
 40
0
 40
0
 40
0
 40
1
 40
1
 40
1
 40
1
 10
147.867222
 20
197.727931
 30
0.0
 10
147.177853
 20
197.038564
 30
0.0
 10
146.329402
 20
196.693880
 30
0.0
 10
145.321869
 20
196.693880
 30
0.0
  0
LWPOLYLINE
  5
2fb
100
AcDbEntity
  8
Layer_1
 62
7
100
AcDbPolyline
 90
2
 70
0
 10
118.038824
 20
203.852693
 30
0.0
 10
145.321869
 20
203.852693
 30
0.0
  0
SPLINE
  5
2fc
100
AcDbEntity
  8
Layer_1
 62
7
100
AcDbSpline
 70
8
 71
3
 72
8
 73
4
 74
0
 40
0
 40
0
 40
0
 40
0
 40
1
 40
1
 40
1
 40
1
 10
118.277450
 20
196.693880
 30
0.0
 10
117.482028
 20
196.693880
 30
0.0
 10
117.084317
 20
196.296170
 30
0.0
 10
117.084317
 20
195.500750
 30
0.0
  0
SPLINE
  5
2fd
100
AcDbEntity
  8
Layer_1
 62
7
100
AcDbSpline
 70
8
 71
3
 72
8
 73
4
 74
0
 40
0
 40
0
 40
0
 40
0
 40
1
 40
1
 40
1
 40
1
 10
117.084317
 20
195.500750
 30
0.0
 10
117.084317
 20
194.864409
 30
0.0
 10
116.845689
 20
194.440186
 30
0.0
 10
116.368432
 20
194.228079
 30
0.0
  0
SPLINE
  5
2fe
100
AcDbEntity
  8
Layer_1
 62
7
100
AcDbSpline
 70
8
 71
3
 72
8
 73
4
 74
0
 40
0
 40
0
 40
0
 40
0
 40
1
 40
1
 40
1
 40
1
 10
116.368432
 20
194.228079
 30
0.0
 10
115.944203
 20
193.962926
 30
0.0
 10
115.493461
 20
193.962926
 30
0.0
 10
115.016207
 20
194.228079
 30
0.0
  0
SPLINE
  5
2ff
100
AcDbEntity
  8
Layer_1
 62
7
100
AcDbSpline
 70
8
 71
3
 72
8
 73
4
 74
0
 40
0
 40
0
 40
0
 40
0
 40
1
 40
1
 40
1
 40
1
 10
115.016207
 20
194.228079
 30
0.0
 10
114.538953
 20
194.493213
 30
0.0
 10
114.300326
 20
194.917436
 30
0.0
 10
114.300326
 20
195.500750
 30
0.0
  0
LWPOLYLINE
  5
300
100
AcDbEntity
  8
Layer_1
 62
7
100
AcDbPolyline
 90
2
 70
0
 10
145.321869
 20
196.693880
 30
0.0
 10
118.277450
 20
196.693880
 30
0.0
  0
LWPOLYLINE
  5
301
100
AcDbEntity
  8
Layer_1
 62
7
100
AcDbPolyline
 90
1
 70
1
 10
114.300326
 20
195.500750
 30
0.0
  0
SPLINE
  5
302
100
AcDbEntity
  8
Layer_1
 62
7
100
AcDbSpline
 70
8
 71
3
 72
8
 73
4
 74
0
 40
0
 40
0
 40
0
 40
0
 40
1
 40
1
 40
1
 40
1
 10
156.444131
 20
251.419068
 30
0.0
 10
156.444131
 20
252.002381
 30
0.0
 10
156.682758
 20
252.400091
 30
0.0
 10
157.160013
 20
252.612198
 30
0.0
  0
SPLINE
  5
303
100
AcDbEntity
  8
Layer_1
 62
7
100
AcDbSpline
 70
8
 71
3
 72
8
 73
4
 74
0
 40
0
 40
0
 40
0
 40
0
 40
1
 40
1
 40
1
 40
1
 10
157.160013
 20
252.612198
 30
0.0
 10
157.637267
 20
252.824306
 30
0.0
 10
158.088007
 20
252.797754
 30
0.0
 10
158.512232
 20
252.532545
 30
0.0
  0
SPLINE
  5
304
100
AcDbEntity
  8
Layer_1
 62
7
100
AcDbSpline
 70
8
 71
3
 72
8
 73
4
 74
0
 40
0
 40
0
 40
0
 40
0
 40
1
 40
1
 40
1
 40
1
 10
158.512232
 20
252.532545
 30
0.0
 10
158.989486
 20
252.267411
 30
0.0
 10
159.228113
 20
251.843187
 30
0.0
 10
159.228113
 20
251.259874
 30
0.0
  0
LWPOLYLINE
  5
305
100
AcDbEntity
  8
Layer_1
 62
7
100
AcDbPolyline
 90
2
 70
0
 10
156.444131
 20
243.305745
 30
0.0
 10
156.444131
 20
251.419068
 30
0.0
  0
SPLINE
  5
306
100
AcDbEntity
  8
Layer_1
 62
7
100
AcDbSpline
 70
8
 71
3
 72
8
 73
4
 74
0
 40
0
 40
0
 40
0
 40
0
 40
1
 40
1
 40
1
 40
1
 10
159.228113
 20
243.146551
 30
0.0
 10
159.228113
 20
242.563238
 30
0.0
 10
158.989486
 20
242.165518
 30
0.0
 10
158.512232
 20
241.953392
 30
0.0
  0
SPLINE
  5
307
100
AcDbEntity
  8
Layer_1
 62
7
100
AcDbSpline
 70
8
 71
3
 72
8
 73
4
 74
0
 40
0
 40
0
 40
0
 40
0
 40
1
 40
1
 40
1
 40
1
 10
158.512232
 20
241.953392
 30
0.0
 10
158.034978
 20
241.741285
 30
0.0
 10
157.557724
 20
241.767836
 30
0.0
 10
157.080470
 20
242.033046
 30
0.0
  0
SPLINE
  5
308
100
AcDbEntity
  8
Layer_1
 62
7
100
AcDbSpline
 70
8
 71
3
 72
8
 73
4
 74
0
 40
0
 40
0
 40
0
 40
0
 40
1
 40
1
 40
1
 40
1
 10
157.080470
 20
242.033046
 30
0.0
 10
156.656244
 20
242.298180
 30
0.0
 10
156.444131
 20
242.722403
 30
0.0
 10
156.444131
 20
243.305717
 30
0.0
  0
LWPOLYLINE
  5
309
100
AcDbEntity
  8
Layer_1
 62
7
100
AcDbPolyline
 90
2
 70
0
 10
159.228113
 20
251.259874
 30
0.0
 10
159.228113
 20
243.146551
 30
0.0
  0
SPLINE
  5
30a
100
AcDbEntity
  8
Layer_1
 62
7
100
AcDbSpline
 70
8
 71
3
 72
8
 73
4
 74
0
 40
0
 40
0
 40
0
 40
0
 40
1
 40
1
 40
1
 40
1
 10
171.055080
 20
249.430507
 30
0.0
 10
170.683881
 20
249.430507
 30
0.0
 10
170.339197
 20
249.563074
 30
0.0
 10
170.021027
 20
249.828208
 30
0.0
  0
SPLINE
  5
30b
100
AcDbEntity
  8
Layer_1
 62
7
100
AcDbSpline
 70
8
 71
3
 72
8
 73
4
 74
0
 40
0
 40
0
 40
0
 40
0
 40
1
 40
1
 40
1
 40
1
 10
170.021027
 20
249.828208
 30
0.0
 10
169.755887
 20
250.146387
 30
0.0
 10
169.623317
 20
250.491071
 30
0.0
 10
169.623317
 20
250.862258
 30
0.0
  0
SPLINE
  5
30c
100
AcDbEntity
  8
Layer_1
 62
7
100
AcDbSpline
 70
8
 71
3
 72
8
 73
4
 74
0
 40
0
 40
0
 40
0
 40
0
 40
1
 40
1
 40
1
 40
1
 10
169.623317
 20
250.862258
 30
0.0
 10
169.623317
 20
251.233465
 30
0.0
 10
169.755887
 20
251.551635
 30
0.0
 10
170.021027
 20
251.816769
 30
0.0
  0
SPLINE
  5
30d
100
AcDbEntity
  8
Layer_1
 62
7
100
AcDbSpline
 70
8
 71
3
 72
8
 73
4
 74
0
 40
0
 40
0
 40
0
 40
0
 40
1
 40
1
 40
1
 40
1
 10
170.021027
 20
251.816769
 30
0.0
 10
170.339197
 20
252.081921
 30
0.0
 10
170.683881
 20
252.214498
 30
0.0
 10
171.055080
 20
252.214498
 30
0.0
  0
SPLINE
  5
30e
100
AcDbEntity
  8
Layer_1
 62
7
100
AcDbSpline
 70
8
 71
3
 72
8
 73
4
 74
0
 40
0
 40
0
 40
0
 40
0
 40
1
 40
1
 40
1
 40
1
 10
171.055080
 20
252.214498
 30
0.0
 10
173.759521
 20
252.214498
 30
0.0
 10
175.111741
 20
250.782728
 30
0.0
 10
175.111741
 20
247.919187
 30
0.0
  0
LWPOLYLINE
  5
30f
100
AcDbEntity
  8
Layer_1
 62
7
100
AcDbPolyline
 90
1
 70
1
 10
156.444131
 20
243.305717
 30
0.0
  0
SPLINE
  5
310
100
AcDbEntity
  8
Layer_1
 62
7
100
AcDbSpline
 70
8
 71
3
 72
8
 73
4
 74
0
 40
0
 40
0
 40
0
 40
0
 40
1
 40
1
 40
1
 40
1
 10
175.111741
 20
200.034680
 30
0.0
 10
175.111741
 20
199.716501
 30
0.0
 10
175.244312
 20
199.477871
 30
0.0
 10
175.509454
 20
199.318791
 30
0.0
  0
SPLINE
  5
311
100
AcDbEntity
  8
Layer_1
 62
7
100
AcDbSpline
 70
8
 71
3
 72
8
 73
4
 74
0
 40
0
 40
0
 40
0
 40
0
 40
1
 40
1
 40
1
 40
1
 10
175.509454
 20
199.318791
 30
0.0
 10
175.774593
 20
199.212775
 30
0.0
 10
176.013220
 20
199.212775
 30
0.0
 10
176.225335
 20
199.318791
 30
0.0
  0
SPLINE
  5
312
100
AcDbEntity
  8
Layer_1
 62
7
100
AcDbSpline
 70
8
 71
3
 72
8
 73
4
 74
0
 40
0
 40
0
 40
0
 40
0
 40
1
 40
1
 40
1
 40
1
 10
176.225335
 20
199.318791
 30
0.0
 10
176.490474
 20
199.477909
 30
0.0
 10
176.623044
 20
199.716539
 30
0.0
 10
176.623044
 20
200.034680
 30
0.0
  0
LWPOLYLINE
  5
313
100
AcDbEntity
  8
Layer_1
 62
7
100
AcDbPolyline
 90
2
 70
0
 10
175.111741
 20
247.919187
 30
0.0
 10
175.111741
 20
200.034680
 30
0.0
  0
SPLINE
  5
314
100
AcDbEntity
  8
Layer_1
 62
7
100
AcDbSpline
 70
8
 71
3
 72
8
 73
4
 74
0
 40
0
 40
0
 40
0
 40
0
 40
1
 40
1
 40
1
 40
1
 10
176.623044
 20
223.499679
 30
0.0
 10
176.623044
 20
224.348126
 30
0.0
 10
176.888186
 20
225.037493
 30
0.0
 10
177.418468
 20
225.567780
 30
0.0
  0
SPLINE
  5
315
100
AcDbEntity
  8
Layer_1
 62
7
100
AcDbSpline
 70
8
 71
3
 72
8
 73
4
 74
0
 40
0
 40
0
 40
0
 40
0
 40
1
 40
1
 40
1
 40
1
 10
177.418468
 20
225.567780
 30
0.0
 10
177.948753
 20
226.151093
 30
0.0
 10
178.638120
 20
226.442750
 30
0.0
 10
179.486569
 20
226.442750
 30
0.0
  0
LWPOLYLINE
  5
316
100
AcDbEntity
  8
Layer_1
 62
7
100
AcDbPolyline
 90
2
 70
0
 10
176.623044
 20
200.034680
 30
0.0
 10
176.623044
 20
223.499679
 30
0.0
  0
SPLINE
  5
317
100
AcDbEntity
  8
Layer_1
 62
7
100
AcDbSpline
 70
8
 71
3
 72
8
 73
4
 74
0
 40
0
 40
0
 40
0
 40
0
 40
1
 40
1
 40
1
 40
1
 10
202.712950
 20
248.555537
 30
0.0
 10
202.712950
 20
249.510057
 30
0.0
 10
202.951578
 20
250.305487
 30
0.0
 10
203.428834
 20
250.941827
 30
0.0
  0
SPLINE
  5
318
100
AcDbEntity
  8
Layer_1
 62
7
100
AcDbSpline
 70
8
 71
3
 72
8
 73
4
 74
0
 40
0
 40
0
 40
0
 40
0
 40
1
 40
1
 40
1
 40
1
 10
203.428834
 20
250.941827
 30
0.0
 10
203.959117
 20
251.578148
 30
0.0
 10
204.568943
 20
251.949345
 30
0.0
 10
205.258312
 20
252.055417
 30
0.0
  0
SPLINE
  5
319
100
AcDbEntity
  8
Layer_1
 62
7
100
AcDbSpline
 70
8
 71
3
 72
8
 73
4
 74
0
 40
0
 40
0
 40
0
 40
0
 40
1
 40
1
 40
1
 40
1
 10
205.258312
 20
252.055417
 30
0.0
 10
205.947682
 20
252.214535
 30
0.0
 10
206.637049
 20
252.214535
 30
0.0
 10
207.326412
 20
252.055417
 30
0.0
  0
SPLINE
  5
31a
100
AcDbEntity
  8
Layer_1
 62
7
100
AcDbSpline
 70
8
 71
3
 72
8
 73
4
 74
0
 40
0
 40
0
 40
0
 40
0
 40
1
 40
1
 40
1
 40
1
 10
207.326412
 20
252.055417
 30
0.0
 10
208.015781
 20
251.896299
 30
0.0
 10
208.599093
 20
251.525102
 30
0.0
 10
209.076347
 20
250.941827
 30
0.0
  0
SPLINE
  5
31b
100
AcDbEntity
  8
Layer_1
 62
7
100
AcDbSpline
 70
8
 71
3
 72
8
 73
4
 74
0
 40
0
 40
0
 40
0
 40
0
 40
1
 40
1
 40
1
 40
1
 10
209.076347
 20
250.941827
 30
0.0
 10
209.606632
 20
250.358494
 30
0.0
 10
209.871774
 20
249.616091
 30
0.0
 10
209.871774
 20
248.714617
 30
0.0
  0
LWPOLYLINE
  5
31c
100
AcDbEntity
  8
Layer_1
 62
7
100
AcDbPolyline
 90
3
 70
0
 10
179.486569
 20
226.442750
 30
0.0
 10
202.712950
 20
226.442750
 30
0.0
 10
202.712950
 20
248.555537
 30
0.0
  0
SPLINE
  5
31d
100
AcDbEntity
  8
Layer_1
 62
7
100
AcDbSpline
 70
8
 71
3
 72
8
 73
4
 74
0
 40
0
 40
0
 40
0
 40
0
 40
1
 40
1
 40
1
 40
1
 10
209.871774
 20
200.511921
 30
0.0
 10
209.871774
 20
199.663474
 30
0.0
 10
210.295998
 20
199.239250
 30
0.0
 10
211.144448
 20
199.239250
 30
0.0
  0
SPLINE
  5
31e
100
AcDbEntity
  8
Layer_1
 62
7
100
AcDbSpline
 70
8
 71
3
 72
8
 73
4
 74
0
 40
0
 40
0
 40
0
 40
0
 40
1
 40
1
 40
1
 40
1
 10
211.144448
 20
199.239250
 30
0.0
 10
211.515646
 20
199.239250
 30
0.0
 10
211.833815
 20
199.080161
 30
0.0
 10
212.098955
 20
198.761981
 30
0.0
  0
SPLINE
  5
31f
100
AcDbEntity
  8
Layer_1
 62
7
100
AcDbSpline
 70
8
 71
3
 72
8
 73
4
 74
0
 40
0
 40
0
 40
0
 40
0
 40
1
 40
1
 40
1
 40
1
 10
212.098955
 20
198.761981
 30
0.0
 10
212.364100
 20
198.496847
 30
0.0
 10
212.496673
 20
198.178677
 30
0.0
 10
212.496673
 20
197.807471
 30
0.0
  0
SPLINE
  5
320
100
AcDbEntity
  8
Layer_1
 62
7
100
AcDbSpline
 70
8
 71
3
 72
8
 73
4
 74
0
 40
0
 40
0
 40
0
 40
0
 40
1
 40
1
 40
1
 40
1
 10
212.496673
 20
197.807471
 30
0.0
 10
212.496673
 20
197.436283
 30
0.0
 10
212.364100
 20
197.118113
 30
0.0
 10
212.098955
 20
196.852961
 30
0.0
  0
SPLINE
  5
321
100
AcDbEntity
  8
Layer_1
 62
7
100
AcDbSpline
 70
8
 71
3
 72
8
 73
4
 74
0
 40
0
 40
0
 40
0
 40
0
 40
1
 40
1
 40
1
 40
1
 10
212.098955
 20
196.852961
 30
0.0
 10
211.833815
 20
196.587827
 30
0.0
 10
211.515646
 20
196.455260
 30
0.0
 10
211.144448
 20
196.455260
 30
0.0
  0
SPLINE
  5
322
100
AcDbEntity
  8
Layer_1
 62
7
100
AcDbSpline
 70
8
 71
3
 72
8
 73
4
 74
0
 40
0
 40
0
 40
0
 40
0
 40
1
 40
1
 40
1
 40
1
 10
211.144448
 20
196.455260
 30
0.0
 10
209.977828
 20
196.455260
 30
0.0
 10
208.996808
 20
196.826457
 30
0.0
 10
208.201385
 20
197.568850
 30
0.0
  0
SPLINE
  5
323
100
AcDbEntity
  8
Layer_1
 62
7
100
AcDbSpline
 70
8
 71
3
 72
8
 73
4
 74
0
 40
0
 40
0
 40
0
 40
0
 40
1
 40
1
 40
1
 40
1
 10
208.201385
 20
197.568850
 30
0.0
 10
207.458986
 20
198.364271
 30
0.0
 10
207.087786
 20
199.345294
 30
0.0
 10
207.087786
 20
200.511921
 30
0.0
  0
LWPOLYLINE
  5
324
100
AcDbEntity
  8
Layer_1
 62
7
100
AcDbPolyline
 90
2
 70
0
 10
209.871774
 20
248.714617
 30
0.0
 10
209.871774
 20
200.511921
 30
0.0
  0
SPLINE
  5
325
100
AcDbEntity
  8
Layer_1
 62
7
100
AcDbSpline
 70
8
 71
3
 72
8
 73
4
 74
0
 40
0
 40
0
 40
0
 40
0
 40
1
 40
1
 40
1
 40
1
 10
207.087786
 20
248.714617
 30
0.0
 10
207.087786
 20
249.032797
 30
0.0
 10
206.955216
 20
249.244913
 30
0.0
 10
206.690077
 20
249.350967
 30
0.0
  0
SPLINE
  5
326
100
AcDbEntity
  8
Layer_1
 62
7
100
AcDbSpline
 70
8
 71
3
 72
8
 73
4
 74
0
 40
0
 40
0
 40
0
 40
0
 40
1
 40
1
 40
1
 40
1
 10
206.690077
 20
249.350967
 30
0.0
 10
206.424937
 20
249.510085
 30
0.0
 10
206.159795
 20
249.510085
 30
0.0
 10
205.894650
 20
249.350967
 30
0.0
  0
SPLINE
  5
327
100
AcDbEntity
  8
Layer_1
 62
7
100
AcDbSpline
 70
8
 71
3
 72
8
 73
4
 74
0
 40
0
 40
0
 40
0
 40
0
 40
1
 40
1
 40
1
 40
1
 10
205.894650
 20
249.350967
 30
0.0
 10
205.629510
 20
249.244951
 30
0.0
 10
205.496940
 20
249.006321
 30
0.0
 10
205.496940
 20
248.635077
 30
0.0
  0
LWPOLYLINE
  5
328
100
AcDbEntity
  8
Layer_1
 62
7
100
AcDbPolyline
 90
2
 70
0
 10
207.087786
 20
200.511921
 30
0.0
 10
207.087786
 20
248.714617
 30
0.0
  0
SPLINE
  5
329
100
AcDbEntity
  8
Layer_1
 62
7
100
AcDbSpline
 70
8
 71
3
 72
8
 73
4
 74
0
 40
0
 40
0
 40
0
 40
0
 40
1
 40
1
 40
1
 40
1
 10
205.496940
 20
226.681370
 30
0.0
 10
205.496940
 20
224.666296
 30
0.0
 10
204.515917
 20
223.658759
 30
0.0
 10
202.553870
 20
223.658759
 30
0.0
  0
LWPOLYLINE
  5
32a
100
AcDbEntity
  8
Layer_1
 62
7
100
AcDbPolyline
 90
2
 70
0
 10
205.496940
 20
248.635077
 30
0.0
 10
205.496940
 20
226.681370
 30
0.0
  0
SPLINE
  5
32b
100
AcDbEntity
  8
Layer_1
 62
7
100
AcDbSpline
 70
8
 71
3
 72
8
 73
4
 74
0
 40
0
 40
0
 40
0
 40
0
 40
1
 40
1
 40
1
 40
1
 10
179.407032
 20
200.034680
 30
0.0
 10
179.407032
 20
198.549874
 30
0.0
 10
178.797205
 20
197.489301
 30
0.0
 10
177.577551
 20
196.852961
 30
0.0
  0
SPLINE
  5
32c
100
AcDbEntity
  8
Layer_1
 62
7
100
AcDbSpline
 70
8
 71
3
 72
8
 73
4
 74
0
 40
0
 40
0
 40
0
 40
0
 40
1
 40
1
 40
1
 40
1
 10
177.577551
 20
196.852961
 30
0.0
 10
176.410934
 20
196.269666
 30
0.0
 10
175.217799
 20
196.269666
 30
0.0
 10
173.998145
 20
196.852961
 30
0.0
  0
SPLINE
  5
32d
100
AcDbEntity
  8
Layer_1
 62
7
100
AcDbSpline
 70
8
 71
3
 72
8
 73
4
 74
0
 40
0
 40
0
 40
0
 40
0
 40
1
 40
1
 40
1
 40
1
 10
173.998145
 20
196.852961
 30
0.0
 10
172.831526
 20
197.489301
 30
0.0
 10
172.248216
 20
198.549874
 30
0.0
 10
172.248216
 20
200.034680
 30
0.0
  0
LWPOLYLINE
  5
32e
100
AcDbEntity
  8
Layer_1
 62
7
100
AcDbPolyline
 90
3
 70
0
 10
202.553870
 20
223.658759
 30
0.0
 10
179.407032
 20
223.658759
 30
0.0
 10
179.407032
 20
200.034680
 30
0.0
  0
SPLINE
  5
32f
100
AcDbEntity
  8
Layer_1
 62
7
100
AcDbSpline
 70
8
 71
3
 72
8
 73
4
 74
0
 40
0
 40
0
 40
0
 40
0
 40
1
 40
1
 40
1
 40
1
 10
172.248216
 20
247.919187
 30
0.0
 10
172.248216
 20
248.926734
 30
0.0
 10
171.850504
 20
249.430507
 30
0.0
 10
171.055080
 20
249.430507
 30
0.0
  0
LWPOLYLINE
  5
330
100
AcDbEntity
  8
Layer_1
 62
7
100
AcDbPolyline
 90
2
 70
0
 10
172.248216
 20
200.034680
 30
0.0
 10
172.248216
 20
247.919187
 30
0.0
  0
SPLINE
  5
331
100
AcDbEntity
  8
Layer_1
 62
7
100
AcDbSpline
 70
8
 71
3
 72
8
 73
4
 74
0
 40
0
 40
0
 40
0
 40
0
 40
1
 40
1
 40
1
 40
1
 10
222.818545
 20
196.932529
 30
0.0
 10
221.970090
 20
197.303717
 30
0.0
 10
221.731463
 20
197.913534
 30
0.0
 10
222.102663
 20
198.761981
 30
0.0
  0
LWPOLYLINE
  5
332
100
AcDbEntity
  8
Layer_1
 62
7
100
AcDbPolyline
 90
1
 70
1
 10
171.055080
 20
249.430507
 30
0.0
  0
SPLINE
  5
333
100
AcDbEntity
  8
Layer_1
 62
7
100
AcDbSpline
 70
8
 71
3
 72
8
 73
4
 74
0
 40
0
 40
0
 40
0
 40
0
 40
1
 40
1
 40
1
 40
1
 10
220.034557
 20
247.203326
 30
0.0
 10
219.451247
 20
248.263880
 30
0.0
 10
219.345192
 20
249.191877
 30
0.0
 10
219.716391
 20
249.987317
 30
0.0
  0
SPLINE
  5
334
100
AcDbEntity
  8
Layer_1
 62
7
100
AcDbSpline
 70
8
 71
3
 72
8
 73
4
 74
0
 40
0
 40
0
 40
0
 40
0
 40
1
 40
1
 40
1
 40
1
 10
219.716391
 20
249.987317
 30
0.0
 10
220.087586
 20
250.835764
 30
0.0
 10
220.644383
 20
251.498608
 30
0.0
 10
221.386782
 20
251.975849
 30
0.0
  0
SPLINE
  5
335
100
AcDbEntity
  8
Layer_1
 62
7
100
AcDbSpline
 70
8
 71
3
 72
8
 73
4
 74
0
 40
0
 40
0
 40
0
 40
0
 40
1
 40
1
 40
1
 40
1
 10
221.386782
 20
251.975849
 30
0.0
 10
222.129176
 20
252.453109
 30
0.0
 10
222.977627
 20
252.585685
 30
0.0
 10
223.932135
 20
252.373578
 30
0.0
  0
SPLINE
  5
336
100
AcDbEntity
  8
Layer_1
 62
7
100
AcDbSpline
 70
8
 71
3
 72
8
 73
4
 74
0
 40
0
 40
0
 40
0
 40
0
 40
1
 40
1
 40
1
 40
1
 10
223.932135
 20
252.373578
 30
0.0
 10
224.886643
 20
252.214460
 30
0.0
 10
225.629040
 20
251.657660
 30
0.0
 10
226.159325
 20
250.703178
 30
0.0
  0
LWPOLYLINE
  5
337
100
AcDbEntity
  8
Layer_1
 62
7
100
AcDbPolyline
 90
3
 70
0
 10
222.102663
 20
198.761981
 30
0.0
 10
233.715849
 20
223.261058
 30
0.0
 10
220.034557
 20
247.203326
 30
0.0
  0
SPLINE
  5
338
100
AcDbEntity
  8
Layer_1
 62
7
100
AcDbSpline
 70
8
 71
3
 72
8
 73
4
 74
0
 40
0
 40
0
 40
0
 40
0
 40
1
 40
1
 40
1
 40
1
 10
248.351652
 20
250.623638
 30
0.0
 10
249.147077
 20
252.108425
 30
0.0
 10
250.393241
 20
252.691739
 30
0.0
 10
252.090145
 20
252.373578
 30
0.0
  0
SPLINE
  5
339
100
AcDbEntity
  8
Layer_1
 62
7
100
AcDbSpline
 70
8
 71
3
 72
8
 73
4
 74
0
 40
0
 40
0
 40
0
 40
0
 40
1
 40
1
 40
1
 40
1
 10
252.090145
 20
252.373578
 30
0.0
 10
253.256768
 20
252.161471
 30
0.0
 10
253.866593
 20
251.657698
 30
0.0
 10
253.919622
 20
250.862258
 30
0.0
  0
SPLINE
  5
33a
100
AcDbEntity
  8
Layer_1
 62
7
100
AcDbSpline
 70
8
 71
3
 72
8
 73
4
 74
0
 40
0
 40
0
 40
0
 40
0
 40
1
 40
1
 40
1
 40
1
 10
253.919622
 20
250.862258
 30
0.0
 10
253.919622
 20
250.597124
 30
0.0
 10
253.840082
 20
250.331981
 30
0.0
 10
253.681002
 20
250.066828
 30
0.0
  0
SPLINE
  5
33b
100
AcDbEntity
  8
Layer_1
 62
7
100
AcDbSpline
 70
8
 71
3
 72
8
 73
4
 74
0
 40
0
 40
0
 40
0
 40
0
 40
1
 40
1
 40
1
 40
1
 10
253.681002
 20
250.066828
 30
0.0
 10
253.468887
 20
249.695641
 30
0.0
 10
253.203745
 20
249.457020
 30
0.0
 10
252.885574
 20
249.350967
 30
0.0
  0
SPLINE
  5
33c
100
AcDbEntity
  8
Layer_1
 62
7
100
AcDbSpline
 70
8
 71
3
 72
8
 73
4
 74
0
 40
0
 40
0
 40
0
 40
0
 40
1
 40
1
 40
1
 40
1
 10
252.885574
 20
249.350967
 30
0.0
 10
252.620435
 20
249.297865
 30
0.0
 10
252.302266
 20
249.324416
 30
0.0
 10
251.931067
 20
249.430620
 30
0.0
  0
SPLINE
  5
33d
100
AcDbEntity
  8
Layer_1
 62
7
100
AcDbSpline
 70
8
 71
3
 72
8
 73
4
 74
0
 40
0
 40
0
 40
0
 40
0
 40
1
 40
1
 40
1
 40
1
 10
251.931067
 20
249.430620
 30
0.0
 10
251.612897
 20
249.589739
 30
0.0
 10
251.427297
 20
249.669298
 30
0.0
 10
251.374266
 20
249.669298
 30
0.0
  0
SPLINE
  5
33e
100
AcDbEntity
  8
Layer_1
 62
7
100
AcDbSpline
 70
8
 71
3
 72
8
 73
4
 74
0
 40
0
 40
0
 40
0
 40
0
 40
1
 40
1
 40
1
 40
1
 10
251.374266
 20
249.669298
 30
0.0
 10
251.109127
 20
249.669298
 30
0.0
 10
250.923530
 20
249.563244
 30
0.0
 10
250.817477
 20
249.351137
 30
0.0
  0
LWPOLYLINE
  5
33f
100
AcDbEntity
  8
Layer_1
 62
7
100
AcDbPolyline
 90
3
 70
0
 10
226.159325
 20
250.703178
 30
0.0
 10
237.692974
 20
230.499411
 30
0.0
 10
248.351652
 20
250.623638
 30
0.0
  0
SPLINE
  5
340
100
AcDbEntity
  8
Layer_1
 62
7
100
AcDbSpline
 70
8
 71
3
 72
8
 73
4
 74
0
 40
0
 40
0
 40
0
 40
0
 40
1
 40
1
 40
1
 40
1
 10
238.965653
 20
226.920161
 30
0.0
 10
238.753544
 20
226.442920
 30
0.0
 10
238.355832
 20
226.204299
 30
0.0
 10
237.772517
 20
226.204299
 30
0.0
  0
SPLINE
  5
341
100
AcDbEntity
  8
Layer_1
 62
7
100
AcDbSpline
 70
8
 71
3
 72
8
 73
4
 74
0
 40
0
 40
0
 40
0
 40
0
 40
1
 40
1
 40
1
 40
1
 10
237.772517
 20
226.204299
 30
0.0
 10
237.189209
 20
226.204299
 30
0.0
 10
236.764985
 20
226.442920
 30
0.0
 10
236.499846
 20
226.920161
 30
0.0
  0
LWPOLYLINE
  5
342
100
AcDbEntity
  8
Layer_1
 62
7
100
AcDbPolyline
 90
2
 70
0
 10
250.817477
 20
249.351137
 30
0.0
 10
238.965653
 20
226.920161
 30
0.0
  0
SPLINE
  5
343
100
AcDbEntity
  8
Layer_1
 62
7
100
AcDbSpline
 70
8
 71
3
 72
8
 73
4
 74
0
 40
0
 40
0
 40
0
 40
0
 40
1
 40
1
 40
1
 40
1
 10
223.693515
 20
249.271597
 30
0.0
 10
223.587461
 20
249.483704
 30
0.0
 10
223.428376
 20
249.589757
 30
0.0
 10
223.216260
 20
249.589757
 30
0.0
  0
SPLINE
  5
344
100
AcDbEntity
  8
Layer_1
 62
7
100
AcDbSpline
 70
8
 71
3
 72
8
 73
4
 74
0
 40
0
 40
0
 40
0
 40
0
 40
1
 40
1
 40
1
 40
1
 10
223.216260
 20
249.589757
 30
0.0
 10
223.057179
 20
249.642860
 30
0.0
 10
222.898094
 20
249.616309
 30
0.0
 10
222.739004
 20
249.510104
 30
0.0
  0
SPLINE
  5
345
100
AcDbEntity
  8
Layer_1
 62
7
100
AcDbSpline
 70
8
 71
3
 72
8
 73
4
 74
0
 40
0
 40
0
 40
0
 40
0
 40
1
 40
1
 40
1
 40
1
 10
222.739004
 20
249.510104
 30
0.0
 10
222.579924
 20
249.404088
 30
0.0
 10
222.473867
 20
249.271521
 30
0.0
 10
222.420832
 20
249.112403
 30
0.0
  0
SPLINE
  5
346
100
AcDbEntity
  8
Layer_1
 62
7
100
AcDbSpline
 70
8
 71
3
 72
8
 73
4
 74
0
 40
0
 40
0
 40
0
 40
0
 40
1
 40
1
 40
1
 40
1
 10
222.420832
 20
249.112403
 30
0.0
 10
222.367806
 20
248.953285
 30
0.0
 10
222.394319
 20
248.767682
 30
0.0
 10
222.500373
 20
248.555594
 30
0.0
  0
LWPOLYLINE
  5
347
100
AcDbEntity
  8
Layer_1
 62
7
100
AcDbPolyline
 90
2
 70
0
 10
236.499846
 20
226.920161
 30
0.0
 10
223.693515
 20
249.271597
 30
0.0
  0
SPLINE
  5
348
100
AcDbEntity
  8
Layer_1
 62
7
100
AcDbSpline
 70
8
 71
3
 72
8
 73
4
 74
0
 40
0
 40
0
 40
0
 40
0
 40
1
 40
1
 40
1
 40
1
 10
236.499840
 20
224.056545
 30
0.0
 10
236.711949
 20
223.685339
 30
0.0
 10
236.738462
 20
223.261106
 30
0.0
 10
236.579380
 20
222.783846
 30
0.0
  0
LWPOLYLINE
  5
349
100
AcDbEntity
  8
Layer_1
 62
7
100
AcDbPolyline
 90
2
 70
0
 10
222.500373
 20
248.555594
 30
0.0
 10
236.499840
 20
224.056545
 30
0.0
  0
SPLINE
  5
34a
100
AcDbEntity
  8
Layer_1
 62
7
100
AcDbSpline
 70
8
 71
3
 72
8
 73
4
 74
0
 40
0
 40
0
 40
0
 40
0
 40
1
 40
1
 40
1
 40
1
 10
224.648019
 20
197.568907
 30
0.0
 10
224.276820
 20
196.720460
 30
0.0
 10
223.666997
 20
196.508353
 30
0.0
 10
222.818547
 20
196.932586
 30
0.0
  0
LWPOLYLINE
  5
34b
100
AcDbEntity
  8
Layer_1
 62
7
100
AcDbPolyline
 90
2
 70
0
 10
236.579380
 20
222.783846
 30
0.0
 10
224.648019
 20
197.568907
 30
0.0
  0
SPLINE
  5
34c
100
AcDbEntity
  8
Layer_1
 62
7
100
AcDbSpline
 70
8
 71
3
 72
8
 73
4
 74
0
 40
0
 40
0
 40
0
 40
0
 40
1
 40
1
 40
1
 40
1
 10
261.858943
 20
249.748668
 30
0.0
 10
261.487748
 20
249.748668
 30
0.0
 10
261.143066
 20
249.881244
 30
0.0
 10
260.824898
 20
250.146397
 30
0.0
  0
SPLINE
  5
34d
100
AcDbEntity
  8
Layer_1
 62
7
100
AcDbSpline
 70
8
 71
3
 72
8
 73
4
 74
0
 40
0
 40
0
 40
0
 40
0
 40
1
 40
1
 40
1
 40
1
 10
260.824898
 20
250.146397
 30
0.0
 10
260.559753
 20
250.411531
 30
0.0
 10
260.427180
 20
250.729701
 30
0.0
 10
260.427180
 20
251.100907
 30
0.0
  0
SPLINE
  5
34e
100
AcDbEntity
  8
Layer_1
 62
7
100
AcDbSpline
 70
8
 71
3
 72
8
 73
4
 74
0
 40
0
 40
0
 40
0
 40
0
 40
1
 40
1
 40
1
 40
1
 10
260.427180
 20
251.100907
 30
0.0
 10
260.427180
 20
251.525121
 30
0.0
 10
260.559753
 20
251.869805
 30
0.0
 10
260.824898
 20
252.134957
 30
0.0
  0
SPLINE
  5
34f
100
AcDbEntity
  8
Layer_1
 62
7
100
AcDbSpline
 70
8
 71
3
 72
8
 73
4
 74
0
 40
0
 40
0
 40
0
 40
0
 40
1
 40
1
 40
1
 40
1
 10
260.824898
 20
252.134957
 30
0.0
 10
261.090038
 20
252.400091
 30
0.0
 10
261.434719
 20
252.532658
 30
0.0
 10
261.858943
 20
252.532658
 30
0.0
  0
SPLINE
  5
350
100
AcDbEntity
  8
Layer_1
 62
7
100
AcDbSpline
 70
8
 71
3
 72
8
 73
4
 74
0
 40
0
 40
0
 40
0
 40
0
 40
1
 40
1
 40
1
 40
1
 10
261.858943
 20
252.532658
 30
0.0
 10
263.131627
 20
252.532658
 30
0.0
 10
264.112651
 20
252.161461
 30
0.0
 10
264.802014
 20
251.419068
 30
0.0
  0
SPLINE
  5
351
100
AcDbEntity
  8
Layer_1
 62
7
100
AcDbSpline
 70
8
 71
3
 72
8
 73
4
 74
0
 40
0
 40
0
 40
0
 40
0
 40
1
 40
1
 40
1
 40
1
 10
264.802014
 20
251.419068
 30
0.0
 10
265.544413
 20
250.676674
 30
0.0
 10
265.915613
 20
249.669137
 30
0.0
 10
265.915613
 20
248.396457
 30
0.0
  0
LWPOLYLINE
  5
352
100
AcDbEntity
  8
Layer_1
 62
7
100
AcDbPolyline
 90
1
 70
1
 10
222.818547
 20
196.932586
 30
0.0
  0
SPLINE
  5
353
100
AcDbEntity
  8
Layer_1
 62
7
100
AcDbSpline
 70
8
 71
3
 72
8
 73
4
 74
0
 40
0
 40
0
 40
0
 40
0
 40
1
 40
1
 40
1
 40
1
 10
265.915613
 20
200.909622
 30
0.0
 10
265.915613
 20
199.955121
 30
0.0
 10
266.392867
 20
199.477871
 30
0.0
 10
267.347375
 20
199.477871
 30
0.0
  0
SPLINE
  5
354
100
AcDbEntity
  8
Layer_1
 62
7
100
AcDbSpline
 70
8
 71
3
 72
8
 73
4
 74
0
 40
0
 40
0
 40
0
 40
0
 40
1
 40
1
 40
1
 40
1
 10
267.347375
 20
199.477871
 30
0.0
 10
267.400402
 20
199.477871
 30
0.0
 10
267.904170
 20
199.477871
 30
0.0
 10
268.858678
 20
199.477871
 30
0.0
  0
SPLINE
  5
355
100
AcDbEntity
  8
Layer_1
 62
7
100
AcDbSpline
 70
8
 71
3
 72
8
 73
4
 74
0
 40
0
 40
0
 40
0
 40
0
 40
1
 40
1
 40
1
 40
1
 10
268.858678
 20
199.477871
 30
0.0
 10
269.866215
 20
199.530973
 30
0.0
 10
271.404035
 20
199.557524
 30
0.0
 10
273.472138
 20
199.557524
 30
0.0
  0
SPLINE
  5
356
100
AcDbEntity
  8
Layer_1
 62
7
100
AcDbSpline
 70
8
 71
3
 72
8
 73
4
 74
0
 40
0
 40
0
 40
0
 40
0
 40
1
 40
1
 40
1
 40
1
 10
273.472138
 20
199.557524
 30
0.0
 10
275.540240
 20
199.557524
 30
0.0
 10
277.979540
 20
199.557524
 30
0.0
 10
280.790036
 20
199.557524
 30
0.0
  0
SPLINE
  5
357
100
AcDbEntity
  8
Layer_1
 62
7
100
AcDbSpline
 70
8
 71
3
 72
8
 73
4
 74
0
 40
0
 40
0
 40
0
 40
0
 40
1
 40
1
 40
1
 40
1
 10
280.790036
 20
199.557524
 30
0.0
 10
287.683715
 20
199.557524
 30
0.0
 10
292.562315
 20
201.360482
 30
0.0
 10
295.425836
 20
204.966397
 30
0.0
  0
SPLINE
  5
358
100
AcDbEntity
  8
Layer_1
 62
7
100
AcDbSpline
 70
8
 71
3
 72
8
 73
4
 74
0
 40
0
 40
0
 40
0
 40
0
 40
1
 40
1
 40
1
 40
1
 10
295.425836
 20
204.966397
 30
0.0
 10
297.812117
 20
207.989017
 30
0.0
 10
299.005257
 20
212.682028
 30
0.0
 10
299.005257
 20
219.045430
 30
0.0
  0
LWPOLYLINE
  5
359
100
AcDbEntity
  8
Layer_1
 62
7
100
AcDbPolyline
 90
2
 70
0
 10
265.915613
 20
248.396457
 30
0.0
 10
265.915613
 20
200.909622
 30
0.0
  0
SPLINE
  5
35a
100
AcDbEntity
  8
Layer_1
 62
7
100
AcDbSpline
 70
8
 71
3
 72
8
 73
4
 74
0
 40
0
 40
0
 40
0
 40
0
 40
1
 40
1
 40
1
 40
1
 10
299.005257
 20
230.101824
 30
0.0
 10
299.005257
 20
236.412180
 30
0.0
 10
297.653036
 20
241.184721
 30
0.0
 10
294.948595
 20
244.419449
 30
0.0
  0
SPLINE
  5
35b
100
AcDbEntity
  8
Layer_1
 62
7
100
AcDbSpline
 70
8
 71
3
 72
8
 73
4
 74
0
 40
0
 40
0
 40
0
 40
0
 40
1
 40
1
 40
1
 40
1
 10
294.948595
 20
244.419449
 30
0.0
 10
291.872948
 20
247.919310
 30
0.0
 10
286.967831
 20
249.669241
 30
0.0
 10
280.233244
 20
249.669241
 30
0.0
  0
LWPOLYLINE
  5
35c
100
AcDbEntity
  8
Layer_1
 62
7
100
AcDbPolyline
 90
2
 70
0
 10
299.005257
 20
219.045430
 30
0.0
 10
299.005257
 20
230.101824
 30
0.0
  0
SPLINE
  5
35d
100
AcDbEntity
  8
Layer_1
 62
7
100
AcDbSpline
 70
8
 71
3
 72
8
 73
4
 74
0
 40
0
 40
0
 40
0
 40
0
 40
1
 40
1
 40
1
 40
1
 10
270.449529
 20
249.669241
 30
0.0
 10
269.548046
 20
249.669241
 30
0.0
 10
269.097304
 20
250.146501
 30
0.0
 10
269.097304
 20
251.101020
 30
0.0
  0
SPLINE
  5
35e
100
AcDbEntity
  8
Layer_1
 62
7
100
AcDbSpline
 70
8
 71
3
 72
8
 73
4
 74
0
 40
0
 40
0
 40
0
 40
0
 40
1
 40
1
 40
1
 40
1
 10
269.097304
 20
251.101020
 30
0.0
 10
269.097304
 20
252.055521
 30
0.0
 10
269.548046
 20
252.532772
 30
0.0
 10
270.449529
 20
252.532772
 30
0.0
  0
LWPOLYLINE
  5
35f
100
AcDbEntity
  8
Layer_1
 62
7
100
AcDbPolyline
 90
2
 70
0
 10
280.233244
 20
249.669241
 30
0.0
 10
270.449529
 20
249.669241
 30
0.0
  0
SPLINE
  5
360
100
AcDbEntity
  8
Layer_1
 62
7
100
AcDbSpline
 70
8
 71
3
 72
8
 73
4
 74
0
 40
0
 40
0
 40
0
 40
0
 40
1
 40
1
 40
1
 40
1
 10
280.233244
 20
252.532772
 30
0.0
 10
287.816278
 20
252.532772
 30
0.0
 10
293.410762
 20
250.438157
 30
0.0
 10
297.016696
 20
246.248929
 30
0.0
  0
SPLINE
  5
361
100
AcDbEntity
  8
Layer_1
 62
7
100
AcDbSpline
 70
8
 71
3
 72
8
 73
4
 74
0
 40
0
 40
0
 40
0
 40
0
 40
1
 40
1
 40
1
 40
1
 10
297.016696
 20
246.248929
 30
0.0
 10
300.198378
 20
242.536942
 30
0.0
 10
301.789219
 20
237.154573
 30
0.0
 10
301.789219
 20
230.101824
 30
0.0
  0
LWPOLYLINE
  5
362
100
AcDbEntity
  8
Layer_1
 62
7
100
AcDbPolyline
 90
2
 70
0
 10
270.449529
 20
252.532772
 30
0.0
 10
280.233244
 20
252.532772
 30
0.0
  0
SPLINE
  5
363
100
AcDbEntity
  8
Layer_1
 62
7
100
AcDbSpline
 70
8
 71
3
 72
8
 73
4
 74
0
 40
0
 40
0
 40
0
 40
0
 40
1
 40
1
 40
1
 40
1
 10
301.789219
 20
219.045430
 30
0.0
 10
301.789219
 20
212.098715
 30
0.0
 10
300.383972
 20
206.822400
 30
0.0
 10
297.573477
 20
203.216485
 30
0.0
  0
SPLINE
  5
364
100
AcDbEntity
  8
Layer_1
 62
7
100
AcDbSpline
 70
8
 71
3
 72
8
 73
4
 74
0
 40
0
 40
0
 40
0
 40
0
 40
1
 40
1
 40
1
 40
1
 10
297.573477
 20
203.216485
 30
0.0
 10
294.179669
 20
198.868157
 30
0.0
 10
288.585189
 20
196.693994
 30
0.0
 10
280.790036
 20
196.693994
 30
0.0
  0
LWPOLYLINE
  5
365
100
AcDbEntity
  8
Layer_1
 62
7
100
AcDbPolyline
 90
2
 70
0
 10
301.789219
 20
230.101824
 30
0.0
 10
301.789219
 20
219.045430
 30
0.0
  0
SPLINE
  5
366
100
AcDbEntity
  8
Layer_1
 62
7
100
AcDbSpline
 70
8
 71
3
 72
8
 73
4
 74
0
 40
0
 40
0
 40
0
 40
0
 40
1
 40
1
 40
1
 40
1
 10
267.347375
 20
196.693994
 30
0.0
 10
266.074697
 20
196.693994
 30
0.0
 10
265.040647
 20
197.065191
 30
0.0
 10
264.245224
 20
197.807584
 30
0.0
  0
SPLINE
  5
367
100
AcDbEntity
  8
Layer_1
 62
7
100
AcDbSpline
 70
8
 71
3
 72
8
 73
4
 74
0
 40
0
 40
0
 40
0
 40
0
 40
1
 40
1
 40
1
 40
1
 10
264.245224
 20
197.807584
 30
0.0
 10
263.502825
 20
198.603024
 30
0.0
 10
263.131625
 20
199.637074
 30
0.0
 10
263.131625
 20
200.909735
 30
0.0
  0
LWPOLYLINE
  5
368
100
AcDbEntity
  8
Layer_1
 62
7
100
AcDbPolyline
 90
2
 70
0
 10
280.790036
 20
196.693994
 30
0.0
 10
267.347375
 20
196.693994
 30
0.0
  0
SPLINE
  5
369
100
AcDbEntity
  8
Layer_1
 62
7
100
AcDbSpline
 70
8
 71
3
 72
8
 73
4
 74
0
 40
0
 40
0
 40
0
 40
0
 40
1
 40
1
 40
1
 40
1
 10
263.131625
 20
248.396570
 30
0.0
 10
263.131625
 20
249.298044
 30
0.0
 10
262.707398
 20
249.748781
 30
0.0
 10
261.858943
 20
249.748781
 30
0.0
  0
LWPOLYLINE
  5
36a
100
AcDbEntity
  8
Layer_1
 62
7
100
AcDbPolyline
 90
2
 70
0
 10
263.131625
 20
200.909735
 30
0.0
 10
263.131625
 20
248.396570
 30
0.0
  0
SPLINE
  5
36b
100
AcDbEntity
  8
Layer_1
 62
7
100
AcDbSpline
 70
8
 71
3
 72
8
 73
4
 74
0
 40
0
 40
0
 40
0
 40
0
 40
1
 40
1
 40
1
 40
1
 10
314.432759
 20
196.614340
 30
0.0
 10
314.061553
 20
196.614340
 30
0.0
 10
313.743383
 20
196.746917
 30
0.0
 10
313.478249
 20
197.012069
 30
0.0
  0
SPLINE
  5
36c
100
AcDbEntity
  8
Layer_1
 62
7
100
AcDbSpline
 70
8
 71
3
 72
8
 73
4
 74
0
 40
0
 40
0
 40
0
 40
0
 40
1
 40
1
 40
1
 40
1
 10
313.478249
 20
197.012069
 30
0.0
 10
313.213096
 20
197.330230
 30
0.0
 10
313.080520
 20
197.674913
 30
0.0
 10
313.080520
 20
198.046120
 30
0.0
  0
LWPOLYLINE
  5
36d
100
AcDbEntity
  8
Layer_1
 62
7
100
AcDbPolyline
 90
2
 70
0
 10
261.858943
 20
249.748781
 30
0.0
 10
261.858943
 20
249.748668
 30
0.0
  0
SPLINE
  5
36e
100
AcDbEntity
  8
Layer_1
 62
7
100
AcDbSpline
 70
8
 71
3
 72
8
 73
4
 74
0
 40
0
 40
0
 40
0
 40
0
 40
1
 40
1
 40
1
 40
1
 10
313.080520
 20
248.794157
 30
0.0
 10
313.080520
 20
249.801704
 30
0.0
 10
313.425203
 20
250.650161
 30
0.0
 10
314.114570
 20
251.339528
 30
0.0
  0
SPLINE
  5
36f
100
AcDbEntity
  8
Layer_1
 62
7
100
AcDbSpline
 70
8
 71
3
 72
8
 73
4
 74
0
 40
0
 40
0
 40
0
 40
0
 40
1
 40
1
 40
1
 40
1
 10
314.114570
 20
251.339528
 30
0.0
 10
314.803937
 20
252.028894
 30
0.0
 10
315.652394
 20
252.373578
 30
0.0
 10
316.659940
 20
252.373578
 30
0.0
  0
LWPOLYLINE
  5
370
100
AcDbEntity
  8
Layer_1
 62
7
100
AcDbPolyline
 90
2
 70
0
 10
313.080520
 20
198.046120
 30
0.0
 10
313.080520
 20
248.794157
 30
0.0
  0
SPLINE
  5
371
100
AcDbEntity
  8
Layer_1
 62
7
100
AcDbSpline
 70
8
 71
3
 72
8
 73
4
 74
0
 40
0
 40
0
 40
0
 40
0
 40
1
 40
1
 40
1
 40
1
 10
336.863707
 20
252.373578
 30
0.0
 10
339.143915
 20
252.373578
 30
0.0
 10
341.185502
 20
251.816778
 30
0.0
 10
342.988469
 20
250.703178
 30
0.0
  0
SPLINE
  5
372
100
AcDbEntity
  8
Layer_1
 62
7
100
AcDbSpline
 70
8
 71
3
 72
8
 73
4
 74
0
 40
0
 40
0
 40
0
 40
0
 40
1
 40
1
 40
1
 40
1
 10
342.988469
 20
250.703178
 30
0.0
 10
344.844463
 20
249.642624
 30
0.0
 10
346.249710
 20
248.237376
 30
0.0
 10
347.204211
 20
246.487436
 30
0.0
  0
SPLINE
  5
373
100
AcDbEntity
  8
Layer_1
 62
7
100
AcDbSpline
 70
8
 71
3
 72
8
 73
4
 74
0
 40
0
 40
0
 40
0
 40
0
 40
1
 40
1
 40
1
 40
1
 10
347.204211
 20
246.487436
 30
0.0
 10
348.158731
 20
244.737496
 30
0.0
 10
348.848098
 20
242.801962
 30
0.0
 10
349.272312
 20
240.680835
 30
0.0
  0
SPLINE
  5
374
100
AcDbEntity
  8
Layer_1
 62
7
100
AcDbSpline
 70
8
 71
3
 72
8
 73
4
 74
0
 40
0
 40
0
 40
0
 40
0
 40
1
 40
1
 40
1
 40
1
 10
349.272312
 20
240.680835
 30
0.0
 10
349.749572
 20
238.559707
 30
0.0
 10
349.776123
 20
236.438580
 30
0.0
 10
349.351965
 20
234.317452
 30
0.0
  0
SPLINE
  5
375
100
AcDbEntity
  8
Layer_1
 62
7
100
AcDbSpline
 70
8
 71
3
 72
8
 73
4
 74
0
 40
0
 40
0
 40
0
 40
0
 40
1
 40
1
 40
1
 40
1
 10
349.351965
 20
234.317452
 30
0.0
 10
348.927751
 20
232.196324
 30
0.0
 10
348.238384
 20
230.260791
 30
0.0
 10
347.283865
 20
228.510850
 30
0.0
  0
SPLINE
  5
376
100
AcDbEntity
  8
Layer_1
 62
7
100
AcDbSpline
 70
8
 71
3
 72
8
 73
4
 74
0
 40
0
 40
0
 40
0
 40
0
 40
1
 40
1
 40
1
 40
1
 10
347.283865
 20
228.510850
 30
0.0
 10
346.382391
 20
226.813956
 30
0.0
 10
345.003657
 20
225.408709
 30
0.0
 10
343.147663
 20
224.295109
 30
0.0
  0
SPLINE
  5
377
100
AcDbEntity
  8
Layer_1
 62
7
100
AcDbSpline
 70
8
 71
3
 72
8
 73
4
 74
0
 40
0
 40
0
 40
0
 40
0
 40
1
 40
1
 40
1
 40
1
 10
343.147663
 20
224.295109
 30
0.0
 10
341.291669
 20
223.234535
 30
0.0
 10
339.197055
 20
222.704249
 30
0.0
 10
336.863820
 20
222.704249
 30
0.0
  0
LWPOLYLINE
  5
378
100
AcDbEntity
  8
Layer_1
 62
7
100
AcDbPolyline
 90
2
 70
0
 10
316.659940
 20
252.373578
 30
0.0
 10
336.863707
 20
252.373578
 30
0.0
  0
SPLINE
  5
379
100
AcDbEntity
  8
Layer_1
 62
7
100
AcDbSpline
 70
8
 71
3
 72
8
 73
4
 74
0
 40
0
 40
0
 40
0
 40
0
 40
1
 40
1
 40
1
 40
1
 10
325.409698
 20
222.704249
 30
0.0
 10
324.561250
 20
222.704249
 30
0.0
 10
324.137027
 20
222.280025
 30
0.0
 10
324.137027
 20
221.431578
 30
0.0
  0
SPLINE
  5
37a
100
AcDbEntity
  8
Layer_1
 62
7
100
AcDbSpline
 70
8
 71
3
 72
8
 73
4
 74
0
 40
0
 40
0
 40
0
 40
0
 40
1
 40
1
 40
1
 40
1
 10
324.137027
 20
221.431578
 30
0.0
 10
324.137027
 20
220.530104
 30
0.0
 10
323.659776
 20
220.079367
 30
0.0
 10
322.705276
 20
220.079367
 30
0.0
  0
SPLINE
  5
37b
100
AcDbEntity
  8
Layer_1
 62
7
100
AcDbSpline
 70
8
 71
3
 72
8
 73
4
 74
0
 40
0
 40
0
 40
0
 40
0
 40
1
 40
1
 40
1
 40
1
 10
322.705276
 20
220.079367
 30
0.0
 10
321.803783
 20
220.079367
 30
0.0
 10
321.353036
 20
220.530104
 30
0.0
 10
321.353036
 20
221.431578
 30
0.0
  0
SPLINE
  5
37c
100
AcDbEntity
  8
Layer_1
 62
7
100
AcDbSpline
 70
8
 71
3
 72
8
 73
4
 74
0
 40
0
 40
0
 40
0
 40
0
 40
1
 40
1
 40
1
 40
1
 10
321.353036
 20
221.431578
 30
0.0
 10
321.353036
 20
222.545178
 30
0.0
 10
321.750756
 20
223.499688
 30
0.0
 10
322.546195
 20
224.295109
 30
0.0
  0
SPLINE
  5
37d
100
AcDbEntity
  8
Layer_1
 62
7
100
AcDbSpline
 70
8
 71
3
 72
8
 73
4
 74
0
 40
0
 40
0
 40
0
 40
0
 40
1
 40
1
 40
1
 40
1
 10
322.546195
 20
224.295109
 30
0.0
 10
323.341616
 20
225.090529
 30
0.0
 10
324.296117
 20
225.488239
 30
0.0
 10
325.409698
 20
225.488239
 30
0.0
  0
LWPOLYLINE
  5
37e
100
AcDbEntity
  8
Layer_1
 62
7
100
AcDbPolyline
 90
2
 70
0
 10
336.863820
 20
222.704249
 30
0.0
 10
325.409698
 20
222.704249
 30
0.0
  0
SPLINE
  5
37f
100
AcDbEntity
  8
Layer_1
 62
7
100
AcDbSpline
 70
8
 71
3
 72
8
 73
4
 74
0
 40
0
 40
0
 40
0
 40
0
 40
1
 40
1
 40
1
 40
1
 10
336.863820
 20
225.488239
 30
0.0
 10
338.719814
 20
225.488239
 30
0.0
 10
340.363691
 20
225.912463
 30
0.0
 10
341.795452
 20
226.760910
 30
0.0
  0
SPLINE
  5
380
100
AcDbEntity
  8
Layer_1
 62
7
100
AcDbSpline
 70
8
 71
3
 72
8
 73
4
 74
0
 40
0
 40
0
 40
0
 40
0
 40
1
 40
1
 40
1
 40
1
 10
341.795452
 20
226.760910
 30
0.0
 10
343.227213
 20
227.662403
 30
0.0
 10
344.287776
 20
228.829030
 30
0.0
 10
344.977143
 20
230.260791
 30
0.0
  0
SPLINE
  5
381
100
AcDbEntity
  8
Layer_1
 62
7
100
AcDbSpline
 70
8
 71
3
 72
8
 73
4
 74
0
 40
0
 40
0
 40
0
 40
0
 40
1
 40
1
 40
1
 40
1
 10
344.977143
 20
230.260791
 30
0.0
 10
345.719537
 20
231.692551
 30
0.0
 10
346.249824
 20
233.256879
 30
0.0
 10
346.568003
 20
234.953773
 30
0.0
  0
SPLINE
  5
382
100
AcDbEntity
  8
Layer_1
 62
7
100
AcDbSpline
 70
8
 71
3
 72
8
 73
4
 74
0
 40
0
 40
0
 40
0
 40
0
 40
1
 40
1
 40
1
 40
1
 10
346.568003
 20
234.953773
 30
0.0
 10
346.939191
 20
236.650687
 30
0.0
 10
346.939191
 20
238.347600
 30
0.0
 10
346.568003
 20
240.044513
 30
0.0
  0
SPLINE
  5
383
100
AcDbEntity
  8
Layer_1
 62
7
100
AcDbSpline
 70
8
 71
3
 72
8
 73
4
 74
0
 40
0
 40
0
 40
0
 40
0
 40
1
 40
1
 40
1
 40
1
 10
346.568003
 20
240.044513
 30
0.0
 10
346.196797
 20
241.794435
 30
0.0
 10
345.639997
 20
243.358762
 30
0.0
 10
344.897603
 20
244.737496
 30
0.0
  0
SPLINE
  5
384
100
AcDbEntity
  8
Layer_1
 62
7
100
AcDbSpline
 70
8
 71
3
 72
8
 73
4
 74
0
 40
0
 40
0
 40
0
 40
0
 40
1
 40
1
 40
1
 40
1
 10
344.897603
 20
244.737496
 30
0.0
 10
344.155209
 20
246.169257
 30
0.0
 10
343.068132
 20
247.335883
 30
0.0
 10
341.636372
 20
248.237376
 30
0.0
  0
SPLINE
  5
385
100
AcDbEntity
  8
Layer_1
 62
7
100
AcDbSpline
 70
8
 71
3
 72
8
 73
4
 74
0
 40
0
 40
0
 40
0
 40
0
 40
1
 40
1
 40
1
 40
1
 10
341.636372
 20
248.237376
 30
0.0
 10
340.257638
 20
249.138850
 30
0.0
 10
338.666787
 20
249.589587
 30
0.0
 10
336.863820
 20
249.589587
 30
0.0
  0
LWPOLYLINE
  5
386
100
AcDbEntity
  8
Layer_1
 62
7
100
AcDbPolyline
 90
2
 70
0
 10
325.409698
 20
225.488239
 30
0.0
 10
336.863820
 20
225.488239
 30
0.0
  0
SPLINE
  5
387
100
AcDbEntity
  8
Layer_1
 62
7
100
AcDbSpline
 70
8
 71
3
 72
8
 73
4
 74
0
 40
0
 40
0
 40
0
 40
0
 40
1
 40
1
 40
1
 40
1
 10
316.660054
 20
249.589587
 30
0.0
 10
316.129767
 20
249.589587
 30
0.0
 10
315.864624
 20
249.324444
 30
0.0
 10
315.864624
 20
248.794157
 30
0.0
  0
LWPOLYLINE
  5
388
100
AcDbEntity
  8
Layer_1
 62
7
100
AcDbPolyline
 90
2
 70
0
 10
336.863820
 20
249.589587
 30
0.0
 10
316.660054
 20
249.589587
 30
0.0
  0
SPLINE
  5
389
100
AcDbEntity
  8
Layer_1
 62
7
100
AcDbSpline
 70
8
 71
3
 72
8
 73
4
 74
0
 40
0
 40
0
 40
0
 40
0
 40
1
 40
1
 40
1
 40
1
 10
315.864624
 20
198.046120
 30
0.0
 10
315.864624
 20
197.674913
 30
0.0
 10
315.732057
 20
197.330230
 30
0.0
 10
315.466923
 20
197.012069
 30
0.0
  0
SPLINE
  5
38a
100
AcDbEntity
  8
Layer_1
 62
7
100
AcDbSpline
 70
8
 71
3
 72
8
 73
4
 74
0
 40
0
 40
0
 40
0
 40
0
 40
1
 40
1
 40
1
 40
1
 10
315.466923
 20
197.012069
 30
0.0
 10
315.201770
 20
196.746917
 30
0.0
 10
314.857087
 20
196.614340
 30
0.0
 10
314.432872
 20
196.614340
 30
0.0
  0
LWPOLYLINE
  5
38b
100
AcDbEntity
  8
Layer_1
 62
7
100
AcDbPolyline
 90
2
 70
0
 10
315.864624
 20
248.794157
 30
0.0
 10
315.864624
 20
198.046120
 30
0.0
  0
LWPOLYLINE
  5
38c
100
AcDbEntity
  8
Layer_1
 62
7
100
AcDbPolyline
 90
2
 70
0
 10
314.432872
 20
196.614340
 30
0.0
 10
314.432759
 20
196.614340
 30
0.0
  0
SPLINE
  5
38d
100
AcDbEntity
  8
Layer_1
 62
7
100
AcDbSpline
 70
8
 71
3
 72
8
 73
4
 74
0
 40
0
 40
0
 40
0
 40
0
 40
1
 40
1
 40
1
 40
1
 10
331.613915
 20
218.488507
 30
0.0
 10
331.136655
 20
219.283928
 30
0.0
 10
331.269222
 20
219.920268
 30
0.0
 10
332.011616
 20
220.397528
 30
0.0
  0
SPLINE
  5
38e
100
AcDbEntity
  8
Layer_1
 62
7
100
AcDbSpline
 70
8
 71
3
 72
8
 73
4
 74
0
 40
0
 40
0
 40
0
 40
0
 40
1
 40
1
 40
1
 40
1
 10
332.011616
 20
220.397528
 30
0.0
 10
332.807036
 20
220.927814
 30
0.0
 10
333.469890
 20
220.795247
 30
0.0
 10
334.000176
 20
219.999827
 30
0.0
  0
LWPOLYLINE
  5
38f
100
AcDbEntity
  8
Layer_1
 62
7
100
AcDbPolyline
 90
2
 70
0
 10
345.374731
 20
197.250690
 30
0.0
 10
331.613915
 20
218.488507
 30
0.0
  0
SPLINE
  5
390
100
AcDbEntity
  8
Layer_1
 62
7
100
AcDbSpline
 70
8
 71
3
 72
8
 73
4
 74
0
 40
0
 40
0
 40
0
 40
0
 40
1
 40
1
 40
1
 40
1
 10
347.681480
 20
198.761981
 30
0.0
 10
347.999641
 20
198.284740
 30
0.0
 10
348.026192
 20
197.807490
 30
0.0
 10
347.761134
 20
197.330230
 30
0.0
  0
SPLINE
  5
391
100
AcDbEntity
  8
Layer_1
 62
7
100
AcDbSpline
 70
8
 71
3
 72
8
 73
4
 74
0
 40
0
 40
0
 40
0
 40
0
 40
1
 40
1
 40
1
 40
1
 10
347.761134
 20
197.330230
 30
0.0
 10
347.495981
 20
196.905997
 30
0.0
 10
347.124784
 20
196.693880
 30
0.0
 10
346.647543
 20
196.693880
 30
0.0
  0
SPLINE
  5
392
100
AcDbEntity
  8
Layer_1
 62
7
100
AcDbSpline
 70
8
 71
3
 72
8
 73
4
 74
0
 40
0
 40
0
 40
0
 40
0
 40
1
 40
1
 40
1
 40
1
 10
346.647543
 20
196.693880
 30
0.0
 10
346.170283
 20
196.640778
 30
0.0
 10
345.746050
 20
196.826381
 30
0.0
 10
345.374844
 20
197.250690
 30
0.0
  0
LWPOLYLINE
  5
393
100
AcDbEntity
  8
Layer_1
 62
7
100
AcDbPolyline
 90
2
 70
0
 10
334.000176
 20
219.999827
 30
0.0
 10
347.681480
 20
198.761981
 30
0.0
  0
LWPOLYLINE
  5
394
100
AcDbEntity
  8
Layer_1
 62
7
100
AcDbPolyline
 90
2
 70
0
 10
345.374844
 20
197.250690
 30
0.0
 10
345.374731
 20
197.250690
 30
0.0
  0
SPLINE
  5
395
100
AcDbEntity
  8
Layer_1
 62
7
100
AcDbSpline
 70
8
 71
3
 72
8
 73
4
 74
0
 40
0
 40
0
 40
0
 40
0
 40
1
 40
1
 40
1
 40
1
 10
385.754939
 20
196.693880
 30
0.0
 10
388.353326
 20
196.693880
 30
0.0
 10
389.785087
 20
197.780957
 30
0.0
 10
390.050220
 20
199.955112
 30
0.0
  0
SPLINE
  5
396
100
AcDbEntity
  8
Layer_1
 62
7
100
AcDbSpline
 70
8
 71
3
 72
8
 73
4
 74
0
 40
0
 40
0
 40
0
 40
0
 40
1
 40
1
 40
1
 40
1
 10
390.050220
 20
199.955112
 30
0.0
 10
390.103323
 20
200.326318
 30
0.0
 10
389.997269
 20
200.671011
 30
0.0
 10
389.732060
 20
200.989191
 30
0.0
  0
SPLINE
  5
397
100
AcDbEntity
  8
Layer_1
 62
7
100
AcDbSpline
 70
8
 71
3
 72
8
 73
4
 74
0
 40
0
 40
0
 40
0
 40
0
 40
1
 40
1
 40
1
 40
1
 10
389.732060
 20
200.989191
 30
0.0
 10
389.519934
 20
201.307351
 30
0.0
 10
389.228277
 20
201.492945
 30
0.0
 10
388.857090
 20
201.545972
 30
0.0
  0
SPLINE
  5
398
100
AcDbEntity
  8
Layer_1
 62
7
100
AcDbSpline
 70
8
 71
3
 72
8
 73
4
 74
0
 40
0
 40
0
 40
0
 40
0
 40
1
 40
1
 40
1
 40
1
 10
388.857090
 20
201.545972
 30
0.0
 10
388.485883
 20
201.599074
 30
0.0
 10
388.141200
 20
201.493020
 30
0.0
 10
387.823039
 20
201.227811
 30
0.0
  0
SPLINE
  5
399
100
AcDbEntity
  8
Layer_1
 62
7
100
AcDbSpline
 70
8
 71
3
 72
8
 73
4
 74
0
 40
0
 40
0
 40
0
 40
0
 40
1
 40
1
 40
1
 40
1
 10
387.823039
 20
201.227811
 30
0.0
 10
387.504860
 20
201.015685
 30
0.0
 10
387.319257
 20
200.724028
 30
0.0
 10
387.266230
 20
200.352841
 30
0.0
  0
SPLINE
  5
39a
100
AcDbEntity
  8
Layer_1
 62
7
100
AcDbSpline
 70
8
 71
3
 72
8
 73
4
 74
0
 40
0
 40
0
 40
0
 40
0
 40
1
 40
1
 40
1
 40
1
 10
387.266230
 20
200.352841
 30
0.0
 10
387.213128
 20
199.769528
 30
0.0
 10
386.709364
 20
199.477871
 30
0.0
 10
385.754939
 20
199.477871
 30
0.0
  0
LWPOLYLINE
  5
39b
100
AcDbEntity
  8
Layer_1
 62
7
100
AcDbPolyline
 90
2
 70
0
 10
370.562343
 20
196.693880
 30
0.0
 10
385.754939
 20
196.693880
 30
0.0
  0
SPLINE
  5
39c
100
AcDbEntity
  8
Layer_1
 62
7
100
AcDbSpline
 70
8
 71
3
 72
8
 73
4
 74
0
 40
0
 40
0
 40
0
 40
0
 40
1
 40
1
 40
1
 40
1
 10
370.562343
 20
199.477871
 30
0.0
 10
370.191137
 20
199.477871
 30
0.0
 10
369.872967
 20
199.318791
 30
0.0
 10
369.607833
 20
199.000630
 30
0.0
  0
SPLINE
  5
39d
100
AcDbEntity
  8
Layer_1
 62
7
100
AcDbSpline
 70
8
 71
3
 72
8
 73
4
 74
0
 40
0
 40
0
 40
0
 40
0
 40
1
 40
1
 40
1
 40
1
 10
369.607833
 20
199.000630
 30
0.0
 10
369.342680
 20
198.735477
 30
0.0
 10
369.210104
 20
198.417307
 30
0.0
 10
369.210104
 20
198.046120
 30
0.0
  0
SPLINE
  5
39e
100
AcDbEntity
  8
Layer_1
 62
7
100
AcDbSpline
 70
8
 71
3
 72
8
 73
4
 74
0
 40
0
 40
0
 40
0
 40
0
 40
1
 40
1
 40
1
 40
1
 10
369.210104
 20
198.046120
 30
0.0
 10
369.210104
 20
197.674913
 30
0.0
 10
369.342680
 20
197.356743
 30
0.0
 10
369.607833
 20
197.091609
 30
0.0
  0
SPLINE
  5
39f
100
AcDbEntity
  8
Layer_1
 62
7
100
AcDbSpline
 70
8
 71
3
 72
8
 73
4
 74
0
 40
0
 40
0
 40
0
 40
0
 40
1
 40
1
 40
1
 40
1
 10
369.607833
 20
197.091609
 30
0.0
 10
369.872967
 20
196.826457
 30
0.0
 10
370.191137
 20
196.693880
 30
0.0
 10
370.562343
 20
196.693880
 30
0.0
  0
LWPOLYLINE
  5
3a0
100
AcDbEntity
  8
Layer_1
 62
7
100
AcDbPolyline
 90
2
 70
0
 10
385.754939
 20
199.477871
 30
0.0
 10
370.562343
 20
199.477871
 30
0.0
  0
SPLINE
  5
3a1
100
AcDbEntity
  8
Layer_1
 62
7
100
AcDbSpline
 70
8
 71
3
 72
8
 73
4
 74
0
 40
0
 40
0
 40
0
 40
0
 40
1
 40
1
 40
1
 40
1
 10
388.857090
 20
252.453118
 30
0.0
 10
389.281323
 20
252.453118
 30
0.0
 10
389.626006
 20
252.294028
 30
0.0
 10
389.891140
 20
251.975849
 30
0.0
  0
SPLINE
  5
3a2
100
AcDbEntity
  8
Layer_1
 62
7
100
AcDbSpline
 70
8
 71
3
 72
8
 73
4
 74
0
 40
0
 40
0
 40
0
 40
0
 40
1
 40
1
 40
1
 40
1
 10
389.891140
 20
251.975849
 30
0.0
 10
390.156274
 20
251.710715
 30
0.0
 10
390.288841
 20
251.392545
 30
0.0
 10
390.288841
 20
251.021339
 30
0.0
  0
SPLINE
  5
3a3
100
AcDbEntity
  8
Layer_1
 62
7
100
AcDbSpline
 70
8
 71
3
 72
8
 73
4
 74
0
 40
0
 40
0
 40
0
 40
0
 40
1
 40
1
 40
1
 40
1
 10
390.288841
 20
251.021339
 30
0.0
 10
390.288841
 20
250.650151
 30
0.0
 10
390.156274
 20
250.305477
 30
0.0
 10
389.891140
 20
249.987317
 30
0.0
  0
SPLINE
  5
3a4
100
AcDbEntity
  8
Layer_1
 62
7
100
AcDbSpline
 70
8
 71
3
 72
8
 73
4
 74
0
 40
0
 40
0
 40
0
 40
0
 40
1
 40
1
 40
1
 40
1
 10
389.891140
 20
249.987317
 30
0.0
 10
389.626006
 20
249.722164
 30
0.0
 10
389.281323
 20
249.589587
 30
0.0
 10
388.857090
 20
249.589587
 30
0.0
  0
LWPOLYLINE
  5
3a5
100
AcDbEntity
  8
Layer_1
 62
7
100
AcDbPolyline
 90
1
 70
1
 10
370.562343
 20
196.693880
 30
0.0
  0
SPLINE
  5
3a6
100
AcDbEntity
  8
Layer_1
 62
7
100
AcDbSpline
 70
8
 71
3
 72
8
 73
4
 74
0
 40
0
 40
0
 40
0
 40
0
 40
1
 40
1
 40
1
 40
1
 10
364.596661
 20
249.669241
 30
0.0
 10
363.695169
 20
249.669241
 30
0.0
 10
363.244422
 20
249.191991
 30
0.0
 10
363.244422
 20
248.237490
 30
0.0
  0
LWPOLYLINE
  5
3a7
100
AcDbEntity
  8
Layer_1
 62
7
100
AcDbPolyline
 90
2
 70
0
 10
388.857090
 20
249.589587
 30
0.0
 10
364.596661
 20
249.669241
 30
0.0
  0
SPLINE
  5
3a8
100
AcDbEntity
  8
Layer_1
 62
7
100
AcDbSpline
 70
8
 71
3
 72
8
 73
4
 74
0
 40
0
 40
0
 40
0
 40
0
 40
1
 40
1
 40
1
 40
1
 10
363.244422
 20
200.193874
 30
0.0
 10
363.244422
 20
199.875694
 30
0.0
 10
363.350485
 20
199.637065
 30
0.0
 10
363.562611
 20
199.477984
 30
0.0
  0
SPLINE
  5
3a9
100
AcDbEntity
  8
Layer_1
 62
7
100
AcDbSpline
 70
8
 71
3
 72
8
 73
4
 74
0
 40
0
 40
0
 40
0
 40
0
 40
1
 40
1
 40
1
 40
1
 10
363.562611
 20
199.477984
 30
0.0
 10
363.827745
 20
199.371969
 30
0.0
 10
364.066365
 20
199.371969
 30
0.0
 10
364.278472
 20
199.477984
 30
0.0
  0
SPLINE
  5
3aa
100
AcDbEntity
  8
Layer_1
 62
7
100
AcDbSpline
 70
8
 71
3
 72
8
 73
4
 74
0
 40
0
 40
0
 40
0
 40
0
 40
1
 40
1
 40
1
 40
1
 10
364.278472
 20
199.477984
 30
0.0
 10
364.543625
 20
199.637102
 30
0.0
 10
364.676202
 20
199.875732
 30
0.0
 10
364.676202
 20
200.193874
 30
0.0
  0
LWPOLYLINE
  5
3ab
100
AcDbEntity
  8
Layer_1
 62
7
100
AcDbPolyline
 90
2
 70
0
 10
363.244422
 20
248.237490
 30
0.0
 10
363.244422
 20
200.193874
 30
0.0
  0
SPLINE
  5
3ac
100
AcDbEntity
  8
Layer_1
 62
7
100
AcDbSpline
 70
8
 71
3
 72
8
 73
4
 74
0
 40
0
 40
0
 40
0
 40
0
 40
1
 40
1
 40
1
 40
1
 10
364.676202
 20
222.545282
 30
0.0
 10
364.676202
 20
225.249723
 30
0.0
 10
365.975395
 20
226.601943
 30
0.0
 10
368.573783
 20
226.601943
 30
0.0
  0
LWPOLYLINE
  5
3ad
100
AcDbEntity
  8
Layer_1
 62
7
100
AcDbPolyline
 90
2
 70
0
 10
364.676202
 20
200.193874
 30
0.0
 10
364.676202
 20
222.545282
 30
0.0
  0
SPLINE
  5
3ae
100
AcDbEntity
  8
Layer_1
 62
7
100
AcDbSpline
 70
8
 71
3
 72
8
 73
4
 74
0
 40
0
 40
0
 40
0
 40
0
 40
1
 40
1
 40
1
 40
1
 10
378.993827
 20
226.601943
 30
0.0
 10
379.365033
 20
226.601943
 30
0.0
 10
379.683203
 20
226.469376
 30
0.0
 10
379.948337
 20
226.204243
 30
0.0
  0
SPLINE
  5
3af
100
AcDbEntity
  8
Layer_1
 62
7
100
AcDbSpline
 70
8
 71
3
 72
8
 73
4
 74
0
 40
0
 40
0
 40
0
 40
0
 40
1
 40
1
 40
1
 40
1
 10
379.948337
 20
226.204243
 30
0.0
 10
380.266517
 20
225.939090
 30
0.0
 10
380.425606
 20
225.620920
 30
0.0
 10
380.425606
 20
225.249732
 30
0.0
  0
SPLINE
  5
3b0
100
AcDbEntity
  8
Layer_1
 62
7
100
AcDbSpline
 70
8
 71
3
 72
8
 73
4
 74
0
 40
0
 40
0
 40
0
 40
0
 40
1
 40
1
 40
1
 40
1
 10
380.425606
 20
225.249732
 30
0.0
 10
380.425606
 20
224.878526
 30
0.0
 10
380.293030
 20
224.533843
 30
0.0
 10
380.027877
 20
224.215682
 30
0.0
  0
SPLINE
  5
3b1
100
AcDbEntity
  8
Layer_1
 62
7
100
AcDbSpline
 70
8
 71
3
 72
8
 73
4
 74
0
 40
0
 40
0
 40
0
 40
0
 40
1
 40
1
 40
1
 40
1
 10
380.027877
 20
224.215682
 30
0.0
 10
379.762743
 20
223.950529
 30
0.0
 10
379.418060
 20
223.817953
 30
0.0
 10
378.993827
 20
223.817953
 30
0.0
  0
LWPOLYLINE
  5
3b2
100
AcDbEntity
  8
Layer_1
 62
7
100
AcDbPolyline
 90
2
 70
0
 10
368.573783
 20
226.601943
 30
0.0
 10
378.993827
 20
226.601943
 30
0.0
  0
SPLINE
  5
3b3
100
AcDbEntity
  8
Layer_1
 62
7
100
AcDbSpline
 70
8
 71
3
 72
8
 73
4
 74
0
 40
0
 40
0
 40
0
 40
0
 40
1
 40
1
 40
1
 40
1
 10
368.573783
 20
223.817953
 30
0.0
 10
367.831389
 20
223.817953
 30
0.0
 10
367.460192
 20
223.446756
 30
0.0
 10
367.460192
 20
222.704362
 30
0.0
  0
LWPOLYLINE
  5
3b4
100
AcDbEntity
  8
Layer_1
 62
7
100
AcDbPolyline
 90
2
 70
0
 10
378.993827
 20
223.817953
 30
0.0
 10
368.573783
 20
223.817953
 30
0.0
  0
SPLINE
  5
3b5
100
AcDbEntity
  8
Layer_1
 62
7
100
AcDbSpline
 70
8
 71
3
 72
8
 73
4
 74
0
 40
0
 40
0
 40
0
 40
0
 40
1
 40
1
 40
1
 40
1
 10
367.460192
 20
200.193874
 30
0.0
 10
367.460192
 20
199.186328
 30
0.0
 10
367.115509
 20
198.337871
 30
0.0
 10
366.426142
 20
197.648504
 30
0.0
  0
SPLINE
  5
3b6
100
AcDbEntity
  8
Layer_1
 62
7
100
AcDbSpline
 70
8
 71
3
 72
8
 73
4
 74
0
 40
0
 40
0
 40
0
 40
0
 40
1
 40
1
 40
1
 40
1
 10
366.426142
 20
197.648504
 30
0.0
 10
365.789802
 20
196.959137
 30
0.0
 10
364.967858
 20
196.614454
 30
0.0
 10
363.960312
 20
196.614454
 30
0.0
  0
SPLINE
  5
3b7
100
AcDbEntity
  8
Layer_1
 62
7
100
AcDbSpline
 70
8
 71
3
 72
8
 73
4
 74
0
 40
0
 40
0
 40
0
 40
0
 40
1
 40
1
 40
1
 40
1
 10
363.960312
 20
196.614454
 30
0.0
 10
362.952784
 20
196.614454
 30
0.0
 10
362.104337
 20
196.959137
 30
0.0
 10
361.414970
 20
197.648504
 30
0.0
  0
SPLINE
  5
3b8
100
AcDbEntity
  8
Layer_1
 62
7
100
AcDbSpline
 70
8
 71
3
 72
8
 73
4
 74
0
 40
0
 40
0
 40
0
 40
0
 40
1
 40
1
 40
1
 40
1
 10
361.414970
 20
197.648504
 30
0.0
 10
360.778630
 20
198.390898
 30
0.0
 10
360.460460
 20
199.265868
 30
0.0
 10
360.460460
 20
200.273414
 30
0.0
  0
LWPOLYLINE
  5
3b9
100
AcDbEntity
  8
Layer_1
 62
7
100
AcDbPolyline
 90
2
 70
0
 10
367.460192
 20
222.704362
 30
0.0
 10
367.460192
 20
200.193874
 30
0.0
  0
SPLINE
  5
3ba
100
AcDbEntity
  8
Layer_1
 62
7
100
AcDbSpline
 70
8
 71
3
 72
8
 73
4
 74
0
 40
0
 40
0
 40
0
 40
0
 40
1
 40
1
 40
1
 40
1
 10
360.460460
 20
248.237490
 30
0.0
 10
360.460460
 20
249.457124
 30
0.0
 10
360.858170
 20
250.464661
 30
0.0
 10
361.653591
 20
251.260101
 30
0.0
  0
SPLINE
  5
3bb
100
AcDbEntity
  8
Layer_1
 62
7
100
AcDbSpline
 70
8
 71
3
 72
8
 73
4
 74
0
 40
0
 40
0
 40
0
 40
0
 40
1
 40
1
 40
1
 40
1
 10
361.653591
 20
251.260101
 30
0.0
 10
362.449011
 20
252.055521
 30
0.0
 10
363.430035
 20
252.453232
 30
0.0
 10
364.596661
 20
252.453232
 30
0.0
  0
LWPOLYLINE
  5
3bc
100
AcDbEntity
  8
Layer_1
 62
7
100
AcDbPolyline
 90
2
 70
0
 10
360.460460
 20
200.273414
 30
0.0
 10
360.460460
 20
248.237490
 30
0.0
  0
LWPOLYLINE
  5
3bd
100
AcDbEntity
  8
Layer_1
 62
7
100
AcDbPolyline
 90
2
 70
0
 10
364.596661
 20
252.453232
 30
0.0
 10
388.857090
 20
252.453118
 30
0.0
  0
LWPOLYLINE
  5
3be
100
AcDbEntity
  8
Layer_1
 62
7
100
AcDbPolyline
 90
4
 70
1
 10
79.828081
 20
794.457626
 30
0.0
 10
523.386198
 20
794.457626
 30
0.0
 10
523.386198
 20
315.006661
 30
0.0
 10
79.828081
 20
315.006661
 30
0.0
  0
LWPOLYLINE
  5
3bf
100
AcDbEntity
  8
Layer_1
 62
7
100
AcDbPolyline
 90
4
 70
1
 10
28.392857
 20
282.857159
 30
0.0
 10
473.571411
 20
282.857159
 30
0.0
 10
473.571411
 20
163.928580
 30
0.0
 10
28.392857
 20
163.928580
 30
0.0
  0
ENDSEC
  0
SECTION
  2
OBJECTS
  0
DICTIONARY
  5
C
330
0
100
AcDbDictionary
  3
ACAD_GROUP
350
D
  3
ACAD_MLINESTYLE
350
17
  0
DICTIONARY
  5
D
330
C
100
AcDbDictionary
  0
DICTIONARY
  5
1A
330
C
100
AcDbDictionary
  0
DICTIONARY
  5
17
330
C
100
AcDbDictionary
  3
STANDARD
350
18
  0
DICTIONARY
  5
19
330
C
100
AcDbDictionary
  0
ENDSEC
  0
EOF
