  0
SECTION
  2
BLOCKS
  0
ENDSEC
  0
SECTION
  2
ENTITIES
  0
LINE
  8
0
 10
-10.1682
 20
0.627838
 11
-10.325
 21
0.562912
  0
LINE
  8
0
 10
-10.325
 20
0.562912
 11
-10.4596
 21
0.45961
  0
LINE
  8
0
 10
-10.4596
 20
0.45961
 11
-10.5629
 21
0.324997
  0
LINE
  8
0
 10
-10.5629
 20
0.324997
 11
-10.6278
 21
0.168228
  0
LINE
  8
0
 10
-10.6278
 20
0.168228
 11
-10.65
 21
0
  0
LINE
  8
0
 10
-10.65
 20
0
 11
-10.6278
 21
-0.168228
  0
LINE
  8
0
 10
-10.6278
 20
-0.168228
 11
-10.5629
 21
-0.324997
  0
LINE
  8
0
 10
-10.5629
 20
-0.324997
 11
-10.4596
 21
-0.45961
  0
LINE
  8
0
 10
-10.4596
 20
-0.45961
 11
-10.325
 21
-0.562912
  0
LINE
  8
0
 10
-10.325
 20
-0.562912
 11
-10.1682
 21
-0.627838
  0
LINE
  8
0
 10
-10.1682
 20
-0.627838
 11
-10
 21
-0.649994
  0
LINE
  8
0
 10
-10
 20
-0.649994
 11
60
 21
-0.649994
  0
LINE
  8
0
 10
60
 20
-0.649994
 11
60.1682
 21
-0.627838
  0
LINE
  8
0
 10
60.1682
 20
-0.627838
 11
60.325
 21
-0.562912
  0
LINE
  8
0
 10
60.325
 20
-0.562912
 11
60.4596
 21
-0.45961
  0
LINE
  8
0
 10
60.4596
 20
-0.45961
 11
60.5629
 21
-0.324997
  0
LINE
  8
0
 10
60.5629
 20
-0.324997
 11
60.6278
 21
-0.168228
  0
LINE
  8
0
 10
60.6278
 20
-0.168228
 11
60.65
 21
0
  0
LINE
  8
0
 10
60.65
 20
0
 11
60.65
 21
40
  0
LINE
  8
0
 10
60.65
 20
40
 11
60.6278
 21
40.1682
  0
LINE
  8
0
 10
60.6278
 20
40.1682
 11
60.5629
 21
40.325
  0
LINE
  8
0
 10
60.5629
 20
40.325
 11
60.4596
 21
40.4596
  0
LINE
  8
0
 10
60.4596
 20
40.4596
 11
60.325
 21
40.5629
  0
LINE
  8
0
 10
60.325
 20
40.5629
 11
60.1682
 21
40.6278
  0
LINE
  8
0
 10
60.1682
 20
40.6278
 11
60
 21
40.65
  0
LINE
  8
0
 10
60
 20
40.65
 11
0
 21
40.65
  0
LINE
  8
0
 10
0
 20
40.65
 11
-0.168228
 21
40.6278
  0
LINE
  8
0
 10
-0.168228
 20
40.6278
 11
-0.324997
 21
40.5629
  0
LINE
  8
0
 10
-0.324997
 20
40.5629
 11
-0.45961
 21
40.4596
  0
LINE
  8
0
 10
-0.45961
 20
40.4596
 11
-0.562912
 21
40.325
  0
LINE
  8
0
 10
-0.562912
 20
40.325
 11
-0.627838
 21
40.1682
  0
LINE
  8
0
 10
-0.627838
 20
40.1682
 11
-0.649994
 21
40
  0
LINE
  8
0
 10
-0.649994
 20
40
 11
-0.649994
 21
1.79999
  0
LINE
  8
0
 10
-0.649994
 20
1.79999
 11
-0.627838
 21
1.63176
  0
LINE
  8
0
 10
-0.627838
 20
1.63176
 11
-0.562912
 21
1.47499
  0
LINE
  8
0
 10
-0.562912
 20
1.47499
 11
-0.45961
 21
1.34038
  0
LINE
  8
0
 10
-0.45961
 20
1.34038
 11
-0.324997
 21
1.23708
  0
LINE
  8
0
 10
-0.324997
 20
1.23708
 11
-0.168228
 21
1.17213
  0
LINE
  8
0
 10
-0.168228
 20
1.17213
 11
0
 21
1.14999
  0
LINE
  8
0
 10
0
 20
1.14999
 11
58.2
 21
1.14999
  0
LINE
  8
0
 10
58.2
 20
1.14999
 11
58.3682
 21
1.17213
  0
LINE
  8
0
 10
58.3682
 20
1.17213
 11
58.525
 21
1.23708
  0
LINE
  8
0
 10
58.525
 20
1.23708
 11
58.6596
 21
1.34038
  0
LINE
  8
0
 10
58.6596
 20
1.34038
 11
58.7629
 21
1.47499
  0
LINE
  8
0
 10
58.7629
 20
1.47499
 11
58.8279
 21
1.63176
  0
LINE
  8
0
 10
58.8279
 20
1.63176
 11
58.85
 21
1.79999
  0
LINE
  8
0
 10
58.85
 20
1.79999
 11
58.85
 21
38.2
  0
LINE
  8
0
 10
58.85
 20
38.2
 11
58.8279
 21
38.3682
  0
LINE
  8
0
 10
58.8279
 20
38.3682
 11
58.7629
 21
38.525
  0
LINE
  8
0
 10
58.7629
 20
38.525
 11
58.6596
 21
38.6596
  0
LINE
  8
0
 10
58.6596
 20
38.6596
 11
58.525
 21
38.7629
  0
LINE
  8
0
 10
58.525
 20
38.7629
 11
58.3682
 21
38.8279
  0
LINE
  8
0
 10
58.3682
 20
38.8279
 11
58.2
 21
38.85
  0
LINE
  8
0
 10
58.2
 20
38.85
 11
1.79999
 21
38.85
  0
LINE
  8
0
 10
1.79999
 20
38.85
 11
1.63176
 21
38.8279
  0
LINE
  8
0
 10
1.63176
 20
38.8279
 11
1.47499
 21
38.7629
  0
LINE
  8
0
 10
1.47499
 20
38.7629
 11
1.34038
 21
38.6596
  0
LINE
  8
0
 10
1.34038
 20
38.6596
 11
1.23708
 21
38.525
  0
LINE
  8
0
 10
1.23708
 20
38.525
 11
1.17213
 21
38.3682
  0
LINE
  8
0
 10
1.17213
 20
38.3682
 11
1.14999
 21
38.2
  0
LINE
  8
0
 10
1.14999
 20
38.2
 11
1.14999
 21
3.59999
  0
LINE
  8
0
 10
1.14999
 20
3.59999
 11
1.17213
 21
3.43176
  0
LINE
  8
0
 10
1.17213
 20
3.43176
 11
1.23708
 21
3.27499
  0
LINE
  8
0
 10
1.23708
 20
3.27499
 11
1.34038
 21
3.14037
  0
LINE
  8
0
 10
1.34038
 20
3.14037
 11
1.47499
 21
3.03708
  0
LINE
  8
0
 10
1.47499
 20
3.03708
 11
1.63176
 21
2.97214
  0
LINE
  8
0
 10
1.63176
 20
2.97214
 11
1.79999
 21
2.95
  0
LINE
  8
0
 10
1.79999
 20
2.95
 11
56.4
 21
2.95
  0
LINE
  8
0
 10
56.4
 20
2.95
 11
56.5682
 21
2.97214
  0
LINE
  8
0
 10
56.5682
 20
2.97214
 11
56.725
 21
3.03708
  0
LINE
  8
0
 10
56.725
 20
3.03708
 11
56.8596
 21
3.14037
  0
LINE
  8
0
 10
56.8596
 20
3.14037
 11
56.9629
 21
3.27499
  0
LINE
  8
0
 10
56.9629
 20
3.27499
 11
57.0278
 21
3.43176
  0
LINE
  8
0
 10
57.0278
 20
3.43176
 11
57.05
 21
3.59999
  0
LINE
  8
0
 10
57.05
 20
3.59999
 11
57.05
 21
36.4
  0
LINE
  8
0
 10
57.05
 20
36.4
 11
57.0278
 21
36.5682
  0
LINE
  8
0
 10
57.0278
 20
36.5682
 11
56.9629
 21
36.725
  0
LINE
  8
0
 10
56.9629
 20
36.725
 11
56.8596
 21
36.8596
  0
LINE
  8
0
 10
56.8596
 20
36.8596
 11
56.725
 21
36.9629
  0
LINE
  8
0
 10
56.725
 20
36.9629
 11
56.5682
 21
37.0278
  0
LINE
  8
0
 10
56.5682
 20
37.0278
 11
56.4
 21
37.05
  0
LINE
  8
0
 10
56.4
 20
37.05
 11
3.59999
 21
37.05
  0
LINE
  8
0
 10
3.59999
 20
37.05
 11
3.43176
 21
37.0278
  0
LINE
  8
0
 10
3.43176
 20
37.0278
 11
3.27499
 21
36.9629
  0
LINE
  8
0
 10
3.27499
 20
36.9629
 11
3.14037
 21
36.8596
  0
LINE
  8
0
 10
3.14037
 20
36.8596
 11
3.03708
 21
36.725
  0
LINE
  8
0
 10
3.03708
 20
36.725
 11
2.97214
 21
36.5682
  0
LINE
  8
0
 10
2.97214
 20
36.5682
 11
2.95
 21
36.4
  0
LINE
  8
0
 10
2.95
 20
36.4
 11
2.95
 21
5.39999
  0
LINE
  8
0
 10
2.95
 20
5.39999
 11
2.97214
 21
5.23177
  0
LINE
  8
0
 10
2.97214
 20
5.23177
 11
3.03708
 21
5.075
  0
LINE
  8
0
 10
3.03708
 20
5.075
 11
3.14037
 21
4.94037
  0
LINE
  8
0
 10
3.14037
 20
4.94037
 11
3.27499
 21
4.83708
  0
LINE
  8
0
 10
3.27499
 20
4.83708
 11
3.43176
 21
4.77214
  0
LINE
  8
0
 10
3.43176
 20
4.77214
 11
3.59999
 21
4.75
  0
LINE
  8
0
 10
3.59999
 20
4.75
 11
54.6
 21
4.75
  0
LINE
  8
0
 10
54.6
 20
4.75
 11
54.7682
 21
4.77214
  0
LINE
  8
0
 10
54.7682
 20
4.77214
 11
54.925
 21
4.83708
  0
LINE
  8
0
 10
54.925
 20
4.83708
 11
55.0596
 21
4.94037
  0
LINE
  8
0
 10
55.0596
 20
4.94037
 11
55.1629
 21
5.075
  0
LINE
  8
0
 10
55.1629
 20
5.075
 11
55.2278
 21
5.23177
  0
LINE
  8
0
 10
55.2278
 20
5.23177
 11
55.25
 21
5.39999
  0
LINE
  8
0
 10
55.25
 20
5.39999
 11
55.25
 21
34.6
  0
LINE
  8
0
 10
55.25
 20
34.6
 11
55.2278
 21
34.7682
  0
LINE
  8
0
 10
55.2278
 20
34.7682
 11
55.1629
 21
34.925
  0
LINE
  8
0
 10
55.1629
 20
34.925
 11
55.0596
 21
35.0596
  0
LINE
  8
0
 10
55.0596
 20
35.0596
 11
54.925
 21
35.1629
  0
LINE
  8
0
 10
54.925
 20
35.1629
 11
54.7682
 21
35.2278
  0
LINE
  8
0
 10
54.7682
 20
35.2278
 11
54.6
 21
35.25
  0
LINE
  8
0
 10
54.6
 20
35.25
 11
5.39999
 21
35.25
  0
LINE
  8
0
 10
5.39999
 20
35.25
 11
5.23177
 21
35.2278
  0
LINE
  8
0
 10
5.23177
 20
35.2278
 11
5.075
 21
35.1629
  0
LINE
  8
0
 10
5.075
 20
35.1629
 11
4.94037
 21
35.0596
  0
LINE
  8
0
 10
4.94037
 20
35.0596
 11
4.83708
 21
34.925
  0
LINE
  8
0
 10
4.83708
 20
34.925
 11
4.77214
 21
34.7682
  0
LINE
  8
0
 10
4.77214
 20
34.7682
 11
4.75
 21
34.6
  0
LINE
  8
0
 10
4.75
 20
34.6
 11
4.75
 21
7.2
  0
LINE
  8
0
 10
4.75
 20
7.2
 11
4.77214
 21
7.03175
  0
LINE
  8
0
 10
4.77214
 20
7.03175
 11
4.83708
 21
6.875
  0
LINE
  8
0
 10
4.83708
 20
6.875
 11
4.94037
 21
6.74037
  0
LINE
  8
0
 10
4.94037
 20
6.74037
 11
5.075
 21
6.63707
  0
LINE
  8
0
 10
5.075
 20
6.63707
 11
5.23177
 21
6.57214
  0
LINE
  8
0
 10
5.23177
 20
6.57214
 11
5.39999
 21
6.54999
  0
LINE
  8
0
 10
5.39999
 20
6.54999
 11
52.8
 21
6.54999
  0
LINE
  8
0
 10
52.8
 20
6.54999
 11
52.9682
 21
6.57214
  0
LINE
  8
0
 10
52.9682
 20
6.57214
 11
53.125
 21
6.63707
  0
LINE
  8
0
 10
53.125
 20
6.63707
 11
53.2596
 21
6.74037
  0
LINE
  8
0
 10
53.2596
 20
6.74037
 11
53.3629
 21
6.875
  0
LINE
  8
0
 10
53.3629
 20
6.875
 11
53.4278
 21
7.03175
  0
LINE
  8
0
 10
53.4278
 20
7.03175
 11
53.45
 21
7.2
  0
LINE
  8
0
 10
53.45
 20
7.2
 11
53.45
 21
32.8
  0
LINE
  8
0
 10
53.45
 20
32.8
 11
53.4278
 21
32.9682
  0
LINE
  8
0
 10
53.4278
 20
32.9682
 11
53.3629
 21
33.125
  0
LINE
  8
0
 10
53.3629
 20
33.125
 11
53.2596
 21
33.2596
  0
LINE
  8
0
 10
53.2596
 20
33.2596
 11
53.125
 21
33.3629
  0
LINE
  8
0
 10
53.125
 20
33.3629
 11
52.9682
 21
33.4278
  0
LINE
  8
0
 10
52.9682
 20
33.4278
 11
52.8
 21
33.45
  0
LINE
  8
0
 10
52.8
 20
33.45
 11
7.2
 21
33.45
  0
LINE
  8
0
 10
7.2
 20
33.45
 11
7.03175
 21
33.4278
  0
LINE
  8
0
 10
7.03175
 20
33.4278
 11
6.875
 21
33.3629
  0
LINE
  8
0
 10
6.875
 20
33.3629
 11
6.74037
 21
33.2596
  0
LINE
  8
0
 10
6.74037
 20
33.2596
 11
6.63707
 21
33.125
  0
LINE
  8
0
 10
6.63707
 20
33.125
 11
6.57214
 21
32.9682
  0
LINE
  8
0
 10
6.57214
 20
32.9682
 11
6.54999
 21
32.8
  0
LINE
  8
0
 10
6.54999
 20
32.8
 11
6.54999
 21
9
  0
LINE
  8
0
 10
6.54999
 20
9
 11
6.57214
 21
8.83176
  0
LINE
  8
0
 10
6.57214
 20
8.83176
 11
6.63707
 21
8.67499
  0
LINE
  8
0
 10
6.63707
 20
8.67499
 11
6.74037
 21
8.54037
  0
LINE
  8
0
 10
6.74037
 20
8.54037
 11
6.875
 21
8.43707
  0
LINE
  8
0
 10
6.875
 20
8.43707
 11
7.03175
 21
8.37215
  0
LINE
  8
0
 10
7.03175
 20
8.37215
 11
7.2
 21
8.34999
  0
LINE
  8
0
 10
7.2
 20
8.34999
 11
51
 21
8.34999
  0
LINE
  8
0
 10
51
 20
8.34999
 11
51.1682
 21
8.37215
  0
LINE
  8
0
 10
51.1682
 20
8.37215
 11
51.325
 21
8.43707
  0
LINE
  8
0
 10
51.325
 20
8.43707
 11
51.4596
 21
8.54037
  0
LINE
  8
0
 10
51.4596
 20
8.54037
 11
51.5629
 21
8.67499
  0
LINE
  8
0
 10
51.5629
 20
8.67499
 11
51.6278
 21
8.83176
  0
LINE
  8
0
 10
51.6278
 20
8.83176
 11
51.65
 21
9
  0
LINE
  8
0
 10
51.65
 20
9
 11
51.65
 21
31
  0
LINE
  8
0
 10
51.65
 20
31
 11
51.6278
 21
31.1682
  0
LINE
  8
0
 10
51.6278
 20
31.1682
 11
51.5629
 21
31.325
  0
LINE
  8
0
 10
51.5629
 20
31.325
 11
51.4596
 21
31.4596
  0
LINE
  8
0
 10
51.4596
 20
31.4596
 11
51.325
 21
31.5629
  0
LINE
  8
0
 10
51.325
 20
31.5629
 11
51.1682
 21
31.6278
  0
LINE
  8
0
 10
51.1682
 20
31.6278
 11
51
 21
31.65
  0
LINE
  8
0
 10
51
 20
31.65
 11
9
 21
31.65
  0
LINE
  8
0
 10
9
 20
31.65
 11
8.83176
 21
31.6278
  0
LINE
  8
0
 10
8.83176
 20
31.6278
 11
8.67499
 21
31.5629
  0
LINE
  8
0
 10
8.67499
 20
31.5629
 11
8.54037
 21
31.4596
  0
LINE
  8
0
 10
8.54037
 20
31.4596
 11
8.43707
 21
31.325
  0
LINE
  8
0
 10
8.43707
 20
31.325
 11
8.37215
 21
31.1682
  0
LINE
  8
0
 10
8.37215
 20
31.1682
 11
8.34999
 21
31
  0
LINE
  8
0
 10
8.34999
 20
31
 11
8.34999
 21
11.7
  0
LINE
  8
0
 10
8.34999
 20
11.7
 11
8.37215
 21
11.5318
  0
LINE
  8
0
 10
8.37215
 20
11.5318
 11
8.43707
 21
11.375
  0
LINE
  8
0
 10
8.43707
 20
11.375
 11
8.54037
 21
11.2404
  0
LINE
  8
0
 10
8.54037
 20
11.2404
 11
8.67499
 21
11.1371
  0
LINE
  8
0
 10
8.67499
 20
11.1371
 11
8.83176
 21
11.0721
  0
LINE
  8
0
 10
8.83176
 20
11.0721
 11
9
 21
11.05
  0
LINE
  8
0
 10
9
 20
11.05
 11
9.16823
 21
11.0721
  0
LINE
  8
0
 10
9.16823
 20
11.0721
 11
9.325
 21
11.1371
  0
LINE
  8
0
 10
9.325
 20
11.1371
 11
9.45961
 21
11.2404
  0
LINE
  8
0
 10
9.45961
 20
11.2404
 11
9.56291
 21
11.375
  0
LINE
  8
0
 10
9.56291
 20
11.375
 11
9.62784
 21
11.5318
  0
LINE
  8
0
 10
9.62784
 20
11.5318
 11
9.64999
 21
11.7
  0
LINE
  8
0
 10
9.64999
 20
11.7
 11
9.64999
 21
30.35
  0
LINE
  8
0
 10
9.64999
 20
30.35
 11
50.35
 21
30.35
  0
LINE
  8
0
 10
50.35
 20
30.35
 11
50.35
 21
9.64999
  0
LINE
  8
0
 10
50.35
 20
9.64999
 11
7.84999
 21
9.64999
  0
LINE
  8
0
 10
7.84999
 20
9.64999
 11
7.84999
 21
32.15
  0
LINE
  8
0
 10
7.84999
 20
32.15
 11
52.15
 21
32.15
  0
LINE
  8
0
 10
52.15
 20
32.15
 11
52.15
 21
7.84999
  0
LINE
  8
0
 10
52.15
 20
7.84999
 11
6.04999
 21
7.84999
  0
LINE
  8
0
 10
6.04999
 20
7.84999
 11
6.04999
 21
33.95
  0
LINE
  8
0
 10
6.04999
 20
33.95
 11
53.95
 21
33.95
  0
LINE
  8
0
 10
53.95
 20
33.95
 11
53.95
 21
6.04999
  0
LINE
  8
0
 10
53.95
 20
6.04999
 11
4.25
 21
6.04999
  0
LINE
  8
0
 10
4.25
 20
6.04999
 11
4.25
 21
35.75
  0
LINE
  8
0
 10
4.25
 20
35.75
 11
55.75
 21
35.75
  0
LINE
  8
0
 10
55.75
 20
35.75
 11
55.75
 21
4.25
  0
LINE
  8
0
 10
55.75
 20
4.25
 11
2.45
 21
4.25
  0
LINE
  8
0
 10
2.45
 20
4.25
 11
2.45
 21
37.55
  0
LINE
  8
0
 10
2.45
 20
37.55
 11
57.55
 21
37.55
  0
LINE
  8
0
 10
57.55
 20
37.55
 11
57.55
 21
2.45
  0
LINE
  8
0
 10
57.55
 20
2.45
 11
0.649994
 21
2.45
  0
LINE
  8
0
 10
0.649994
 20
2.45
 11
0.649994
 21
39.35
  0
LINE
  8
0
 10
0.649994
 20
39.35
 11
59.35
 21
39.35
  0
LINE
  8
0
 10
59.35
 20
39.35
 11
59.35
 21
0.649994
  0
LINE
  8
0
 10
59.35
 20
0.649994
 11
-10
 21
0.649994
  0
LINE
  8
0
 10
-10
 20
0.649994
 11
-10.1682
 21
0.627838
  0
LINE
  8
0
 10
-1.99176
 20
1.53214
 11
-1.83499
 21
1.59708
  0
LINE
  8
0
 10
-1.83499
 20
1.59708
 11
-1.70038
 21
1.70038
  0
LINE
  8
0
 10
-1.70038
 20
1.70038
 11
-1.59708
 21
1.83499
  0
LINE
  8
0
 10
-1.59708
 20
1.83499
 11
-1.53214
 21
1.99176
  0
LINE
  8
0
 10
-1.53214
 20
1.99176
 11
-1.50999
 21
2.15999
  0
LINE
  8
0
 10
-1.50999
 20
2.15999
 11
-1.53214
 21
2.32823
  0
LINE
  8
0
 10
-1.53214
 20
2.32823
 11
-1.59708
 21
2.48499
  0
LINE
  8
0
 10
-1.59708
 20
2.48499
 11
-1.70038
 21
2.61961
  0
LINE
  8
0
 10
-1.70038
 20
2.61961
 11
-1.83499
 21
2.72292
  0
LINE
  8
0
 10
-1.83499
 20
2.72292
 11
-1.99176
 21
2.78784
  0
LINE
  8
0
 10
-1.99176
 20
2.78784
 11
-2.15999
 21
2.81
  0
LINE
  8
0
 10
-2.15999
 20
2.81
 11
-10
 21
2.81
  0
LINE
  8
0
 10
-10
 20
2.81
 11
-10.1682
 21
2.78784
  0
LINE
  8
0
 10
-10.1682
 20
2.78784
 11
-10.325
 21
2.72292
  0
LINE
  8
0
 10
-10.325
 20
2.72292
 11
-10.4596
 21
2.61961
  0
LINE
  8
0
 10
-10.4596
 20
2.61961
 11
-10.5629
 21
2.48499
  0
LINE
  8
0
 10
-10.5629
 20
2.48499
 11
-10.6278
 21
2.32823
  0
LINE
  8
0
 10
-10.6278
 20
2.32823
 11
-10.65
 21
2.15999
  0
LINE
  8
0
 10
-10.65
 20
2.15999
 11
-10.6278
 21
1.99176
  0
LINE
  8
0
 10
-10.6278
 20
1.99176
 11
-10.5629
 21
1.83499
  0
LINE
  8
0
 10
-10.5629
 20
1.83499
 11
-10.4596
 21
1.70038
  0
LINE
  8
0
 10
-10.4596
 20
1.70038
 11
-10.325
 21
1.59708
  0
LINE
  8
0
 10
-10.325
 20
1.59708
 11
-10.1682
 21
1.53214
  0
LINE
  8
0
 10
-10.1682
 20
1.53214
 11
-10
 21
1.50999
  0
LINE
  8
0
 10
-10
 20
1.50999
 11
-2.15999
 21
1.50999
  0
LINE
  8
0
 10
-2.15999
 20
1.50999
 11
-1.99176
 21
1.53214
  0
ENDSEC
  0
SECTION
  2
OBJECTS
  0
DICTIONARY
  0
ENDSEC
  0
EOF
