0
SECTION
2
HEADER
9
$INSUNITS
70
4
9
$ACADVER
1
AC1014
9
$HANDSEED
5
FFFF
0
ENDSEC
0
SECTION
2
TABLES
0
TABLE
2
VPORT
5
8
100
AcDbSymbolTable
0
ENDTAB
0
TABLE
2
LTYPE
5
5
100
AcDbSymbolTable
0
LTYPE
5
14
100
AcDbSymbolTableRecord
100
AcDbLinetypeTableRecord
2
BYBLOCK
70
0
0
LTYPE
5
15
100
AcDbSymbolTableRecord
100
AcDbLinetypeTableRecord
2
BYLAYER
70
0
0
ENDTAB
0
TABLE
2
LAYER
5
2
100
AcDbSymbolTable
70
2
0
LAYER
5
50
100
AcDbSymbolTableRecord
100
AcDbLayerTableRecord
2
0
70
0
6
CONTINUOUS
0
ENDTAB
0
TABLE
2
STYLE
5
3
100
AcDbSymbolTable
70
1
0
STYLE
5
11
100
AcDbSymbolTableRecord
100
AcDbTextStyleTableRecord
2
STANDARD
70
0
0
ENDTAB
0
TABLE
2
VIEW
5
6
100
AcDbSymbolTable
70
0
0
ENDTAB
0
TABLE
2
UCS
5
7
100
AcDbSymbolTable
70
0
0
ENDTAB
0
TABLE
2
APPID
5
9
100
AcDbSymbolTable
70
2
0
APPID
5
12
100
AcDbSymbolTableRecord
100
AcDbRegAppTableRecord
2
ACAD
70
0
0
ENDTAB
0
TABLE
2
DIMSTYLE
5
A
100
AcDbSymbolTable
70
1
0
ENDTAB
0
TABLE
2
BLOCK_RECORD
5
1
100
AcDbSymbolTable
70
1
0
BLOCK_RECORD
5
1F
100
AcDbSymbolTableRecord
100
AcDbBlockTableRecord
2
*MODEL_SPACE
0
BLOCK_RECORD
5
1B
100
AcDbSymbolTableRecord
100
AcDbBlockTableRecord
2
*PAPER_SPACE
0
ENDTAB
0
ENDSEC
0
SECTION
2
BLOCKS
0
BLOCK
5
20
100
AcDbEntity
100
AcDbBlockBegin
2
*MODEL_SPACE
0
ENDBLK
5
21
100
AcDbEntity
100
AcDbBlockEnd
0
BLOCK
5
1C
100
AcDbEntity
100
AcDbBlockBegin
2
*PAPER_SPACE
0
ENDBLK
5
1D
100
AcDbEntity
100
AcDbBlockEnd
0
ENDSEC
0
SECTION
2
ENTITIES
0
LWPOLYLINE
5
100
100
AcDbEntity
8
0
100
AcDbPolyline
90
4
70
1
43
0.0
10
-1503.952282216226
20
-577.15043217289929
10
-1253.952282216226
20
-577.15043217289929
10
-1253.952282216226
20
-827.15043217289917
10
-1503.952282216226
20
-827.15043217289917
0
LWPOLYLINE
5
101
100
AcDbEntity
8
0
100
AcDbPolyline
90
4
70
1
43
0.0
10
-587.10855264663405
20
-1191.8064787370756
10
-687.10855264663383
20
-1191.8064787370758
10
-687.10855264663383
20
-1179.8064787370756
10
-587.10855264663383
20
-1179.8064787370756
0
LINE
5
102
100
AcDbEntity
8
0
100
AcDbLine
10
-1326.5088301870594
20
-1329.8077192585558
30
0
11
-1263.670830187973
21
-1329.8073803687473
31
0
0
LINE
5
103
100
AcDbEntity
8
0
100
AcDbLine
10
-940.27203606341345
20
-956.23470747415126
30
0
11
-907.58863253304185
21
-1329.8077192585558
31
0
0
LINE
5
104
100
AcDbEntity
8
0
100
AcDbLine
10
-1293.8254266566878
20
-956.23470747415126
30
0
11
-1167.0487313600484
21
-956.23470747415604
31
0
0
LINE
5
105
100
AcDbEntity
8
0
100
AcDbLine
10
-970.42683019223773
20
-1329.8057988829742
30
0
11
-993.3052126634982
21
-1068.3046906338909
31
0
0
LINE
5
106
100
AcDbEntity
8
0
100
AcDbLine
10
-1293.8254266566878
20
-956.23470747415126
30
0
11
-1326.5088301870594
21
-1329.8077192585558
31
0
0
LINE
5
107
100
AcDbEntity
8
0
100
AcDbLine
10
-1326.5088301870594
20
-1329.8077192585558
30
0
11
-1263.670830187973
21
-1329.8073803687473
31
0
0
LINE
5
108
100
AcDbEntity
8
0
100
AcDbLine
10
-1263.670830187973
20
-1329.8073803687473
30
0
11
-1240.7924477167126
21
-1068.3062721196641
31
0
0
LINE
5
109
100
AcDbEntity
8
0
100
AcDbLine
10
-970.42683019223773
20
-1329.8057988829742
30
0
11
-907.58883019315135
21
-1329.8054599931656
31
0
0
LINE
5
110
100
AcDbEntity
8
0
100
AcDbLine
10
-1167.0487313600484
20
-956.23470747415604
30
0
11
-1167.0487313600484
21
-944.23470747415604
31
0
0
LINE
5
111
100
AcDbEntity
8
0
100
AcDbLine
10
-1067.0487313600506
20
-956.23470747415115
30
0
11
-940.27203606341345
21
-956.23470747415126
31
0
0
LINE
5
112
100
AcDbEntity
8
0
100
AcDbLine
10
-1067.0487313600506
20
-944.23470747415104
30
0
11
-1067.0487313600506
21
-956.23470747415115
31
0
0
LINE
5
113
100
AcDbEntity
8
0
100
AcDbLine
10
-1240.7924477167126
20
-1068.3062721196641
30
0
11
-993.3052126634982
21
-1068.3046906338909
31
0
0
LWPOLYLINE
5
114
100
AcDbEntity
8
0
100
AcDbPolyline
90
8
70
1
43
0.0
10
-591.72873283970921
20
-1107.1161360984247
10
-591.72873283970921
20
-1095.1161360984245
10
-691.72873283970478
20
-1095.1161360984306
10
-691.72873283970478
20
-1107.1161360984306
10
-703.95857445254421
20
-1107.1161360984265
10
-703.95857445254421
20
-1122.802996664087
10
-575.27806159902661
20
-1122.802996664087
10
-575.27806159902661
20
-1107.1161360984247
0
LWPOLYLINE
5
115
100
AcDbEntity
8
0
100
AcDbPolyline
90
4
70
1
43
0.0
10
-687.10855264663383
20
-1209.8064787370756
10
-587.10855264663383
20
-1209.8064787370756
10
-587.10855264663383
20
-1222.0064787370757
10
-687.10855264663383
20
-1222.0064787370757
0
LWPOLYLINE
5
116
100
AcDbEntity
8
0
100
AcDbPolyline
90
4
70
1
43
0.0
10
-687.10855264663383
20
-1239.8064787370756
10
-587.10855264663383
20
-1239.8064787370756
10
-587.10855264663383
20
-1252.2064787370757
10
-687.10855264663383
20
-1252.2064787370757
0
LWPOLYLINE
5
117
100
AcDbEntity
8
0
100
AcDbPolyline
90
4
70
1
43
0.0
10
-571.3615769434407
20
-1140.7690480128863
10
-704.22846349390306
20
-1140.7690480128863
10
-704.22846349390306
20
-1287.2633075428835
10
-571.3615769434407
20
-1287.2633075428835
0
CIRCLE
5
118
100
AcDbEntity
8
0
100
AcDbCircle
10
-651.28109295288425
20
-1152.1632843114012
30
0
40
5.2295141201435049
210
0
220
0
230
1
0
LWPOLYLINE
5
119
100
AcDbEntity
8
0
100
AcDbPolyline
90
12
70
1
43
0.0
10
-1339.2835917916605
20
-671.10844447880993
10
-1347.9102945221366
20
-662.48174174833412
10
-1378.952282216226
20
-693.52372944242347
10
-1409.9942699103156
20
-662.48174174833389
10
-1418.6209726407913
20
-671.10844447880993
10
-1387.5789849467019
20
-702.1504321728994
10
-1418.6209726407913
20
-733.19241986698876
10
-1409.9942699103153
20
-741.81912259746468
10
-1378.952282216226
20
-710.77713490337533
10
-1347.9102945221366
20
-741.81912259746468
10
-1339.2835917916609
20
-733.19241986698876
10
-1370.32557948575
20
-702.1504321728994
0
LINE
5
120
100
AcDbEntity
8
0
100
AcDbLine
10
-1110.9486709190214
20
-1006.2708527029586
30
0
11
-1110.9486709190214
21
-944.23470747415104
31
0
0
LINE
5
121
100
AcDbEntity
8
0
100
AcDbLine
10
-1110.9486709190214
20
-944.23470747415104
30
0
11
-1067.0487313600506
21
-944.23470747415104
31
0
0
LINE
5
122
100
AcDbEntity
8
0
100
AcDbLine
10
-1123.1486709190215
20
-1006.2708527029586
30
0
11
-1123.1486709190215
21
-944.23470747415104
31
0
0
LINE
5
123
100
AcDbEntity
8
0
100
AcDbLine
10
-1123.1486709190215
20
-944.23470747415104
30
0
11
-1167.0487313600484
21
-944.23470747415604
31
0
0
LINE
5
124
100
AcDbEntity
8
0
100
AcDbLine
10
-1123.1486709190215
20
-1006.2708527029586
30
0
11
-1110.9486709190214
21
-1006.2708527029586
31
0
0
LINE
5
125
100
AcDbEntity
8
0
100
AcDbLine
10
-1793.8254266566878
20
-956.23470747415126
30
0
11
-1826.5088301870594
21
-1329.8077192585558
31
0
0
LINE
5
126
100
AcDbEntity
8
0
100
AcDbLine
10
-1567.0487313600506
20
-944.23470747415104
30
0
11
-1567.0487313600506
21
-956.23470747415115
31
0
0
LINE
5
127
100
AcDbEntity
8
0
100
AcDbLine
10
-1567.0487313600506
20
-956.23470747415115
30
0
11
-1440.2720360634135
21
-956.23470747415126
31
0
0
LINE
5
128
100
AcDbEntity
8
0
100
AcDbLine
10
-1470.4268301922377
20
-1329.8057988829742
30
0
11
-1493.3052126634982
21
-1068.3046906338909
31
0
0
LINE
5
129
100
AcDbEntity
8
0
100
AcDbLine
10
-1826.5088301870594
20
-1329.8077192585558
30
0
11
-1763.670830187973
21
-1329.8073803687473
31
0
0
LINE
5
130
100
AcDbEntity
8
0
100
AcDbLine
10
-1763.670830187973
20
-1329.8073803687473
30
0
11
-1740.7924477167126
21
-1068.3062721196641
31
0
0
LINE
5
131
100
AcDbEntity
8
0
100
AcDbLine
10
-1440.2720360634135
20
-956.23470747415126
30
0
11
-1407.5886325330418
21
-1329.8077192585558
31
0
0
LINE
5
132
100
AcDbEntity
8
0
100
AcDbLine
10
-1667.0487313600847
20
-956.23470747411159
30
0
11
-1667.0487313600845
21
-944.23470747411159
31
0
0
LINE
5
133
100
AcDbEntity
8
0
100
AcDbLine
10
-1470.4268301922377
20
-1329.8057988829742
30
0
11
-1407.5888301931514
21
-1329.8054599931656
31
0
0
LINE
5
134
100
AcDbEntity
8
0
100
AcDbLine
10
-1793.8254266566878
20
-956.23470747415126
30
0
11
-1667.0487313600847
21
-956.23470747411159
31
0
0
LINE
5
135
100
AcDbEntity
8
0
100
AcDbLine
10
-1623.1486709190217
20
-1006.2708527029586
30
0
11
-1610.9486709190214
21
-1006.2708527029586
31
0
0
LINE
5
136
100
AcDbEntity
8
0
100
AcDbLine
10
-1826.5088301870594
20
-1329.8077192585558
30
0
11
-1763.670830187973
21
-1329.8073803687473
31
0
0
LINE
5
137
100
AcDbEntity
8
0
100
AcDbLine
10
-1623.1486709190217
20
-1006.2708527029586
30
0
11
-1623.1482745068822
21
-1068.3055203532704
31
0
0
LINE
5
138
100
AcDbEntity
8
0
100
AcDbLine
10
-1610.9486709190214
20
-1006.2708527029586
30
0
11
-1610.9482745073799
21
-1068.3054423931831
31
0
0
LINE
5
139
100
AcDbEntity
8
0
100
AcDbLine
10
-1740.7924477167126
20
-1068.3062721196641
30
0
11
-1623.1482745068822
21
-1068.3055203532704
31
0
0
LINE
5
140
100
AcDbEntity
8
0
100
AcDbLine
10
-1610.9482745073799
20
-1068.3054423931831
30
0
11
-1493.3052126634982
21
-1068.3046906338909
31
0
0
LINE
5
141
100
AcDbEntity
8
0
100
AcDbLine
10
-1667.0487313600845
20
-944.23470747411159
30
0
11
-1567.0487313600506
21
-944.23470747415104
31
0
0
LWPOLYLINE
5
142
100
AcDbEntity
8
0
100
AcDbPolyline
90
4
70
1
43
0.0
10
-575.43849444732257
20
-1077.666646287428
10
-702.83107257232246
20
-1077.6666462874282
10
-702.83107257232246
20
-1027.6666462874284
10
-575.43849444732257
20
-1027.6666462874282
0
ENDSEC
0
SECTION
2
OBJECTS
0
DICTIONARY
5
C
100
AcDbDictionary
3
ACAD_GROUP
350
D
3
ACAD_MLINESTYLE
350
17
0
DICTIONARY
5
D
100
AcDbDictionary
0
DICTIONARY
5
1A
330
C
100
AcDbDictionary
0
DICTIONARY
5
17
100
AcDbDictionary
0
ENDSEC
0
EOF
