0
SECTION
2
HEADER
9
$INSUNITS
70
4
9
$ACADVER
1
AC1014
9
$HANDSEED
5
FFFF
0
ENDSEC
0
SECTION
2
TABLES
0
TABLE
2
VPORT
5
8
100
AcDbSymbolTable
0
ENDTAB
0
TABLE
2
LTYPE
5
5
100
AcDbSymbolTable
0
LTYPE
5
14
100
AcDbSymbolTableRecord
100
AcDbLinetypeTableRecord
2
BYBLOCK
70
0
0
LTYPE
5
15
100
AcDbSymbolTableRecord
100
AcDbLinetypeTableRecord
2
BYLAYER
70
0
0
ENDTAB
0
TABLE
2
LAYER
5
2
100
AcDbSymbolTable
70
2
0
LAYER
5
50
100
AcDbSymbolTableRecord
100
AcDbLayerTableRecord
2
0
70
0
6
CONTINUOUS
0
ENDTAB
0
TABLE
2
STYLE
5
3
100
AcDbSymbolTable
70
1
0
STYLE
5
11
100
AcDbSymbolTableRecord
100
AcDbTextStyleTableRecord
2
STANDARD
70
0
0
ENDTAB
0
TABLE
2
VIEW
5
6
100
AcDbSymbolTable
70
0
0
ENDTAB
0
TABLE
2
UCS
5
7
100
AcDbSymbolTable
70
0
0
ENDTAB
0
TABLE
2
APPID
5
9
100
AcDbSymbolTable
70
2
0
APPID
5
12
100
AcDbSymbolTableRecord
100
AcDbRegAppTableRecord
2
ACAD
70
0
0
ENDTAB
0
TABLE
2
DIMSTYLE
5
A
100
AcDbSymbolTable
70
1
0
ENDTAB
0
TABLE
2
BLOCK_RECORD
5
1
100
AcDbSymbolTable
70
1
0
BLOCK_RECORD
5
1F
100
AcDbSymbolTableRecord
100
AcDbBlockTableRecord
2
*MODEL_SPACE
0
BLOCK_RECORD
5
1B
100
AcDbSymbolTableRecord
100
AcDbBlockTableRecord
2
*PAPER_SPACE
0
ENDTAB
0
ENDSEC
0
SECTION
2
BLOCKS
0
BLOCK
5
20
100
AcDbEntity
100
AcDbBlockBegin
2
*MODEL_SPACE
0
ENDBLK
5
21
100
AcDbEntity
100
AcDbBlockEnd
0
BLOCK
5
1C
100
AcDbEntity
100
AcDbBlockBegin
2
*PAPER_SPACE
0
ENDBLK
5
1D
100
AcDbEntity
100
AcDbBlockEnd
0
ENDSEC
0
SECTION
2
ENTITIES
0
LINE
5
100
100
AcDbEntity
8
0
100
AcDbLine
10
79.718109587584095
20
27.02177224687734
30
0
11
102.71809268328849
21
27.041490221257046
31
0
0
LINE
5
101
100
AcDbEntity
8
0
100
AcDbLine
10
79.642938846068532
20
114.7045050907463
30
0
11
102.64292194177477
21
114.72422306294521
31
0
0
LINE
5
102
100
AcDbEntity
8
0
100
AcDbLine
10
79.642938846068532
20
114.7045050907463
30
0
11
56.642955750362283
21
114.68478711854736
31
0
0
LINE
5
103
100
AcDbEntity
8
0
100
AcDbLine
10
122.99745421471243
20
70.900274442328865
30
0
11
123.01717219742858
21
47.900282894479162
31
0
0
LINE
5
104
100
AcDbEntity
8
0
100
AcDbLine
10
122.99745421471243
20
70.900274442328865
30
0
11
122.97773623633444
21
93.900260929949553
31
0
0
LINE
5
105
100
AcDbEntity
8
0
100
AcDbLine
10
36.38331219531517
20
47.826011351546768
30
0
11
36.343876238582581
21
93.825989387020897
31
0
0
LINE
5
106
100
AcDbEntity
8
0
100
AcDbLine
10
56.71812649187973
20
27.002054272497631
30
0
11
79.718109587584095
21
27.02177224687734
31
0
0
LINE
5
107
100
AcDbEntity
8
0
100
AcDbLine
10
35.269174367098223
20
34.473439250140984
30
0
11
43.679334932605272
21
25.976299068186293
31
0
0
LINE
5
108
100
AcDbEntity
8
0
100
AcDbLine
10
124.091874062394
20
107.25283809158624
30
0
11
115.68171349688697
21
115.74997827354093
31
0
0
LINE
5
109
100
AcDbEntity
8
0
100
AcDbLine
10
43.290824794023507
20
115.2744885185115
30
0
11
34.793684612068816
21
106.86432795300446
31
0
0
LINE
5
110
100
AcDbEntity
8
0
100
AcDbLine
10
36.38331219531517
20
47.826011351546768
30
0
11
41.815228613996851
21
42.263433168636112
31
0
0
LINE
5
111
100
AcDbEntity
8
0
100
AcDbLine
10
51.565052344062892
20
32.279082786961339
30
0
11
56.71812649187973
21
27.002054272497631
31
0
0
LINE
5
112
100
AcDbEntity
8
0
100
AcDbLine
10
102.71809268328849
20
27.041490221257046
30
0
11
108.39762391199208
21
32.877625022251109
31
0
0
LINE
5
113
100
AcDbEntity
8
0
100
AcDbLine
10
118.13014022429516
20
42.878499190248192
30
0
11
123.01717219742858
21
47.900282894479162
31
0
0
LINE
5
114
100
AcDbEntity
8
0
100
AcDbLine
10
102.64292194177477
20
114.72422306294521
30
0
11
107.79599608542935
21
109.44719455476587
31
0
0
LINE
5
115
100
AcDbEntity
8
0
100
AcDbLine
10
117.54581981549538
20
99.462844173091128
30
0
11
122.97773623633444
21
93.900260929949553
31
0
0
LINE
5
116
100
AcDbEntity
8
0
100
AcDbLine
10
36.343876238582581
20
93.825989387020897
30
0
11
41.230910144624751
21
98.847776295835672
31
0
0
LINE
5
117
100
AcDbEntity
8
0
100
AcDbLine
10
50.963425210681628
20
108.84865160962056
30
0
11
56.642955750362283
21
114.68478711854736
31
0
0
CIRCLE
5
118
100
AcDbEntity
8
0
100
AcDbCircle
10
46.706896180173352
20
108.55902617442413
30
0
40
1
210
0
220
0
230
1
0
CIRCLE
5
119
100
AcDbEntity
8
0
100
AcDbCircle
10
112.74699426463965
20
33.011267349843216
30
0
40
1
210
0
220
0
230
1
0
CIRCLE
5
120
100
AcDbEntity
8
0
100
AcDbCircle
10
117.69674173294547
20
37.961014818149046
30
0
40
1.0000000000000004
210
0
220
0
230
1
0
CIRCLE
5
121
100
AcDbEntity
8
0
100
AcDbCircle
10
41.757148711867522
20
103.60927870611832
30
0
40
1.0000000000000004
210
0
220
0
230
1
0
CIRCLE
5
122
100
AcDbEntity
8
0
100
AcDbCircle
10
117.50082463469695
20
103.80519580436683
30
0
40
1
210
0
220
0
230
1
0
CIRCLE
5
123
100
AcDbEntity
8
0
100
AcDbCircle
10
41.953065810116037
20
37.765097719900531
30
0
40
1
210
0
220
0
230
1
0
CIRCLE
5
124
100
AcDbEntity
8
0
100
AcDbCircle
10
112.55107716639114
20
108.75494327267268
30
0
40
1.0000000000000004
210
0
220
0
230
1
0
CIRCLE
5
125
100
AcDbEntity
8
0
100
AcDbCircle
10
46.902813278421867
20
32.815350251594694
30
0
40
1.0000000000000004
210
0
220
-0
230
1
0
LINE
5
126
100
AcDbEntity
8
0
100
AcDbLine
10
68.180524214746114
20
59.363138670863606
30
0
11
91.180524214746129
21
59.363138670863606
31
0
0
LINE
5
127
100
AcDbEntity
8
0
100
AcDbLine
10
91.180524214746129
20
59.363138670863606
30
0
11
91.180524214746129
21
82.363138670863606
31
0
0
LINE
5
128
100
AcDbEntity
8
0
100
AcDbLine
10
91.180524214746129
20
82.363138670863606
30
0
11
68.180524214746114
21
82.363138670863606
31
0
0
LINE
5
129
100
AcDbEntity
8
0
100
AcDbLine
10
68.180524214746114
20
82.363138670863606
30
0
11
68.180524214746114
21
59.363138670863606
31
0
0
LINE
5
130
100
AcDbEntity
8
0
100
AcDbLine
10
68.180524214746114
20
59.363138670863606
30
0
11
91.180524214746129
21
82.363138670863606
31
0
0
LINE
5
131
100
AcDbEntity
8
0
100
AcDbLine
10
91.180524214746129
20
59.363138670863606
30
0
11
68.180524214746114
21
82.363138670863606
31
0
0
LINE
5
132
100
AcDbEntity
8
0
100
AcDbLine
10
36.489786304690391
20
37.063082438189852
30
0
11
41.815228613996851
21
42.263433168636112
31
0
0
LINE
5
133
100
AcDbEntity
8
0
100
AcDbLine
10
46.239610034756431
20
27.078732056515079
30
0
11
51.565052344062892
21
32.279082786961339
31
0
0
LINE
5
134
100
AcDbEntity
8
0
100
AcDbLine
10
36.489786304690391
20
37.063082438189852
30
0
11
34.565698630740208
21
35.18419047776365
31
0
0
LINE
5
135
100
AcDbEntity
8
0
100
AcDbLine
10
34.565698630740208
20
35.18419047776365
30
0
11
35.269174367098223
21
34.473439250140984
31
0
0
LINE
5
136
100
AcDbEntity
8
0
100
AcDbLine
10
44.382810668963295
20
25.265547840563627
30
0
11
46.239610034756431
21
27.078732056515079
31
0
0
LINE
5
137
100
AcDbEntity
8
0
100
AcDbLine
10
43.679334932605272
20
25.976299068186293
30
0
11
44.382810668963295
21
25.265547840563627
31
0
0
LINE
5
138
100
AcDbEntity
8
0
100
AcDbLine
10
124.56736381742343
20
34.861949388722749
30
0
11
125.27811504504609
21
35.565425125080772
31
0
0
LINE
5
139
100
AcDbEntity
8
0
100
AcDbLine
10
125.27811504504609
20
35.565425125080772
30
0
11
123.46493082909463
21
37.422224490873916
31
0
0
LINE
5
140
100
AcDbEntity
8
0
100
AcDbLine
10
123.46493082909463
20
37.422224490873916
30
0
11
118.26458009864838
21
42.747666800180369
31
0
0
LINE
5
141
100
AcDbEntity
8
0
100
AcDbLine
10
116.07022363546874
20
26.451788823215701
30
0
11
124.56736381742343
21
34.861949388722749
31
0
0
LINE
5
142
100
AcDbEntity
8
0
100
AcDbLine
10
113.48058044741987
20
27.672400760807868
30
0
11
115.35947240784607
21
25.748313086857685
31
0
0
LINE
5
143
100
AcDbEntity
8
0
100
AcDbLine
10
113.48058044741987
20
27.672400760807868
30
0
11
108.39762391199208
21
32.877625022251109
31
0
0
LINE
5
144
100
AcDbEntity
8
0
100
AcDbLine
10
115.35947240784607
20
25.748313086857685
30
0
11
116.07022363546874
21
26.451788823215701
31
0
0
LINE
5
145
100
AcDbEntity
8
0
100
AcDbLine
10
115.68171349688697
20
115.74997827354093
30
0
11
114.97823776052894
21
116.4607295011636
31
0
0
LINE
5
146
100
AcDbEntity
8
0
100
AcDbLine
10
114.97823776052894
20
116.4607295011636
30
0
11
113.1214383947358
21
114.64754528521213
31
0
0
LINE
5
147
100
AcDbEntity
8
0
100
AcDbLine
10
113.1214383947358
20
114.64754528521213
30
0
11
107.79599608542935
21
109.44719455476587
31
0
0
LINE
5
148
100
AcDbEntity
8
0
100
AcDbLine
10
124.091874062394
20
107.25283809158624
30
0
11
115.68171349688697
21
115.74997827354093
31
0
0
LINE
5
149
100
AcDbEntity
8
0
100
AcDbLine
10
122.87126212480186
20
104.66319490353737
30
0
11
124.79534979875203
21
106.54208686396358
31
0
0
LINE
5
150
100
AcDbEntity
8
0
100
AcDbLine
10
122.87126212480186
20
104.66319490353737
30
0
11
117.54581981549538
21
99.462844173091128
31
0
0
LINE
5
151
100
AcDbEntity
8
0
100
AcDbLine
10
124.79534979875203
20
106.54208686396358
30
0
11
124.091874062394
21
107.25283809158624
31
0
0
LINE
5
152
100
AcDbEntity
8
0
100
AcDbLine
10
34.793684612068816
20
106.86432795300446
30
0
11
34.08293338444615
21
106.16085221664645
31
0
0
LINE
5
153
100
AcDbEntity
8
0
100
AcDbLine
10
34.08293338444615
20
106.16085221664645
30
0
11
35.896117600397602
21
104.3040528508533
31
0
0
LINE
5
154
100
AcDbEntity
8
0
100
AcDbLine
10
35.896117600397602
20
104.3040528508533
30
0
11
41.096468330843848
21
98.978610541546857
31
0
0
LINE
5
155
100
AcDbEntity
8
0
100
AcDbLine
10
43.290824794023507
20
115.2744885185115
30
0
11
34.793684612068816
21
106.86432795300446
31
0
0
LINE
5
156
100
AcDbEntity
8
0
100
AcDbLine
10
45.880467982072375
20
114.05387658091934
30
0
11
44.001576021646173
21
115.97796425486953
31
0
0
LINE
5
157
100
AcDbEntity
8
0
100
AcDbLine
10
45.880467982072375
20
114.05387658091934
30
0
11
51.080818712518628
21
108.72843427161288
31
0
0
LINE
5
158
100
AcDbEntity
8
0
100
AcDbLine
10
44.001576021646173
20
115.97796425486953
30
0
11
43.290824794023507
21
115.2744885185115
31
0
0
LINE
5
159
100
AcDbEntity
8
0
100
AcDbLine
10
118.26458009864838
20
42.747666800180369
30
0
11
118.13014022429516
21
42.878499190248192
31
0
0
LINE
5
160
100
AcDbEntity
8
0
100
AcDbLine
10
41.096468330843848
20
98.978610541546857
30
0
11
41.230910144624751
21
98.847776295835672
31
0
0
ENDSEC
0
SECTION
2
OBJECTS
0
DICTIONARY
5
C
100
AcDbDictionary
3
ACAD_GROUP
350
D
3
ACAD_MLINESTYLE
350
17
0
DICTIONARY
5
D
100
AcDbDictionary
0
DICTIONARY
5
1A
330
C
100
AcDbDictionary
0
DICTIONARY
5
17
100
AcDbDictionary
0
ENDSEC
0
EOF
