0
SECTION
2
HEADER
9
$INSUNITS
70
4
9
$ACADVER
1
AC1014
9
$HANDSEED
5
FFFF
0
ENDSEC
0
SECTION
2
TABLES
0
TABLE
2
VPORT
5
8
100
AcDbSymbolTable
0
ENDTAB
0
TABLE
2
LTYPE
5
5
100
AcDbSymbolTable
0
LTYPE
5
14
100
AcDbSymbolTableRecord
100
AcDbLinetypeTableRecord
2
BYBLOCK
70
0
0
LTYPE
5
15
100
AcDbSymbolTableRecord
100
AcDbLinetypeTableRecord
2
BYLAYER
70
0
0
ENDTAB
0
TABLE
2
LAYER
5
2
100
AcDbSymbolTable
70
2
0
LAYER
5
50
100
AcDbSymbolTableRecord
100
AcDbLayerTableRecord
2
0
70
0
6
CONTINUOUS
0
ENDTAB
0
TABLE
2
STYLE
5
3
100
AcDbSymbolTable
70
1
0
STYLE
5
11
100
AcDbSymbolTableRecord
100
AcDbTextStyleTableRecord
2
STANDARD
70
0
0
ENDTAB
0
TABLE
2
VIEW
5
6
100
AcDbSymbolTable
70
0
0
ENDTAB
0
TABLE
2
UCS
5
7
100
AcDbSymbolTable
70
0
0
ENDTAB
0
TABLE
2
APPID
5
9
100
AcDbSymbolTable
70
2
0
APPID
5
12
100
AcDbSymbolTableRecord
100
AcDbRegAppTableRecord
2
ACAD
70
0
0
ENDTAB
0
TABLE
2
DIMSTYLE
5
A
100
AcDbSymbolTable
70
1
0
ENDTAB
0
TABLE
2
BLOCK_RECORD
5
1
100
AcDbSymbolTable
70
1
0
BLOCK_RECORD
5
1F
100
AcDbSymbolTableRecord
100
AcDbBlockTableRecord
2
*MODEL_SPACE
0
BLOCK_RECORD
5
1B
100
AcDbSymbolTableRecord
100
AcDbBlockTableRecord
2
*PAPER_SPACE
0
ENDTAB
0
ENDSEC
0
SECTION
2
BLOCKS
0
BLOCK
5
20
100
AcDbEntity
100
AcDbBlockBegin
2
*MODEL_SPACE
0
ENDBLK
5
21
100
AcDbEntity
100
AcDbBlockEnd
0
BLOCK
5
1C
100
AcDbEntity
100
AcDbBlockBegin
2
*PAPER_SPACE
0
ENDBLK
5
1D
100
AcDbEntity
100
AcDbBlockEnd
0
ENDSEC
0
SECTION
2
ENTITIES
0
LINE
5
100
100
AcDbEntity
8
0
100
AcDbLine
10
169.2336275244169
20
1407.4823416104346
30
0
11
-189.80789940892706
21
1407.4823416104346
31
0
0
LINE
5
101
100
AcDbEntity
8
0
100
AcDbLine
10
-189.80789940892706
20
1407.4823416104346
30
0
11
-189.80789940892706
21
1807.4823416104346
31
0
0
LINE
5
102
100
AcDbEntity
8
0
100
AcDbLine
10
-189.80789940892706
20
1807.4823416104346
30
0
11
169.2336275244169
21
1807.4823416104346
31
0
0
LINE
5
103
100
AcDbEntity
8
0
100
AcDbLine
10
168.76655272384991
20
1395.0894432357145
30
0
11
168.76655272384991
21
1825.0423663832385
31
0
0
LINE
5
104
100
AcDbEntity
8
0
100
AcDbLine
10
193.76655272384991
20
1395.0894432357145
30
3.1503248602037412e-34
11
193.76655272384991
21
1825.0423663832385
31
3.1503248602037412e-34
0
LINE
5
105
100
AcDbEntity
8
0
100
AcDbLine
10
218.76655272384991
20
1395.0894432357145
30
6.3006497204074824e-34
11
218.76655272384991
21
1825.0423663832385
31
6.3006497204074824e-34
0
LINE
5
106
100
AcDbEntity
8
0
100
AcDbLine
10
243.76655272384991
20
1395.0894432357145
30
9.4509745806112241e-34
11
243.76655272384991
21
1825.0423663832385
31
9.4509745806112241e-34
0
LINE
5
107
100
AcDbEntity
8
0
100
AcDbLine
10
268.76655272384988
20
1395.0894432357145
30
1.2601299440814965e-33
11
268.76655272384988
21
1825.0423663832385
31
1.2601299440814965e-33
0
LINE
5
108
100
AcDbEntity
8
0
100
AcDbLine
10
293.76655272384988
20
1395.0894432357145
30
1.5751624301018707e-33
11
293.76655272384988
21
1825.0423663832385
31
1.5751624301018707e-33
0
LINE
5
109
100
AcDbEntity
8
0
100
AcDbLine
10
318.76655272384988
20
1395.0894432357145
30
1.8901949161222448e-33
11
318.76655272384988
21
1825.0423663832385
31
1.8901949161222448e-33
0
LINE
5
110
100
AcDbEntity
8
0
100
AcDbLine
10
343.76655272384994
20
1395.0894432357145
30
2.2052274021426189e-33
11
343.76655272384994
21
1825.0423663832385
31
2.2052274021426189e-33
0
LINE
5
111
100
AcDbEntity
8
0
100
AcDbLine
10
169.2336275244169
20
1407.4823416104389
30
2.2204460492503131e-15
11
343.76655272384994
21
1407.4823416104389
31
2.2204460492503131e-15
0
LINE
5
112
100
AcDbEntity
8
0
100
AcDbLine
10
343.76655272384994
20
1407.4823416104389
30
2.2204460492503131e-15
11
552.76655272384994
21
1407.4823416104389
31
2.2204460492503131e-15
0
LINE
5
113
100
AcDbEntity
8
0
100
AcDbLine
10
552.76655272384994
20
1407.4823416104389
30
2.2204460492503131e-15
11
552.76655272384994
21
1807.4823416104389
31
2.2204460492503131e-15
0
LINE
5
114
100
AcDbEntity
8
0
100
AcDbLine
10
552.76655272384994
20
1807.4823416104389
30
2.2204460492503131e-15
11
169.2336275244169
21
1807.4823416104346
31
0
0
LWPOLYLINE
5
115
100
AcDbEntity
8
0
100
AcDbPolyline
90
4
70
1
43
0.0
10
-118.39432035445471
20
1416.482341610435
10
-73.082633322128686
20
1416.482341610435
10
-73.082633322128686
20
1434.4823416104348
10
-118.39432035445471
20
1434.4823416104348
0
LINE
5
116
100
AcDbEntity
8
0
100
AcDbLine
10
-118.39432035445469
20
1416.4823416104391
30
2.7755575615628914e-15
11
-118.39432035445469
21
1434.4823416104391
31
2.7755575615628914e-15
0
LWPOLYLINE
5
117
100
AcDbEntity
8
0
100
AcDbPolyline
90
4
70
1
43
0.0
10
-174.76694716388693
20
1416.482341610435
10
-129.07284712446585
20
1416.482341610435
10
-129.07284712446585
20
1434.4823416104348
10
-174.76694716388693
20
1434.4823416104348
0
LINE
5
118
100
AcDbEntity
8
0
100
AcDbLine
10
-174.76694716388693
20
1416.4823416104391
30
8.3266726846886741e-16
11
-174.76694716388693
21
1434.4823416104391
31
8.3266726846886741e-16
0
LWPOLYLINE
5
119
100
AcDbEntity
8
0
100
AcDbPolyline
90
4
70
1
43
0.0
10
-174.76694716388693
20
1598.4823416104341
10
-129.07284712446585
20
1598.4823416104341
10
-129.07284712446585
20
1616.4823416104341
10
-174.76694716388693
20
1616.4823416104341
0
LWPOLYLINE
5
120
100
AcDbEntity
8
0
100
AcDbPolyline
90
4
70
1
43
0.0
10
-73.082633322128686
20
1598.4823416104341
10
-118.39432035445471
20
1598.4823416104341
10
-118.39432035445471
20
1616.4823416104341
10
-73.082633322128686
20
1616.4823416104341
0
LWPOLYLINE
5
121
100
AcDbEntity
8
0
100
AcDbPolyline
90
4
70
1
43
0.0
10
-129.07284712446585
20
1779.4823416104339
10
-174.76694716388693
20
1779.4823416104339
10
-174.76694716388693
20
1797.4823416104334
10
-129.07284712446585
20
1797.4823416104334
0
LWPOLYLINE
5
122
100
AcDbEntity
8
0
100
AcDbPolyline
90
4
70
1
43
0.0
10
-73.082633322128686
20
1779.4823416104339
10
-118.39432035445471
20
1779.4823416104339
10
-118.39432035445471
20
1797.4823416104334
10
-73.082633322128686
20
1797.4823416104334
0
LWPOLYLINE
5
123
100
AcDbEntity
8
0
100
AcDbPolyline
90
8
70
1
43
0.0
10
125.62236855264658
20
1708.4823416104337
10
109.83745965921304
20
1708.4823416104337
42
-0.99999999999999989
10
108.72991410592981
20
1709.6196626281778
10
108.72991410593009
20
1731.345020592689
42
-0.99999999999999989
10
109.83745965921275
20
1732.4823416104337
10
125.62236855264658
20
1732.4823416104334
42
-0.99999999999999989
10
126.72991410592982
20
1731.3450205926893
10
126.72991410592982
20
1709.6196626281778
42
-0.99999999999999989
0
LINE
5
124
100
AcDbEntity
8
0
100
AcDbLine
10
126.72991410592982
20
1709.6196626281778
30
0
11
126.72991410592982
21
1731.3450205926893
31
0
0
LINE
5
125
100
AcDbEntity
8
0
100
AcDbLine
10
125.62236855264686
20
1732.4823416104337
30
0
11
109.83745965921275
21
1732.4823416104337
31
0
0
LWPOLYLINE
5
126
100
AcDbEntity
8
0
100
AcDbPolyline
90
8
70
1
43
0.0
10
125.6311106308072
20
1636.4823416104337
10
109.82871758105254
20
1636.4823416104337
42
-0.99999999999999989
10
108.72991410592981
20
1637.628110859916
10
108.72991410592994
20
1655.3365723609518
42
-0.99999999999999989
10
109.82871758105242
20
1656.4823416104337
10
125.63111063080709
20
1656.4823416104337
42
-0.99999999999999989
10
126.72991410592982
20
1655.3365723609518
10
126.72991410592969
20
1637.628110859916
42
-0.99999999999999989
0
LINE
5
127
100
AcDbEntity
8
0
100
AcDbLine
10
108.72991410592981
20
1655.3365723609518
30
0
11
108.72991410592981
21
1637.628110859916
31
0
0
LWPOLYLINE
5
128
100
AcDbEntity
8
0
100
AcDbPolyline
90
8
70
1
43
0.0
10
125.63228965751617
20
1558.4823416104341
10
109.8275385543436
20
1558.4823416104341
42
-0.99999999999999989
10
108.72991410592981
20
1559.629240394218
10
108.72991410592995
20
1577.3354428266503
42
-0.99999999999999989
10
109.82753855434346
20
1578.4823416104341
10
125.63228965751603
20
1578.4823416104341
42
-0.99999999999999989
10
126.72991410592982
20
1577.3354428266503
10
126.72991410592968
20
1559.629240394218
42
-0.99999999999999989
0
LINE
5
129
100
AcDbEntity
8
0
100
AcDbLine
10
126.72991410592982
20
1559.629240394218
30
0
11
126.72991410592982
21
1577.3354428266503
31
0
0
LINE
5
130
100
AcDbEntity
8
0
100
AcDbLine
10
108.72991410592981
20
1577.3354428266503
30
0
11
108.72991410592981
21
1559.629240394218
31
0
0
LWPOLYLINE
5
131
100
AcDbEntity
8
0
100
AcDbPolyline
90
4
70
1
43
0.0
10
126.72991410592979
20
1482.4823416104343
10
108.72991410592979
20
1482.4823416104343
10
108.72991410592979
20
1506.4823416104343
10
126.72991410592979
20
1506.4823416104343
0
LWPOLYLINE
5
132
100
AcDbEntity
8
0
100
AcDbPolyline
90
8
70
1
43
0.0
10
419.26655272384994
20
1615.3269548684439
10
419.26655272384994
20
1599.6377283524344
42
0.99999999999999989
10
420.35523896258979
20
1598.4823416104391
10
468.17786648511003
20
1598.4823416104391
42
0.99999999999999989
10
469.26655272384994
20
1599.6377283524344
10
469.26655272384994
20
1615.3269548684439
42
0.99999999999999989
10
468.17786648511003
20
1616.4823416104391
10
420.35523896258979
20
1616.4823416104391
42
0.99999999999999989
0
LWPOLYLINE
5
133
100
AcDbEntity
8
0
100
AcDbPolyline
90
8
70
1
43
0.0
10
420.36986715798992
20
1435.4823416104389
10
468.16323828971008
20
1435.4823416104389
42
-0.99999999999999989
10
469.26655272384994
20
1434.3409155246068
10
469.26655272385005
20
1418.623767696271
42
-0.99999999999999989
10
468.16323828970997
20
1417.4823416104389
10
420.36986715798975
20
1417.4823416104389
42
-0.99999999999999989
10
419.26655272384994
20
1418.623767696271
10
419.26655272384977
20
1434.3409155246068
42
-0.99999999999999989
0
LINE
5
134
100
AcDbEntity
8
0
100
AcDbLine
10
419.26655272384994
20
1796.3517962286192
30
0
11
419.26655272384994
21
1780.6128869922582
31
0
0
LINE
5
135
100
AcDbEntity
8
0
100
AcDbLine
10
469.26655272384994
20
1780.6128869922582
30
0
11
469.26655272384994
21
1796.3517962286192
31
0
0
LINE
5
136
100
AcDbEntity
8
0
100
AcDbLine
10
420.38101375486264
20
1779.4823416104387
30
0
11
468.15209169283719
21
1779.4823416104387
31
0
0
LINE
5
137
100
AcDbEntity
8
0
100
AcDbLine
10
468.15209169283719
20
1797.4823416104389
30
0
11
420.38101375486264
21
1797.4823416104389
31
0
0
LINE
5
138
100
AcDbEntity
8
0
100
AcDbLine
10
-73.082633322128686
20
1598.4823416104341
30
0
11
-73.082633322128686
21
1616.4823416104341
31
0
0
LINE
5
139
100
AcDbEntity
8
0
100
AcDbLine
10
-118.39432035445469
20
1598.4823416104341
30
0
11
-73.082633322128672
21
1598.4823416104341
31
5.8803049874531666e-34
0
ARC
5
140
100
AcDbEntity
8
0
100
AcDbCircle
10
-73.622976601663936
20
1417.063777937788
30
0
40
0.79375000000005613
210
0
220
0
230
1
100
AcDbArc
50
-132.90207819120741
51
47.097921808366699
0
LINE
5
141
100
AcDbEntity
8
0
100
AcDbLine
10
-129.07284712446582
20
1416.482341610435
30
0
11
-174.76694716388693
21
1416.482341610435
31
-5.9299324734323103e-34
0
LINE
5
142
100
AcDbEntity
8
0
100
AcDbLine
10
-129.07284712446582
20
1616.4823416104341
30
2.7755575615628914e-16
11
-129.07284712446582
21
1598.4823416104341
31
2.7755575615628914e-16
0
LINE
5
143
100
AcDbEntity
8
0
100
AcDbLine
10
-73.082633322128686
20
1434.4823416104348
30
0
11
-73.082633322128686
21
1416.482341610435
31
0
0
LINE
5
144
100
AcDbEntity
8
0
100
AcDbLine
10
-129.07284712446582
20
1434.4823416104348
30
0
11
-129.07284712446582
21
1416.482341610435
31
0
0
LINE
5
145
100
AcDbEntity
8
0
100
AcDbLine
10
-129.07284712446582
20
1598.4823416104341
30
2.7755575615628914e-16
11
-174.76694716388693
21
1598.4823416104341
31
2.7755575615628914e-16
0
ARC
5
146
100
AcDbEntity
8
0
100
AcDbCircle
10
-73.631055170881424
20
1615.9085188692356
30
0
40
0.79375000000000129
210
0
220
0
230
1
100
AcDbArc
50
-46.296611714859978
51
133.70338828461021
0
LINE
5
147
100
AcDbEntity
8
0
100
AcDbLine
10
-174.76694716388693
20
1779.4823416104339
30
2.7755575615628914e-16
11
-129.07284712446585
21
1779.4823416104339
31
2.7755575615628914e-16
0
LINE
5
148
100
AcDbEntity
8
0
100
AcDbLine
10
-129.07284712446582
20
1797.4823416104334
30
2.7755575615628914e-16
11
-174.76694716388693
21
1797.4823416104334
31
2.7755575615628914e-16
0
ARC
5
149
100
AcDbEntity
8
0
100
AcDbCircle
10
-174.21969189753588
20
1433.9074061914907
30
0
40
0.79375000000003593
210
0
220
-0
230
1
100
AcDbArc
50
46.412981247948807
51
226.41298124747877
0
ARC
5
150
100
AcDbEntity
8
0
100
AcDbCircle
10
-117.85397707491946
20
1417.063777937788
30
0
40
0.79374999999996843
210
0
220
0
230
1
100
AcDbArc
50
132.90207819163257
51
312.90207819120667
0
LINE
5
151
100
AcDbEntity
8
0
100
AcDbLine
10
109.83745965921304
20
1708.4823416104337
30
0
11
125.62236855264658
21
1708.4823416104337
31
0
0
ARC
5
152
100
AcDbEntity
8
0
100
AcDbCircle
10
-129.62010239081684
20
1433.9074061914907
30
0
40
0.79375000000011986
210
0
220
0
230
1
100
AcDbArc
50
-46.412981247480253
51
133.58701875205119
0
ARC
5
153
100
AcDbEntity
8
0
100
AcDbCircle
10
-174.21969189753588
20
1417.0572770293784
30
0
40
0.79375000000013207
210
0
220
0
230
1
100
AcDbArc
50
133.58701875250989
51
313.58701875209999
0
ARC
5
154
100
AcDbEntity
8
0
100
AcDbCircle
10
-174.22184423218857
20
1599.0593180885976
30
0
40
0.79375000000008189
210
0
220
0
230
1
100
AcDbArc
50
133.37290593973449
51
313.37290593974046
0
LINE
5
155
100
AcDbEntity
8
0
100
AcDbLine
10
-118.39432035445469
20
1434.4823416104348
30
0
11
-73.082633322128672
21
1434.4823416104348
31
5.8803049874531666e-34
0
LINE
5
156
100
AcDbEntity
8
0
100
AcDbLine
10
-174.76694716388693
20
1616.4823416104341
30
2.7755575615628914e-16
11
-129.07284712446585
21
1616.4823416104341
31
2.7755575615628914e-16
0
ARC
5
157
100
AcDbEntity
8
0
100
AcDbCircle
10
-129.61795005616415
20
1599.0593180885976
30
0
40
0.79374999999998519
210
0
220
0
230
1
100
AcDbArc
50
-133.37290593974345
51
46.627094060267012
0
ARC
5
158
100
AcDbEntity
8
0
100
AcDbCircle
10
-73.622976601663936
20
1433.9009052830811
30
0
40
0.79374999999998042
210
0
220
0
230
1
100
AcDbArc
50
-47.097921808355544
51
132.90207819115739
0
ARC
5
159
100
AcDbEntity
8
0
100
AcDbCircle
10
-73.636183841323231
20
1796.9134647474787
30
0
40
0.79375000000002927
210
0
220
0
230
1
100
AcDbArc
50
-45.782304723457109
51
134.21769527602052
0
ARC
5
160
100
AcDbEntity
8
0
100
AcDbCircle
10
126.1670852347079
20
1505.9226428305369
30
0
40
0.79375000000002771
210
0
220
0
230
1
100
AcDbArc
50
-44.840235064705105
51
135.15976493533262
0
ARC
5
161
100
AcDbEntity
8
0
100
AcDbCircle
10
-129.61795005616415
20
1615.9053651322706
30
0
40
0.79375000000008189
210
0
220
0
230
1
100
AcDbArc
50
-46.627094060278289
51
133.37290593972705
0
ARC
5
162
100
AcDbEntity
8
0
100
AcDbCircle
10
-73.631055170881424
20
1599.0561643516323
30
0
40
0.79375000000000251
210
0
220
0
230
1
100
AcDbArc
50
-133.7033882846379
51
46.296611714859985
0
ARC
5
163
100
AcDbEntity
8
0
100
AcDbCircle
10
-117.84589850570194
20
1599.0561643516323
30
0
40
0.79375000000001361
210
0
220
0
230
1
100
AcDbArc
50
133.70338828514076
51
313.70338828463713
0
LINE
5
164
100
AcDbEntity
8
0
100
AcDbLine
10
-73.082633322128686
20
1616.4823416104341
30
0
11
-118.39432035445471
21
1616.4823416104341
31
-5.8803049874531666e-34
0
ARC
5
165
100
AcDbEntity
8
0
100
AcDbCircle
10
-129.61709664437731
20
1796.9045600577892
30
0
40
0.79374999999995732
210
0
220
0
230
1
100
AcDbArc
50
-46.711781732257563
51
133.2882182677522
0
LINE
5
166
100
AcDbEntity
8
0
100
AcDbLine
10
-174.76694716388693
20
1416.482341610435
30
0
11
-174.76694716388693
21
1434.4823416104348
31
0
0
LINE
5
167
100
AcDbEntity
8
0
100
AcDbLine
10
-73.082633322128686
20
1779.4823416104339
30
0
11
-73.082633322128686
21
1797.4823416104334
31
0
0
LINE
5
168
100
AcDbEntity
8
0
100
AcDbLine
10
125.63228965751617
20
1578.4823416104341
30
0
11
109.82753855434346
21
1578.4823416104341
31
0
0
ARC
5
169
100
AcDbEntity
8
0
100
AcDbCircle
10
-129.62010239081684
20
1417.0572770293784
30
0
40
0.79375000000002593
210
0
220
0
230
1
100
AcDbArc
50
-133.5870187521015
51
46.412981247491594
0
ARC
5
170
100
AcDbEntity
8
0
100
AcDbCircle
10
-117.84076983526013
20
1796.9134647474787
30
0
40
0.79375000000004137
210
0
220
-0
230
1
100
AcDbArc
50
45.782304723980197
51
225.78230472345638
0
LINE
5
171
100
AcDbEntity
8
0
100
AcDbLine
10
125.6311106308072
20
1656.4823416104337
30
0
11
109.82871758105242
21
1656.4823416104337
31
0
0
LINE
5
172
100
AcDbEntity
8
0
100
AcDbLine
10
126.72991410592982
20
1637.628110859916
30
0
11
126.72991410592982
21
1655.3365723609518
31
0
0
LINE
5
173
100
AcDbEntity
8
0
100
AcDbLine
10
-174.76694716388693
20
1434.4823416104348
30
2.7755575615628914e-16
11
-129.07284712446585
21
1434.4823416104348
31
2.7755575615628914e-16
0
ARC
5
174
100
AcDbEntity
8
0
100
AcDbCircle
10
109.29274297715173
20
1483.0420403903322
30
0
40
0.79375000000002771
210
0
220
0
230
1
100
AcDbArc
50
135.15976493530653
51
315.15976493529416
0
ARC
5
175
100
AcDbEntity
8
0
100
AcDbCircle
10
126.1670852347079
20
1483.0420403903322
30
0
40
0.79375000000002771
210
0
220
0
230
1
100
AcDbArc
50
-135.1597649352949
51
44.840235064693481
0
LINE
5
176
100
AcDbEntity
8
0
100
AcDbLine
10
-73.082633322128686
20
1416.482341610435
30
0
11
-118.39432035445471
21
1416.482341610435
31
-5.8803049874531666e-34
0
ARC
5
177
100
AcDbEntity
8
0
100
AcDbCircle
10
-117.85397707491946
20
1433.9009052830811
30
0
40
0.79375000000005869
210
0
220
-0
230
1
100
AcDbArc
50
47.097921808842621
51
227.09792180835626
0
LINE
5
178
100
AcDbEntity
8
0
100
AcDbLine
10
108.72991410592981
20
1482.4823416104343
30
2.7755575615628914e-16
11
126.72991410592982
21
1482.4823416104343
31
2.7755575615628914e-16
0
ARC
5
179
100
AcDbEntity
8
0
100
AcDbCircle
10
-117.84589850570194
20
1615.9085188692356
30
0
40
0.7937500000000054
210
0
220
-0
230
1
100
AcDbArc
50
46.296611715389027
51
226.29661171485924
0
LINE
5
180
100
AcDbEntity
8
0
100
AcDbLine
10
-174.76694716388693
20
1797.4823416104334
30
2.7755575615628914e-16
11
-174.76694716388693
21
1779.4823416104339
31
2.7755575615628914e-16
0
LINE
5
181
100
AcDbEntity
8
0
100
AcDbLine
10
-129.07284712446582
20
1779.4823416104339
30
2.7755575615628914e-16
11
-129.07284712446582
21
1797.4823416104334
31
2.7755575615628914e-16
0
LINE
5
182
100
AcDbEntity
8
0
100
AcDbLine
10
-73.082633322128686
20
1797.4823416104334
30
2.7755575615628914e-16
11
-118.39432035445471
21
1797.4823416104334
31
2.7755575615628914e-16
0
ARC
5
183
100
AcDbEntity
8
0
100
AcDbCircle
10
-73.636183841323231
20
1780.0512184733886
30
0
40
0.79375000000004747
210
0
220
0
230
1
100
AcDbArc
50
-134.21769527602052
51
45.782304723457102
0
ARC
5
184
100
AcDbEntity
8
0
100
AcDbCircle
10
109.29274297715173
20
1505.9226428305369
30
0
40
0.79375000000002904
210
0
220
-0
230
1
100
AcDbArc
50
44.8402350646681
51
224.8402350647051
0
LINE
5
185
100
AcDbEntity
8
0
100
AcDbLine
10
126.72991410592982
20
1506.4823416104343
30
0
11
108.72991410592981
21
1506.4823416104343
31
-2.3359423739541045e-34
0
ARC
5
186
100
AcDbEntity
8
0
100
AcDbCircle
10
-174.22269764397544
20
1796.9045600577892
30
0
40
0.79374999999995732
210
0
220
-0
230
1
100
AcDbArc
50
46.711781732246315
51
226.71178173225755
0
LINE
5
187
100
AcDbEntity
8
0
100
AcDbLine
10
-118.39432035445469
20
1616.4823416104341
30
2.7755575615628914e-16
11
-118.39432035445469
21
1598.4823416104341
31
2.7755575615628914e-16
0
LINE
5
188
100
AcDbEntity
8
0
100
AcDbLine
10
-118.39432035445469
20
1797.4823416104334
30
2.7755575615628914e-16
11
-118.39432035445469
21
1779.4823416104339
31
2.7755575615628914e-16
0
LINE
5
189
100
AcDbEntity
8
0
100
AcDbLine
10
108.72991410592981
20
1506.4823416104343
30
2.7755575615628914e-16
11
108.72991410592981
21
1482.4823416104343
31
2.7755575615628914e-16
0
ARC
5
190
100
AcDbEntity
8
0
100
AcDbCircle
10
-174.22269764397544
20
1780.0601231630781
30
0
40
0.79374999999995732
210
0
220
0
230
1
100
AcDbArc
50
133.28821826774245
51
313.28821826775368
0
ARC
5
191
100
AcDbEntity
8
0
100
AcDbCircle
10
-129.61709664437731
20
1780.0601231630781
30
0
40
0.79374999999995732
210
0
220
0
230
1
100
AcDbArc
50
-133.2882182677522
51
46.711781732257563
0
ARC
5
192
100
AcDbEntity
8
0
100
AcDbCircle
10
-117.84076983526013
20
1780.0512184733886
30
0
40
0.7937500000000417
210
0
220
0
230
1
100
AcDbArc
50
134.21769527654365
51
314.21769527601981
0
ARC
5
193
100
AcDbEntity
8
0
100
AcDbCircle
10
-174.22184423218857
20
1615.9053651322706
30
0
40
0.7937499999999843
210
0
220
-0
230
1
100
AcDbArc
50
46.627094060274466
51
226.62709406027679
0
LINE
5
194
100
AcDbEntity
8
0
100
AcDbLine
10
109.82871758105242
20
1636.4823416104337
30
0
11
125.6311106308072
21
1636.4823416104337
31
0
0
LINE
5
195
100
AcDbEntity
8
0
100
AcDbLine
10
-118.39432035445469
20
1779.4823416104339
30
2.7755575615628914e-16
11
-73.082633322128672
21
1779.4823416104339
31
2.7755575615628914e-16
0
LINE
5
196
100
AcDbEntity
8
0
100
AcDbLine
10
109.82753855434346
20
1558.4823416104341
30
0
11
125.63228965751617
21
1558.4823416104341
31
0
0
LINE
5
197
100
AcDbEntity
8
0
100
AcDbLine
10
126.72991410592982
20
1482.4823416104343
30
0
11
126.72991410592982
21
1506.4823416104343
31
0
0
LINE
5
198
100
AcDbEntity
8
0
100
AcDbLine
10
-118.39432035445469
20
1416.482341610435
30
0
11
-118.39432035445469
21
1434.4823416104348
31
0
0
LINE
5
199
100
AcDbEntity
8
0
100
AcDbLine
10
-174.76694716388693
20
1598.4823416104341
30
2.7755575615628914e-16
11
-174.76694716388693
21
1616.4823416104341
31
2.7755575615628914e-16
0
LINE
5
200
100
AcDbEntity
8
0
100
AcDbLine
10
108.72991410592981
20
1731.3450205926893
30
0
11
108.72991410592981
21
1709.6196626281778
31
0
0
LINE
5
201
100
AcDbEntity
8
0
100
AcDbLine
10
444.26655272384994
20
1417.4823416104389
30
0
11
444.26655272384994
21
1435.4823416104389
31
0
0
LINE
5
202
100
AcDbEntity
8
0
100
AcDbLine
10
419.26655272384994
20
1426.4823416104389
30
0
11
469.26655272384994
21
1426.4823416104389
31
0
0
LINE
5
203
100
AcDbEntity
8
0
100
AcDbLine
10
444.26655272384994
20
1598.4823416104391
30
0
11
444.26655272384994
21
1616.4823416104391
31
0
0
LINE
5
204
100
AcDbEntity
8
0
100
AcDbLine
10
419.26655272384994
20
1607.4823416104391
30
0
11
469.26655272384994
21
1607.4823416104391
31
0
0
LINE
5
205
100
AcDbEntity
8
0
100
AcDbLine
10
444.26655272384994
20
1779.4823416104387
30
0
11
444.26655272384994
21
1797.4823416104389
31
0
0
LINE
5
206
100
AcDbEntity
8
0
100
AcDbLine
10
419.26655272384994
20
1788.4823416104387
30
0
11
469.26655272384994
21
1788.4823416104387
31
0
0
LINE
5
207
100
AcDbEntity
8
0
100
AcDbLine
10
343.76655272384994
20
1395.0894432357145
30
2.2052274021426189e-33
11
318.76655272384988
21
1395.0894432357145
31
1.8901949161222448e-33
0
LINE
5
208
100
AcDbEntity
8
0
100
AcDbLine
10
293.76655272384988
20
1395.0894432357145
30
1.5751624301018707e-33
11
268.76655272384988
21
1395.0894432357145
31
1.2601299440814965e-33
0
LINE
5
209
100
AcDbEntity
8
0
100
AcDbLine
10
243.76655272384991
20
1395.0894432357145
30
9.4509745806112241e-34
11
218.76655272384991
21
1395.0894432357145
31
6.3006497204074824e-34
0
LINE
5
210
100
AcDbEntity
8
0
100
AcDbLine
10
193.76655272384991
20
1395.0894432357145
30
3.1503248602037412e-34
11
168.76655272384991
21
1395.0894432357145
31
0
0
LINE
5
211
100
AcDbEntity
8
0
100
AcDbLine
10
318.76655272384988
20
1825.0423663832385
30
1.8901949161222448e-33
11
293.76655272384988
21
1825.0423663832385
31
1.5751624301018707e-33
0
LINE
5
212
100
AcDbEntity
8
0
100
AcDbLine
10
268.76655272384988
20
1825.0423663832385
30
1.2601299440814965e-33
11
243.76655272384991
21
1825.0423663832385
31
9.4509745806112241e-34
0
LINE
5
213
100
AcDbEntity
8
0
100
AcDbLine
10
218.76655272384991
20
1825.0423663832385
30
6.3006497204074824e-34
11
193.76655272384991
21
1825.0423663832385
31
3.1503248602037412e-34
0
ARC
5
214
100
AcDbEntity
8
0
100
AcDbCircle
10
468.70932220834345
20
1780.0476143013486
30
0
40
0.79374999999996865
210
0
220
0
230
1
100
AcDbArc
50
-134.58951135075418
51
45.410488649211125
0
ARC
5
215
100
AcDbEntity
8
0
100
AcDbCircle
10
468.70932220834345
20
1796.9170689195289
30
0
40
0.79374999999986595
210
0
220
0
230
1
100
AcDbArc
50
-45.410488649222629
51
134.58951135075418
0
ARC
5
216
100
AcDbEntity
8
0
100
AcDbCircle
10
419.82378323935632
20
1796.9170689195289
30
0
40
0.79374999999996865
210
0
220
-0
230
1
100
AcDbArc
50
45.410488649242922
51
225.41048864922848
0
ARC
5
217
100
AcDbEntity
8
0
100
AcDbCircle
10
419.82378323935632
20
1780.0476143013486
30
0
40
0.79374999999986595
210
0
220
0
230
1
100
AcDbArc
50
134.58951135078306
51
314.58951135075705
0
ENDSEC
0
SECTION
2
OBJECTS
0
DICTIONARY
5
C
100
AcDbDictionary
3
ACAD_GROUP
350
D
3
ACAD_MLINESTYLE
350
17
0
DICTIONARY
5
D
100
AcDbDictionary
0
DICTIONARY
5
1A
330
C
100
AcDbDictionary
0
DICTIONARY
5
17
100
AcDbDictionary
0
ENDSEC
0
EOF
