  0
SECTION
  2
HEADER
  9
$ACADVER
  1
AC1014
  9
$HANDSEED
  5
FFFF
  9
$MEASUREMENT
 70
     1
  0
ENDSEC
  0
SECTION
  2
TABLES
  0
TABLE
  2
VPORT
  5
8
330
0
100
AcDbSymbolTable
 70
     4
  0
VPORT
  5
2E
330
8
100
AcDbSymbolTableRecord
100
AcDbViewportTableRecord
  2
*ACTIVE
 70
     0
 10
0.0
 20
0.0
 11
1.0
 21
1.0
 12
210.0
 22
148.5
 13
0.0
 23
0.0
 14
10.0
 24
10.0
 15
10.0
 25
10.0
 16
0.0
 26
0.0
 36
1.0
 17
0.0
 27
0.0
 37
0.0
 40
341.0
 41
1.24
 42
50.0
 43
0.0
 44
0.0
 50
0.0
 51
0.0
 71
     0
 72
   100
 73
     1
 74
     3
 75
     0
 76
     0
 77
     0
 78
     0
  0
ENDTAB
  0
TABLE
  2
LTYPE
  5
5
330
0
100
AcDbSymbolTable
 70
     1
  0
LTYPE
  5
14
330
5
100
AcDbSymbolTableRecord
100
AcDbLinetypeTableRecord
  2
BYBLOCK
 70
     0
  3

 72
    65
 73
     0
 40
0.0
  0
LTYPE
  5
15
330
5
100
AcDbSymbolTableRecord
100
AcDbLinetypeTableRecord
  2
BYLAYER
 70
     0
  3

 72
    65
 73
     0
 40
0.0
  0
LTYPE
  5
16
330
5
100
AcDbSymbolTableRecord
100
AcDbLinetypeTableRecord
  2
CONTINUOUS
 70
     0
  3
Solid line
 72
    65
 73
     0
 40
0.0
  0
ENDTAB
  0
TABLE
  2
LAYER
  5
2
100
AcDbSymbolTable
 70
4
  0
LAYER
  5
50
100
AcDbSymbolTableRecord
100
AcDbLayerTableRecord
  2
0
 70
0
  6
CONTINUOUS
  0
LAYER
  5
51
100
AcDbSymbolTableRecord
100
AcDbLayerTableRecord
  2
Visible
 70
0
  6
CONTINUOUS
  0
LAYER
  5
52
100
AcDbSymbolTableRecord
100
AcDbLayerTableRecord
  2
Border
 70
0
  6
CONTINUOUS
  0
LAYER
  5
53
100
AcDbSymbolTableRecord
100
AcDbLayerTableRecord
  2
TitleBlock
 70
0
  6
CONTINUOUS
  0
ENDTAB
  0
TABLE
  2
STYLE
  5
3
330
0
100
AcDbSymbolTable
 70
     1
  0
STYLE
  5
11
330
3
100
AcDbSymbolTableRecord
100
AcDbTextStyleTableRecord
  2
STANDARD
 70
     0
 40
0.0
 41
1.0
 50
0.0
 71
     0
 42
2.5
  3
txt
  4

  0
ENDTAB
  0
TABLE
  2
VIEW
  5
6
330
0
100
AcDbSymbolTable
 70
     0
  0
ENDTAB
  0
TABLE
  2
UCS
  5
7
330
0
100
AcDbSymbolTable
 70
     0
  0
ENDTAB
  0
TABLE
  2
APPID
  5
9
330
0
100
AcDbSymbolTable
 70
     2
  0
APPID
  5
12
330
9
100
AcDbSymbolTableRecord
100
AcDbRegAppTableRecord
  2
ACAD
 70
     0
  0
ENDTAB
  0
TABLE
  2
DIMSTYLE
  5
A
330
0
100
AcDbSymbolTable
 70
     1
  0
DIMSTYLE
105
27
330
A
100
AcDbSymbolTableRecord
100
AcDbDimStyleTableRecord
  2
ISO-25
 70
     0
  3

  4

  5

  6

  7

 40
1.0
 41
2.5
 42
0.625
 43
3.75
 44
1.25
 45
0.0
 46
0.0
 47
0.0
 48
0.0
140
2.5
141
2.5
142
0.0
143
0.03937007874016
144
1.0
145
0.0
146
1.0
147
0.625
 71
     0
 72
     0
 73
     0
 74
     0
 75
     0
 76
     0
 77
     1
 78
     8
170
     0
171
     3
172
     1
173
     0
174
     0
175
     0
176
     0
177
     0
178
     0
270
     2
271
     2
272
     2
273
     2
274
     3
340
11
275
     0
280
     0
281
     0
282
     0
283
     0
284
     8
285
     0
286
     0
287
     3
288
     0
  0
ENDTAB
  0
TABLE
  2
BLOCK_RECORD
  5
1
330
0
100
AcDbSymbolTable
 70
     1
  0
BLOCK_RECORD
  5
1F
330
1
100
AcDbSymbolTableRecord
100
AcDbBlockTableRecord
  2
*MODEL_SPACE
  0
BLOCK_RECORD
  5
1B
330
1
100
AcDbSymbolTableRecord
100
AcDbBlockTableRecord
  2
*PAPER_SPACE
  0
ENDTAB
  0
ENDSEC
  0
SECTION
  2
BLOCKS
  0
BLOCK
  5
20
330
1F
100
AcDbEntity
  8
0
100
AcDbBlockBegin
  2
*MODEL_SPACE
 70
     0
 10
0.0
 20
0.0
 30
0.0
  3
*MODEL_SPACE
  1

  0
ENDBLK
  5
21
330
1F
100
AcDbEntity
  8
0
100
AcDbBlockEnd
  0
BLOCK
  5
1C
330
1B
100
AcDbEntity
 67
     1
  8
0
100
AcDbBlockBegin
  2
*PAPER_SPACE
  1

  0
ENDBLK
  5
1D
330
1B
100
AcDbEntity
 67
     1
  8
0
100
AcDbBlockEnd
  0
ENDSEC
  0
SECTION
  2
ENTITIES
  0
LWPOLYLINE
  5
100
100
AcDbEntity
  8
Visible
 62
7
100
AcDbPolyline
 90
2
 70
0
 10
210.164558
 20
508.574734
 30
0.0
 10
210.164558
 20
519.629846
 30
0.0
  0
LWPOLYLINE
  5
101
100
AcDbEntity
  8
Visible
 62
7
100
AcDbPolyline
 90
2
 70
0
 10
230.007082
 20
508.574734
 30
0.0
 10
210.164558
 20
508.574734
 30
0.0
  0
SPLINE
  5
102
100
AcDbEntity
  8
Visible
 62
7
100
AcDbSpline
 70
8
 71
3
 72
8
 73
4
 74
0
 40
0
 40
0
 40
0
 40
0
 40
1
 40
1
 40
1
 40
1
 10
143.242508
 20
505.773386
 30
0.0
 10
147.252589
 20
484.308323
 30
0.0
 10
165.989077
 20
468.748007
 30
0.0
 10
187.825508
 20
468.748007
 30
0.0
  0
SPLINE
  5
103
100
AcDbEntity
  8
Visible
 62
7
100
AcDbSpline
 70
8
 71
3
 72
8
 73
4
 74
0
 40
0
 40
0
 40
0
 40
0
 40
1
 40
1
 40
1
 40
1
 10
187.825508
 20
468.748007
 30
0.0
 10
209.661938
 20
468.748007
 30
0.0
 10
228.398426
 20
484.308323
 30
0.0
 10
232.408508
 20
505.773386
 30
0.0
  0
LWPOLYLINE
  5
104
100
AcDbEntity
  8
Visible
 62
7
100
AcDbPolyline
 90
2
 70
0
 10
230.007082
 20
508.574734
 30
0.0
 10
232.408508
 20
505.773386
 30
0.0
  0
LWPOLYLINE
  5
105
100
AcDbEntity
  8
Visible
 62
7
100
AcDbPolyline
 90
2
 70
0
 10
143.242508
 20
505.773386
 30
0.0
 10
145.643933
 20
508.574734
 30
0.0
  0
LWPOLYLINE
  5
106
100
AcDbEntity
  8
Visible
 62
7
100
AcDbPolyline
 90
2
 70
0
 10
165.486458
 20
508.574734
 30
0.0
 10
145.643933
 20
508.574734
 30
0.0
  0
LWPOLYLINE
  5
107
100
AcDbEntity
  8
Visible
 62
7
100
AcDbPolyline
 90
2
 70
0
 10
165.486458
 20
519.629846
 30
0.0
 10
165.486458
 20
508.574734
 30
0.0
  0
LWPOLYLINE
  5
108
100
AcDbEntity
  8
Visible
 62
7
100
AcDbPolyline
 90
2
 70
0
 10
145.643933
 20
519.629846
 30
0.0
 10
165.486458
 20
519.629846
 30
0.0
  0
SPLINE
  5
109
100
AcDbEntity
  8
Visible
 62
7
100
AcDbSpline
 70
8
 71
3
 72
8
 73
4
 74
0
 40
0
 40
0
 40
0
 40
0
 40
1
 40
1
 40
1
 40
1
 10
232.408508
 20
522.431194
 30
0.0
 10
228.398426
 20
543.896257
 30
0.0
 10
209.661938
 20
559.456573
 30
0.0
 10
187.825508
 20
559.456573
 30
0.0
  0
SPLINE
  5
10a
100
AcDbEntity
  8
Visible
 62
7
100
AcDbSpline
 70
8
 71
3
 72
8
 73
4
 74
0
 40
0
 40
0
 40
0
 40
0
 40
1
 40
1
 40
1
 40
1
 10
187.825508
 20
559.456573
 30
0.0
 10
165.989077
 20
559.456573
 30
0.0
 10
147.252589
 20
543.896257
 30
0.0
 10
143.242508
 20
522.431194
 30
0.0
  0
LWPOLYLINE
  5
10b
100
AcDbEntity
  8
Visible
 62
7
100
AcDbPolyline
 90
2
 70
0
 10
145.643933
 20
519.629846
 30
0.0
 10
143.242508
 20
522.431194
 30
0.0
  0
LWPOLYLINE
  5
10c
100
AcDbEntity
  8
Visible
 62
7
100
AcDbPolyline
 90
2
 70
0
 10
210.164558
 20
519.629846
 30
0.0
 10
230.007083
 20
519.629846
 30
0.0
  0
LWPOLYLINE
  5
10d
100
AcDbEntity
  8
Visible
 62
7
100
AcDbPolyline
 90
2
 70
0
 10
232.408508
 20
522.431194
 30
0.0
 10
230.007083
 20
519.629846
 30
0.0
  0
LWPOLYLINE
  5
10e
100
AcDbEntity
  8
Visible
 62
7
100
AcDbPolyline
 90
2
 70
0
 10
368.894182
 20
528.901046
 30
0.0
 10
359.320132
 20
534.428606
 30
0.0
  0
LWPOLYLINE
  5
10f
100
AcDbEntity
  8
Visible
 62
7
100
AcDbPolyline
 90
2
 70
0
 10
378.815407
 20
546.085166
 30
0.0
 10
368.894182
 20
528.901046
 30
0.0
  0
SPLINE
  5
110
100
AcDbEntity
  8
Visible
 62
7
100
AcDbSpline
 70
8
 71
3
 72
8
 73
4
 74
0
 40
0
 40
0
 40
0
 40
0
 40
1
 40
1
 40
1
 40
1
 10
382.442182
 20
477.873056
 30
0.0
 10
392.501776
 20
486.489657
 30
0.0
 10
398.291969
 20
499.073202
 30
0.0
 10
398.291969
 20
512.318625
 30
0.0
  0
SPLINE
  5
111
100
AcDbEntity
  8
Visible
 62
7
100
AcDbSpline
 70
8
 71
3
 72
8
 73
4
 74
0
 40
0
 40
0
 40
0
 40
0
 40
1
 40
1
 40
1
 40
1
 10
398.291969
 20
512.318625
 30
0.0
 10
398.291969
 20
525.564048
 30
0.0
 10
392.501776
 20
538.147593
 30
0.0
 10
382.442182
 20
546.764194
 30
0.0
  0
LWPOLYLINE
  5
112
100
AcDbEntity
  8
Visible
 62
7
100
AcDbPolyline
 90
2
 70
0
 10
378.815407
 20
546.085166
 30
0.0
 10
382.442182
 20
546.764186
 30
0.0
  0
LWPOLYLINE
  5
113
100
AcDbEntity
  8
Visible
 62
7
100
AcDbPolyline
 90
2
 70
0
 10
382.442182
 20
477.873056
 30
0.0
 10
378.815407
 20
478.552076
 30
0.0
  0
LWPOLYLINE
  5
114
100
AcDbEntity
  8
Visible
 62
7
100
AcDbPolyline
 90
2
 70
0
 10
368.894182
 20
495.736196
 30
0.0
 10
378.815407
 20
478.552076
 30
0.0
  0
LWPOLYLINE
  5
115
100
AcDbEntity
  8
Visible
 62
7
100
AcDbPolyline
 90
2
 70
0
 10
359.320132
 20
490.208636
 30
0.0
 10
368.894182
 20
495.736196
 30
0.0
  0
LWPOLYLINE
  5
116
100
AcDbEntity
  8
Visible
 62
7
100
AcDbPolyline
 90
2
 70
0
 10
369.241432
 20
473.024516
 30
0.0
 10
359.320132
 20
490.208636
 30
0.0
  0
SPLINE
  5
117
100
AcDbEntity
  8
Visible
 62
7
100
AcDbSpline
 70
8
 71
3
 72
8
 73
4
 74
0
 40
0
 40
0
 40
0
 40
0
 40
1
 40
1
 40
1
 40
1
 10
308.354632
 20
503.989721
 30
0.0
 10
310.787033
 20
490.969564
 30
0.0
 10
318.789603
 20
479.663344
 30
0.0
 10
330.260469
 20
473.040634
 30
0.0
  0
SPLINE
  5
118
100
AcDbEntity
  8
Visible
 62
7
100
AcDbSpline
 70
8
 71
3
 72
8
 73
4
 74
0
 40
0
 40
0
 40
0
 40
0
 40
1
 40
1
 40
1
 40
1
 10
330.260469
 20
473.040634
 30
0.0
 10
341.731336
 20
466.417924
 30
0.0
 10
355.524094
 20
465.140602
 30
0.0
 10
368.016082
 20
469.544156
 30
0.0
  0
LWPOLYLINE
  5
119
100
AcDbEntity
  8
Visible
 62
7
100
AcDbPolyline
 90
2
 70
0
 10
369.241432
 20
473.024516
 30
0.0
 10
368.016082
 20
469.544156
 30
0.0
  0
LWPOLYLINE
  5
11a
100
AcDbEntity
  8
Visible
 62
7
100
AcDbPolyline
 90
2
 70
0
 10
308.354632
 20
503.989721
 30
0.0
 10
310.756057
 20
506.791069
 30
0.0
  0
LWPOLYLINE
  5
11b
100
AcDbEntity
  8
Visible
 62
7
100
AcDbPolyline
 90
2
 70
0
 10
330.598583
 20
506.791069
 30
0.0
 10
310.756057
 20
506.791069
 30
0.0
  0
LWPOLYLINE
  5
11c
100
AcDbEntity
  8
Visible
 62
7
100
AcDbPolyline
 90
2
 70
0
 10
330.598583
 20
517.846181
 30
0.0
 10
330.598583
 20
506.791069
 30
0.0
  0
LWPOLYLINE
  5
11d
100
AcDbEntity
  8
Visible
 62
7
100
AcDbPolyline
 90
2
 70
0
 10
310.756057
 20
517.846181
 30
0.0
 10
330.598583
 20
517.846181
 30
0.0
  0
SPLINE
  5
11e
100
AcDbEntity
  8
Visible
 62
7
100
AcDbSpline
 70
8
 71
3
 72
8
 73
4
 74
0
 40
0
 40
0
 40
0
 40
0
 40
1
 40
1
 40
1
 40
1
 10
368.016082
 20
555.093094
 30
0.0
 10
355.524094
 20
559.496648
 30
0.0
 10
341.731336
 20
558.219326
 30
0.0
 10
330.260469
 20
551.596616
 30
0.0
  0
SPLINE
  5
11f
100
AcDbEntity
  8
Visible
 62
7
100
AcDbSpline
 70
8
 71
3
 72
8
 73
4
 74
0
 40
0
 40
0
 40
0
 40
0
 40
1
 40
1
 40
1
 40
1
 10
330.260469
 20
551.596616
 30
0.0
 10
318.789603
 20
544.973906
 30
0.0
 10
310.787033
 20
533.667686
 30
0.0
 10
308.354633
 20
520.647529
 30
0.0
  0
LWPOLYLINE
  5
120
100
AcDbEntity
  8
Visible
 62
7
100
AcDbPolyline
 90
2
 70
0
 10
310.756057
 20
517.846181
 30
0.0
 10
308.354632
 20
520.647529
 30
0.0
  0
LWPOLYLINE
  5
121
100
AcDbEntity
  8
Visible
 62
7
100
AcDbPolyline
 90
2
 70
0
 10
359.320132
 20
534.428606
 30
0.0
 10
369.241432
 20
551.612726
 30
0.0
  0
LWPOLYLINE
  5
122
100
AcDbEntity
  8
Visible
 62
7
100
AcDbPolyline
 90
2
 70
0
 10
368.016082
 20
555.093094
 30
0.0
 10
369.241432
 20
551.612726
 30
0.0
  0
LWPOLYLINE
  5
123
100
AcDbEntity
  8
Visible
 62
7
100
AcDbPolyline
 90
2
 70
0
 10
471.851033
 20
534.657694
 30
0.0
 10
460.795883
 20
534.657694
 30
0.0
  0
LWPOLYLINE
  5
124
100
AcDbEntity
  8
Visible
 62
7
100
AcDbPolyline
 90
2
 70
0
 10
471.851033
 20
554.500211
 30
0.0
 10
471.851033
 20
534.657694
 30
0.0
  0
SPLINE
  5
125
100
AcDbEntity
  8
Visible
 62
7
100
AcDbSpline
 70
8
 71
3
 72
8
 73
4
 74
0
 40
0
 40
0
 40
0
 40
0
 40
1
 40
1
 40
1
 40
1
 10
510.906457
 20
520.647529
 30
0.0
 10
507.466901
 20
539.058815
 30
0.0
 10
493.063643
 20
553.462076
 30
0.0
 10
474.652357
 20
556.901636
 30
0.0
  0
LWPOLYLINE
  5
126
100
AcDbEntity
  8
Visible
 62
7
100
AcDbPolyline
 90
2
 70
0
 10
471.851033
 20
554.500211
 30
0.0
 10
474.652357
 20
556.901629
 30
0.0
  0
LWPOLYLINE
  5
127
100
AcDbEntity
  8
Visible
 62
7
100
AcDbPolyline
 90
2
 70
0
 10
510.906457
 20
520.647529
 30
0.0
 10
508.505032
 20
517.846181
 30
0.0
  0
LWPOLYLINE
  5
128
100
AcDbEntity
  8
Visible
 62
7
100
AcDbPolyline
 90
2
 70
0
 10
488.662508
 20
517.846181
 30
0.0
 10
508.505032
 20
517.846181
 30
0.0
  0
LWPOLYLINE
  5
129
100
AcDbEntity
  8
Visible
 62
7
100
AcDbPolyline
 90
2
 70
0
 10
488.662508
 20
506.791069
 30
0.0
 10
488.662508
 20
517.846181
 30
0.0
  0
LWPOLYLINE
  5
12a
100
AcDbEntity
  8
Visible
 62
7
100
AcDbPolyline
 90
2
 70
0
 10
508.505032
 20
506.791069
 30
0.0
 10
488.662508
 20
506.791069
 30
0.0
  0
SPLINE
  5
12b
100
AcDbEntity
  8
Visible
 62
7
100
AcDbSpline
 70
8
 71
3
 72
8
 73
4
 74
0
 40
0
 40
0
 40
0
 40
0
 40
1
 40
1
 40
1
 40
1
 10
474.652357
 20
467.735614
 30
0.0
 10
493.063643
 20
471.175174
 30
0.0
 10
507.466901
 20
485.578435
 30
0.0
 10
510.906457
 20
503.989721
 30
0.0
  0
LWPOLYLINE
  5
12c
100
AcDbEntity
  8
Visible
 62
7
100
AcDbPolyline
 90
2
 70
0
 10
508.505032
 20
506.791069
 30
0.0
 10
510.906457
 20
503.989721
 30
0.0
  0
LWPOLYLINE
  5
12d
100
AcDbEntity
  8
Visible
 62
7
100
AcDbPolyline
 90
2
 70
0
 10
474.652357
 20
467.735614
 30
0.0
 10
471.851033
 20
470.137031
 30
0.0
  0
LWPOLYLINE
  5
12e
100
AcDbEntity
  8
Visible
 62
7
100
AcDbPolyline
 90
2
 70
0
 10
471.851033
 20
489.979549
 30
0.0
 10
471.851033
 20
470.137031
 30
0.0
  0
LWPOLYLINE
  5
12f
100
AcDbEntity
  8
Visible
 62
7
100
AcDbPolyline
 90
2
 70
0
 10
460.795883
 20
489.979549
 30
0.0
 10
471.851033
 20
489.979549
 30
0.0
  0
LWPOLYLINE
  5
130
100
AcDbEntity
  8
Visible
 62
7
100
AcDbPolyline
 90
2
 70
0
 10
460.795883
 20
470.137031
 30
0.0
 10
460.795883
 20
489.979549
 30
0.0
  0
SPLINE
  5
131
100
AcDbEntity
  8
Visible
 62
7
100
AcDbSpline
 70
8
 71
3
 72
8
 73
4
 74
0
 40
0
 40
0
 40
0
 40
0
 40
1
 40
1
 40
1
 40
1
 10
421.740457
 20
503.989721
 30
0.0
 10
425.180014
 20
485.578435
 30
0.0
 10
439.583272
 20
471.175174
 30
0.0
 10
457.994558
 20
467.735614
 30
0.0
  0
LWPOLYLINE
  5
132
100
AcDbEntity
  8
Visible
 62
7
100
AcDbPolyline
 90
2
 70
0
 10
460.795883
 20
470.137031
 30
0.0
 10
457.994558
 20
467.735614
 30
0.0
  0
LWPOLYLINE
  5
133
100
AcDbEntity
  8
Visible
 62
7
100
AcDbPolyline
 90
2
 70
0
 10
421.740458
 20
503.989721
 30
0.0
 10
424.141883
 20
506.791069
 30
0.0
  0
LWPOLYLINE
  5
134
100
AcDbEntity
  8
Visible
 62
7
100
AcDbPolyline
 90
2
 70
0
 10
443.984408
 20
506.791069
 30
0.0
 10
424.141883
 20
506.791069
 30
0.0
  0
LWPOLYLINE
  5
135
100
AcDbEntity
  8
Visible
 62
7
100
AcDbPolyline
 90
2
 70
0
 10
443.984408
 20
517.846181
 30
0.0
 10
443.984408
 20
506.791069
 30
0.0
  0
LWPOLYLINE
  5
136
100
AcDbEntity
  8
Visible
 62
7
100
AcDbPolyline
 90
2
 70
0
 10
424.141883
 20
517.846181
 30
0.0
 10
443.984408
 20
517.846181
 30
0.0
  0
SPLINE
  5
137
100
AcDbEntity
  8
Visible
 62
7
100
AcDbSpline
 70
8
 71
3
 72
8
 73
4
 74
0
 40
0
 40
0
 40
0
 40
0
 40
1
 40
1
 40
1
 40
1
 10
457.994558
 20
556.901636
 30
0.0
 10
439.583272
 20
553.462076
 30
0.0
 10
425.180014
 20
539.058815
 30
0.0
 10
421.740457
 20
520.647529
 30
0.0
  0
LWPOLYLINE
  5
138
100
AcDbEntity
  8
Visible
 62
7
100
AcDbPolyline
 90
2
 70
0
 10
424.141883
 20
517.846181
 30
0.0
 10
421.740458
 20
520.647529
 30
0.0
  0
LWPOLYLINE
  5
139
100
AcDbEntity
  8
Visible
 62
7
100
AcDbPolyline
 90
2
 70
0
 10
460.795883
 20
534.657694
 30
0.0
 10
460.795883
 20
554.500211
 30
0.0
  0
LWPOLYLINE
  5
13a
100
AcDbEntity
  8
Visible
 62
7
100
AcDbPolyline
 90
2
 70
0
 10
457.994558
 20
556.901629
 30
0.0
 10
460.795883
 20
554.500211
 30
0.0
  0
LWPOLYLINE
  5
13b
100
AcDbEntity
  8
Visible
 62
7
100
AcDbPolyline
 90
2
 70
0
 10
159.229357
 20
679.267834
 30
0.0
 10
159.229357
 20
668.212721
 30
0.0
  0
LWPOLYLINE
  5
13c
100
AcDbEntity
  8
Visible
 62
7
100
AcDbPolyline
 90
2
 70
0
 10
139.386832
 20
679.267834
 30
0.0
 10
159.229357
 20
679.267834
 30
0.0
  0
LWPOLYLINE
  5
13d
100
AcDbEntity
  8
Visible
 62
7
100
AcDbPolyline
 90
2
 70
0
 10
139.386832
 20
679.267834
 30
0.0
 10
136.985408
 20
682.069181
 30
0.0
  0
LWPOLYLINE
  5
13e
100
AcDbEntity
  8
Visible
 62
7
100
AcDbPolyline
 90
2
 70
0
 10
159.229357
 20
668.212721
 30
0.0
 10
139.386832
 20
668.212721
 30
0.0
  0
LWPOLYLINE
  5
13f
100
AcDbEntity
  8
Visible
 62
7
100
AcDbPolyline
 90
2
 70
0
 10
136.985408
 20
665.411374
 30
0.0
 10
139.386832
 20
668.212721
 30
0.0
  0
LWPOLYLINE
  5
140
100
AcDbEntity
  8
Visible
 62
7
100
AcDbPolyline
 90
2
 70
0
 10
159.120532
 20
679.267834
 30
0.0
 10
159.120532
 20
668.212721
 30
0.0
  0
LWPOLYLINE
  5
141
100
AcDbEntity
  8
Visible
 62
7
100
AcDbPolyline
 90
2
 70
0
 10
139.278008
 20
679.267834
 30
0.0
 10
159.120532
 20
679.267834
 30
0.0
  0
SPLINE
  5
142
100
AcDbEntity
  8
Visible
 62
7
100
AcDbSpline
 70
8
 71
3
 72
8
 73
4
 74
0
 40
0
 40
0
 40
0
 40
0
 40
1
 40
1
 40
1
 40
1
 10
136.876582
 20
665.411374
 30
0.0
 10
141.178938
 20
642.381695
 30
0.0
 10
162.313573
 20
626.418806
 30
0.0
 10
185.641863
 20
628.579189
 30
0.0
  0
SPLINE
  5
143
100
AcDbEntity
  8
Visible
 62
7
100
AcDbSpline
 70
8
 71
3
 72
8
 73
4
 74
0
 40
0
 40
0
 40
0
 40
0
 40
1
 40
1
 40
1
 40
1
 10
185.641863
 20
628.579189
 30
0.0
 10
208.970152
 20
630.739572
 30
0.0
 10
226.813922
 20
650.312167
 30
0.0
 10
226.813922
 20
673.740278
 30
0.0
  0
SPLINE
  5
144
100
AcDbEntity
  8
Visible
 62
7
100
AcDbSpline
 70
8
 71
3
 72
8
 73
4
 74
0
 40
0
 40
0
 40
0
 40
0
 40
1
 40
1
 40
1
 40
1
 10
226.813922
 20
673.740278
 30
0.0
 10
226.813922
 20
697.168388
 30
0.0
 10
208.970152
 20
716.740983
 30
0.0
 10
185.641863
 20
718.901366
 30
0.0
  0
SPLINE
  5
145
100
AcDbEntity
  8
Visible
 62
7
100
AcDbSpline
 70
8
 71
3
 72
8
 73
4
 74
0
 40
0
 40
0
 40
0
 40
0
 40
1
 40
1
 40
1
 40
1
 10
185.641863
 20
718.901366
 30
0.0
 10
162.313573
 20
721.061749
 30
0.0
 10
141.178938
 20
705.098860
 30
0.0
 10
136.876582
 20
682.069181
 30
0.0
  0
LWPOLYLINE
  5
146
100
AcDbEntity
  8
Visible
 62
7
100
AcDbPolyline
 90
2
 70
0
 10
139.278008
 20
679.267834
 30
0.0
 10
136.876582
 20
682.069181
 30
0.0
  0
LWPOLYLINE
  5
147
100
AcDbEntity
  8
Visible
 62
7
100
AcDbPolyline
 90
2
 70
0
 10
159.120532
 20
668.212721
 30
0.0
 10
139.278008
 20
668.212721
 30
0.0
  0
LWPOLYLINE
  5
148
100
AcDbEntity
  8
Visible
 62
7
100
AcDbPolyline
 90
2
 70
0
 10
136.876582
 20
665.411374
 30
0.0
 10
139.278008
 20
668.212721
 30
0.0
  0
ENDSEC
  0
SECTION
  2
OBJECTS
  0
DICTIONARY
  5
C
330
0
100
AcDbDictionary
  3
ACAD_GROUP
350
D
  3
ACAD_MLINESTYLE
350
17
  0
DICTIONARY
  5
D
330
C
100
AcDbDictionary
  0
DICTIONARY
  5
1A
330
C
100
AcDbDictionary
  0
DICTIONARY
  5
17
330
C
100
AcDbDictionary
  3
STANDARD
350
18
  0
DICTIONARY
  5
19
330
C
100
AcDbDictionary
  0
ENDSEC
  0
EOF
