ISO-10303-21;
HEADER;
/* Generated by software containing ST-Developer
 * from STEP Tools, Inc. (www.steptools.com) 
 */

FILE_DESCRIPTION(
/* description */ (''),
/* implementation_level */ '2;1');

FILE_NAME(
/* name */ 'C:/Users/dshur/OneDrive/Desktop/Handle.step',
/* time_stamp */ '2020-05-11T02:12:26+03:00',
/* author */ (''),
/* organization */ (''),
/* preprocessor_version */ 'ST-DEVELOPER v18',
/* originating_system */ 'Autodesk Translation Framework v8.12.0.6',
/* authorisation */ '');

FILE_SCHEMA (('AUTOMOTIVE_DESIGN { 1 0 10303 214 3 1 1 }'));
ENDSEC;

DATA;
#10=MECHANICAL_DESIGN_GEOMETRIC_PRESENTATION_REPRESENTATION('',(#13),#493);
#11=SHAPE_REPRESENTATION_RELATIONSHIP('SRR','None',#500,#12);
#12=ADVANCED_BREP_SHAPE_REPRESENTATION('',(#14),#492);
#13=STYLED_ITEM('',(#509),#14);
#14=MANIFOLD_SOLID_BREP('Body1',#262);
#15=(
BOUNDED_SURFACE()
B_SPLINE_SURFACE(2,2,((#398,#399,#400,#401,#402,#403,#404,#405,#406),(#407,
#408,#409,#410,#411,#412,#413,#414,#415),(#416,#417,#418,#419,#420,#421,
#422,#423,#424),(#425,#426,#427,#428,#429,#430,#431,#432,#433),(#434,#435,
#436,#437,#438,#439,#440,#441,#442)),.UNSPECIFIED.,.F.,.T.,.F.)
B_SPLINE_SURFACE_WITH_KNOTS((3,2,3),(3,2,2,2,3),(-1.5707963267949,-0.73144191898911,
0.107912488816677),(-3.14159265358979,-1.5707963267949,0.,1.5707963267949,
3.14159265358979),.UNSPECIFIED.)
GEOMETRIC_REPRESENTATION_ITEM()
RATIONAL_B_SPLINE_SURFACE(((1.,0.707106781186548,1.,0.707106781186548,1.,
0.707106781186548,1.,0.707106781186548,1.),(0.913220516222118,0.645744419739339,
0.913220516222118,0.645744419739339,0.913220516222118,0.645744419739339,
0.913220516222118,0.645744419739339,0.913220516222118),(1.,0.707106781186548,
1.,0.707106781186548,1.,0.707106781186548,1.,0.707106781186548,1.),(0.913220516222101,
0.645744419739327,0.913220516222101,0.645744419739327,0.913220516222101,
0.645744419739327,0.913220516222101,0.645744419739327,0.913220516222101),
(1.,0.707106781186548,1.,0.707106781186548,1.,0.707106781186548,1.,0.707106781186548,
1.)))
REPRESENTATION_ITEM('')
SURFACE()
);
#16=FACE_BOUND('',#96,.T.);
#17=PLANE('',#285);
#18=PLANE('',#289);
#19=PLANE('',#290);
#20=PLANE('',#291);
#21=PLANE('',#292);
#22=PLANE('',#293);
#23=PLANE('',#294);
#24=PLANE('',#295);
#25=PLANE('',#296);
#26=PLANE('',#297);
#27=PLANE('',#298);
#28=LINE('',#385,#53);
#29=LINE('',#392,#54);
#30=LINE('',#394,#55);
#31=LINE('',#396,#56);
#32=LINE('',#397,#57);
#33=LINE('',#452,#58);
#34=LINE('',#454,#59);
#35=LINE('',#456,#60);
#36=LINE('',#458,#61);
#37=LINE('',#459,#62);
#38=LINE('',#461,#63);
#39=LINE('',#462,#64);
#40=LINE('',#465,#65);
#41=LINE('',#467,#66);
#42=LINE('',#468,#67);
#43=LINE('',#471,#68);
#44=LINE('',#472,#69);
#45=LINE('',#475,#70);
#46=LINE('',#476,#71);
#47=LINE('',#478,#72);
#48=LINE('',#481,#73);
#49=LINE('',#482,#74);
#50=LINE('',#485,#75);
#51=LINE('',#486,#76);
#52=LINE('',#488,#77);
#53=VECTOR('',#315,15.);
#54=VECTOR('',#322,10.);
#55=VECTOR('',#323,10.);
#56=VECTOR('',#324,10.);
#57=VECTOR('',#325,10.);
#58=VECTOR('',#336,10.);
#59=VECTOR('',#337,10.);
#60=VECTOR('',#338,10.);
#61=VECTOR('',#339,10.);
#62=VECTOR('',#340,10.);
#63=VECTOR('',#341,10.);
#64=VECTOR('',#342,10.);
#65=VECTOR('',#345,10.);
#66=VECTOR('',#346,10.);
#67=VECTOR('',#347,10.);
#68=VECTOR('',#350,10.);
#69=VECTOR('',#351,10.);
#70=VECTOR('',#354,10.);
#71=VECTOR('',#355,10.);
#72=VECTOR('',#358,10.);
#73=VECTOR('',#361,10.);
#74=VECTOR('',#362,10.);
#75=VECTOR('',#365,10.);
#76=VECTOR('',#366,10.);
#77=VECTOR('',#369,10.);
#78=CONICAL_SURFACE('',#282,15.,0.107912488816677);
#79=FACE_OUTER_BOUND('',#93,.T.);
#80=FACE_OUTER_BOUND('',#94,.T.);
#81=FACE_OUTER_BOUND('',#95,.T.);
#82=FACE_OUTER_BOUND('',#97,.T.);
#83=FACE_OUTER_BOUND('',#98,.T.);
#84=FACE_OUTER_BOUND('',#99,.T.);
#85=FACE_OUTER_BOUND('',#100,.T.);
#86=FACE_OUTER_BOUND('',#101,.T.);
#87=FACE_OUTER_BOUND('',#102,.T.);
#88=FACE_OUTER_BOUND('',#103,.T.);
#89=FACE_OUTER_BOUND('',#104,.T.);
#90=FACE_OUTER_BOUND('',#105,.T.);
#91=FACE_OUTER_BOUND('',#106,.T.);
#92=FACE_OUTER_BOUND('',#107,.T.);
#93=EDGE_LOOP('',(#177,#178,#179,#180,#181,#182));
#94=EDGE_LOOP('',(#183,#184,#185,#186,#187,#188));
#95=EDGE_LOOP('',(#189,#190,#191,#192));
#96=EDGE_LOOP('',(#193,#194));
#97=EDGE_LOOP('',(#195,#196,#197,#198,#199,#200));
#98=EDGE_LOOP('',(#201,#202));
#99=EDGE_LOOP('',(#203,#204,#205,#206,#207,#208,#209,#210));
#100=EDGE_LOOP('',(#211,#212,#213,#214));
#101=EDGE_LOOP('',(#215,#216,#217,#218));
#102=EDGE_LOOP('',(#219,#220,#221,#222));
#103=EDGE_LOOP('',(#223,#224,#225,#226));
#104=EDGE_LOOP('',(#227,#228,#229,#230));
#105=EDGE_LOOP('',(#231,#232,#233,#234));
#106=EDGE_LOOP('',(#235,#236,#237,#238));
#107=EDGE_LOOP('',(#239,#240,#241,#242,#243,#244,#245,#246));
#108=CIRCLE('',#277,9.34000823625157);
#109=CIRCLE('',#278,7.);
#110=CIRCLE('',#279,16.2992899050247);
#111=CIRCLE('',#280,16.2992899050247);
#112=CIRCLE('',#281,9.34000823625157);
#113=CIRCLE('',#283,13.7999882339263);
#114=CIRCLE('',#284,13.7999882339263);
#115=CIRCLE('',#286,10.);
#116=CIRCLE('',#287,3.85815727853608);
#117=CIRCLE('',#288,3.85815727853608);
#118=VERTEX_POINT('',#374);
#119=VERTEX_POINT('',#375);
#120=VERTEX_POINT('',#377);
#121=VERTEX_POINT('',#379);
#122=VERTEX_POINT('',#384);
#123=VERTEX_POINT('',#386);
#124=VERTEX_POINT('',#390);
#125=VERTEX_POINT('',#391);
#126=VERTEX_POINT('',#393);
#127=VERTEX_POINT('',#395);
#128=VERTEX_POINT('',#443);
#129=VERTEX_POINT('',#445);
#130=VERTEX_POINT('',#450);
#131=VERTEX_POINT('',#451);
#132=VERTEX_POINT('',#453);
#133=VERTEX_POINT('',#455);
#134=VERTEX_POINT('',#457);
#135=VERTEX_POINT('',#460);
#136=VERTEX_POINT('',#464);
#137=VERTEX_POINT('',#466);
#138=VERTEX_POINT('',#470);
#139=VERTEX_POINT('',#474);
#140=VERTEX_POINT('',#480);
#141=VERTEX_POINT('',#484);
#142=EDGE_CURVE('',#118,#119,#108,.T.);
#143=EDGE_CURVE('',#119,#120,#109,.T.);
#144=EDGE_CURVE('',#120,#121,#110,.T.);
#145=EDGE_CURVE('',#121,#120,#111,.T.);
#146=EDGE_CURVE('',#119,#118,#112,.T.);
#147=EDGE_CURVE('',#119,#122,#28,.T.);
#148=EDGE_CURVE('',#123,#122,#113,.T.);
#149=EDGE_CURVE('',#122,#123,#114,.T.);
#150=EDGE_CURVE('',#124,#125,#29,.T.);
#151=EDGE_CURVE('',#126,#125,#30,.T.);
#152=EDGE_CURVE('',#127,#126,#31,.T.);
#153=EDGE_CURVE('',#124,#127,#32,.T.);
#154=EDGE_CURVE('',#122,#128,#115,.T.);
#155=EDGE_CURVE('',#128,#129,#116,.T.);
#156=EDGE_CURVE('',#129,#128,#117,.T.);
#157=EDGE_CURVE('',#130,#131,#33,.T.);
#158=EDGE_CURVE('',#131,#132,#34,.T.);
#159=EDGE_CURVE('',#132,#133,#35,.T.);
#160=EDGE_CURVE('',#133,#134,#36,.T.);
#161=EDGE_CURVE('',#134,#124,#37,.T.);
#162=EDGE_CURVE('',#127,#135,#38,.T.);
#163=EDGE_CURVE('',#135,#130,#39,.T.);
#164=EDGE_CURVE('',#136,#131,#40,.T.);
#165=EDGE_CURVE('',#137,#136,#41,.T.);
#166=EDGE_CURVE('',#132,#137,#42,.T.);
#167=EDGE_CURVE('',#138,#137,#43,.T.);
#168=EDGE_CURVE('',#133,#138,#44,.T.);
#169=EDGE_CURVE('',#139,#138,#45,.T.);
#170=EDGE_CURVE('',#134,#139,#46,.T.);
#171=EDGE_CURVE('',#125,#139,#47,.T.);
#172=EDGE_CURVE('',#140,#126,#48,.T.);
#173=EDGE_CURVE('',#135,#140,#49,.T.);
#174=EDGE_CURVE('',#141,#140,#50,.T.);
#175=EDGE_CURVE('',#130,#141,#51,.T.);
#176=EDGE_CURVE('',#136,#141,#52,.T.);
#177=ORIENTED_EDGE('',*,*,#142,.T.);
#178=ORIENTED_EDGE('',*,*,#143,.T.);
#179=ORIENTED_EDGE('',*,*,#144,.T.);
#180=ORIENTED_EDGE('',*,*,#145,.T.);
#181=ORIENTED_EDGE('',*,*,#143,.F.);
#182=ORIENTED_EDGE('',*,*,#146,.T.);
#183=ORIENTED_EDGE('',*,*,#142,.F.);
#184=ORIENTED_EDGE('',*,*,#146,.F.);
#185=ORIENTED_EDGE('',*,*,#147,.T.);
#186=ORIENTED_EDGE('',*,*,#148,.F.);
#187=ORIENTED_EDGE('',*,*,#149,.F.);
#188=ORIENTED_EDGE('',*,*,#147,.F.);
#189=ORIENTED_EDGE('',*,*,#150,.T.);
#190=ORIENTED_EDGE('',*,*,#151,.F.);
#191=ORIENTED_EDGE('',*,*,#152,.F.);
#192=ORIENTED_EDGE('',*,*,#153,.F.);
#193=ORIENTED_EDGE('',*,*,#145,.F.);
#194=ORIENTED_EDGE('',*,*,#144,.F.);
#195=ORIENTED_EDGE('',*,*,#148,.T.);
#196=ORIENTED_EDGE('',*,*,#154,.T.);
#197=ORIENTED_EDGE('',*,*,#155,.T.);
#198=ORIENTED_EDGE('',*,*,#156,.T.);
#199=ORIENTED_EDGE('',*,*,#154,.F.);
#200=ORIENTED_EDGE('',*,*,#149,.T.);
#201=ORIENTED_EDGE('',*,*,#156,.F.);
#202=ORIENTED_EDGE('',*,*,#155,.F.);
#203=ORIENTED_EDGE('',*,*,#157,.T.);
#204=ORIENTED_EDGE('',*,*,#158,.T.);
#205=ORIENTED_EDGE('',*,*,#159,.T.);
#206=ORIENTED_EDGE('',*,*,#160,.T.);
#207=ORIENTED_EDGE('',*,*,#161,.T.);
#208=ORIENTED_EDGE('',*,*,#153,.T.);
#209=ORIENTED_EDGE('',*,*,#162,.T.);
#210=ORIENTED_EDGE('',*,*,#163,.T.);
#211=ORIENTED_EDGE('',*,*,#164,.F.);
#212=ORIENTED_EDGE('',*,*,#165,.F.);
#213=ORIENTED_EDGE('',*,*,#166,.F.);
#214=ORIENTED_EDGE('',*,*,#158,.F.);
#215=ORIENTED_EDGE('',*,*,#166,.T.);
#216=ORIENTED_EDGE('',*,*,#167,.F.);
#217=ORIENTED_EDGE('',*,*,#168,.F.);
#218=ORIENTED_EDGE('',*,*,#159,.F.);
#219=ORIENTED_EDGE('',*,*,#168,.T.);
#220=ORIENTED_EDGE('',*,*,#169,.F.);
#221=ORIENTED_EDGE('',*,*,#170,.F.);
#222=ORIENTED_EDGE('',*,*,#160,.F.);
#223=ORIENTED_EDGE('',*,*,#170,.T.);
#224=ORIENTED_EDGE('',*,*,#171,.F.);
#225=ORIENTED_EDGE('',*,*,#150,.F.);
#226=ORIENTED_EDGE('',*,*,#161,.F.);
#227=ORIENTED_EDGE('',*,*,#152,.T.);
#228=ORIENTED_EDGE('',*,*,#172,.F.);
#229=ORIENTED_EDGE('',*,*,#173,.F.);
#230=ORIENTED_EDGE('',*,*,#162,.F.);
#231=ORIENTED_EDGE('',*,*,#173,.T.);
#232=ORIENTED_EDGE('',*,*,#174,.F.);
#233=ORIENTED_EDGE('',*,*,#175,.F.);
#234=ORIENTED_EDGE('',*,*,#163,.F.);
#235=ORIENTED_EDGE('',*,*,#175,.T.);
#236=ORIENTED_EDGE('',*,*,#176,.F.);
#237=ORIENTED_EDGE('',*,*,#164,.T.);
#238=ORIENTED_EDGE('',*,*,#157,.F.);
#239=ORIENTED_EDGE('',*,*,#176,.T.);
#240=ORIENTED_EDGE('',*,*,#174,.T.);
#241=ORIENTED_EDGE('',*,*,#172,.T.);
#242=ORIENTED_EDGE('',*,*,#151,.T.);
#243=ORIENTED_EDGE('',*,*,#171,.T.);
#244=ORIENTED_EDGE('',*,*,#169,.T.);
#245=ORIENTED_EDGE('',*,*,#167,.T.);
#246=ORIENTED_EDGE('',*,*,#165,.T.);
#247=TOROIDAL_SURFACE('',#276,16.2992899050247,7.);
#248=ADVANCED_FACE('',(#79),#247,.F.);
#249=ADVANCED_FACE('',(#80),#78,.T.);
#250=ADVANCED_FACE('',(#81,#16),#17,.T.);
#251=ADVANCED_FACE('',(#82),#15,.F.);
#252=ADVANCED_FACE('',(#83),#18,.F.);
#253=ADVANCED_FACE('',(#84),#19,.T.);
#254=ADVANCED_FACE('',(#85),#20,.T.);
#255=ADVANCED_FACE('',(#86),#21,.T.);
#256=ADVANCED_FACE('',(#87),#22,.T.);
#257=ADVANCED_FACE('',(#88),#23,.T.);
#258=ADVANCED_FACE('',(#89),#24,.T.);
#259=ADVANCED_FACE('',(#90),#25,.T.);
#260=ADVANCED_FACE('',(#91),#26,.T.);
#261=ADVANCED_FACE('',(#92),#27,.T.);
#262=CLOSED_SHELL('',(#248,#249,#250,#251,#252,#253,#254,#255,#256,#257,
#258,#259,#260,#261));
#263=DERIVED_UNIT_ELEMENT(#265,1.);
#264=DERIVED_UNIT_ELEMENT(#495,3.);
#265=(
MASS_UNIT()
NAMED_UNIT(*)
SI_UNIT(.KILO.,.GRAM.)
);
#266=DERIVED_UNIT((#263,#264));
#267=MEASURE_REPRESENTATION_ITEM('density measure',
POSITIVE_RATIO_MEASURE(7850.),#266);
#268=PROPERTY_DEFINITION_REPRESENTATION(#273,#270);
#269=PROPERTY_DEFINITION_REPRESENTATION(#274,#271);
#270=REPRESENTATION('material name',(#272),#492);
#271=REPRESENTATION('density',(#267),#492);
#272=DESCRIPTIVE_REPRESENTATION_ITEM('Steel','Steel');
#273=PROPERTY_DEFINITION('material property','material name',#502);
#274=PROPERTY_DEFINITION('material property','density of part',#502);
#275=AXIS2_PLACEMENT_3D('placement',#372,#299,#300);
#276=AXIS2_PLACEMENT_3D('',#373,#301,#302);
#277=AXIS2_PLACEMENT_3D('',#376,#303,#304);
#278=AXIS2_PLACEMENT_3D('',#378,#305,#306);
#279=AXIS2_PLACEMENT_3D('',#380,#307,#308);
#280=AXIS2_PLACEMENT_3D('',#381,#309,#310);
#281=AXIS2_PLACEMENT_3D('',#382,#311,#312);
#282=AXIS2_PLACEMENT_3D('',#383,#313,#314);
#283=AXIS2_PLACEMENT_3D('',#387,#316,#317);
#284=AXIS2_PLACEMENT_3D('',#388,#318,#319);
#285=AXIS2_PLACEMENT_3D('',#389,#320,#321);
#286=AXIS2_PLACEMENT_3D('',#444,#326,#327);
#287=AXIS2_PLACEMENT_3D('',#446,#328,#329);
#288=AXIS2_PLACEMENT_3D('',#447,#330,#331);
#289=AXIS2_PLACEMENT_3D('',#448,#332,#333);
#290=AXIS2_PLACEMENT_3D('',#449,#334,#335);
#291=AXIS2_PLACEMENT_3D('',#463,#343,#344);
#292=AXIS2_PLACEMENT_3D('',#469,#348,#349);
#293=AXIS2_PLACEMENT_3D('',#473,#352,#353);
#294=AXIS2_PLACEMENT_3D('',#477,#356,#357);
#295=AXIS2_PLACEMENT_3D('',#479,#359,#360);
#296=AXIS2_PLACEMENT_3D('',#483,#363,#364);
#297=AXIS2_PLACEMENT_3D('',#487,#367,#368);
#298=AXIS2_PLACEMENT_3D('',#489,#370,#371);
#299=DIRECTION('axis',(0.,0.,1.));
#300=DIRECTION('refdir',(1.,0.,0.));
#301=DIRECTION('center_axis',(0.,6.05641471349647E-17,1.));
#302=DIRECTION('ref_axis',(1.,0.,0.));
#303=DIRECTION('center_axis',(0.,0.,1.));
#304=DIRECTION('ref_axis',(-1.,-9.5093965362131E-16,0.));
#305=DIRECTION('center_axis',(9.53010181126357E-17,-1.,6.05641471349647E-17));
#306=DIRECTION('ref_axis',(-1.,-9.53010181126357E-17,0.));
#307=DIRECTION('center_axis',(0.,-6.05641471349647E-17,-1.));
#308=DIRECTION('ref_axis',(-1.,-8.33563197375964E-16,5.04840441321696E-32));
#309=DIRECTION('center_axis',(0.,-6.05641471349647E-17,-1.));
#310=DIRECTION('ref_axis',(-1.,-8.33563197375964E-16,5.04840441321696E-32));
#311=DIRECTION('center_axis',(0.,0.,1.));
#312=DIRECTION('ref_axis',(-1.,-9.5093965362131E-16,0.));
#313=DIRECTION('center_axis',(0.,0.,-1.));
#314=DIRECTION('ref_axis',(1.,0.,0.));
#315=DIRECTION('',(-0.107703168683394,-1.31898340786146E-17,-0.994183095539024));
#316=DIRECTION('center_axis',(0.,0.,-1.));
#317=DIRECTION('ref_axis',(-1.,-1.60902024814159E-16,0.));
#318=DIRECTION('center_axis',(0.,0.,-1.));
#319=DIRECTION('ref_axis',(-1.,-1.60902024814159E-16,0.));
#320=DIRECTION('center_axis',(0.,-6.05641471349647E-17,-1.));
#321=DIRECTION('ref_axis',(0.,1.,-6.05641471349647E-17));
#322=DIRECTION('',(1.,0.,0.));
#323=DIRECTION('',(0.,1.,-6.05641471349647E-17));
#324=DIRECTION('',(1.,0.,0.));
#325=DIRECTION('',(0.,-1.,6.05641471349647E-17));
#326=DIRECTION('center_axis',(1.60226645189646E-16,-1.,0.));
#327=DIRECTION('ref_axis',(-1.,-1.60226645189646E-16,0.));
#328=DIRECTION('center_axis',(0.,0.,1.));
#329=DIRECTION('ref_axis',(-1.,1.48029736616688E-16,0.));
#330=DIRECTION('center_axis',(0.,0.,1.));
#331=DIRECTION('ref_axis',(-1.,1.48029736616688E-16,0.));
#332=DIRECTION('center_axis',(0.,0.,1.));
#333=DIRECTION('ref_axis',(1.,0.,0.));
#334=DIRECTION('center_axis',(-1.,0.,0.));
#335=DIRECTION('ref_axis',(0.,0.,1.));
#336=DIRECTION('',(0.,-0.342020143325669,-0.939692620785909));
#337=DIRECTION('',(0.,1.,-3.10864289669211E-17));
#338=DIRECTION('',(0.,-0.342020143325668,0.939692620785909));
#339=DIRECTION('',(0.,1.,-2.21700458660317E-9));
#340=DIRECTION('',(0.,0.342020143325668,-0.939692620785909));
#341=DIRECTION('',(0.,0.342020143325669,0.939692620785909));
#342=DIRECTION('',(0.,1.,-2.26102413238371E-8));
#343=DIRECTION('center_axis',(0.,3.10864289669211E-17,1.));
#344=DIRECTION('ref_axis',(0.,-1.,3.10864289669211E-17));
#345=DIRECTION('',(-1.,0.,0.));
#346=DIRECTION('',(0.,-1.,3.10864289669211E-17));
#347=DIRECTION('',(1.,0.,0.));
#348=DIRECTION('center_axis',(0.,-0.939692620785909,-0.342020143325668));
#349=DIRECTION('ref_axis',(0.,0.342020143325668,-0.939692620785909));
#350=DIRECTION('',(0.,0.342020143325668,-0.939692620785909));
#351=DIRECTION('',(1.,0.,0.));
#352=DIRECTION('center_axis',(0.,2.21700458660317E-9,1.));
#353=DIRECTION('ref_axis',(0.,-1.,2.21700458660317E-9));
#354=DIRECTION('',(0.,-1.,2.21700458660317E-9));
#355=DIRECTION('',(1.,0.,0.));
#356=DIRECTION('center_axis',(0.,0.939692620785909,0.342020143325668));
#357=DIRECTION('ref_axis',(0.,-0.342020143325668,0.939692620785909));
#358=DIRECTION('',(0.,-0.342020143325668,0.939692620785909));
#359=DIRECTION('center_axis',(0.,-0.939692620785909,0.342020143325669));
#360=DIRECTION('ref_axis',(0.,-0.342020143325669,-0.939692620785909));
#361=DIRECTION('',(0.,-0.342020143325669,-0.939692620785909));
#362=DIRECTION('',(1.,0.,0.));
#363=DIRECTION('center_axis',(0.,2.26102413238372E-8,1.));
#364=DIRECTION('ref_axis',(0.,-1.,2.26102413238371E-8));
#365=DIRECTION('',(0.,-1.,2.26102413238371E-8));
#366=DIRECTION('',(1.,0.,0.));
#367=DIRECTION('center_axis',(0.,0.939692620785909,-0.342020143325669));
#368=DIRECTION('ref_axis',(0.,0.342020143325669,0.939692620785909));
#369=DIRECTION('',(0.,0.342020143325669,0.939692620785909));
#370=DIRECTION('center_axis',(1.,0.,0.));
#371=DIRECTION('ref_axis',(0.,0.,-1.));
#372=CARTESIAN_POINT('',(0.,0.,0.));
#373=CARTESIAN_POINT('Origin',(45.,17.5,-14.));
#374=CARTESIAN_POINT('',(54.3400082362516,17.5,-14.7539221807838));
#375=CARTESIAN_POINT('',(35.6599917637484,17.5,-14.7539221807838));
#376=CARTESIAN_POINT('Origin',(45.,17.5,-14.7539221807838));
#377=CARTESIAN_POINT('',(28.7007100949753,17.5,-7.));
#378=CARTESIAN_POINT('Origin',(28.7007100949753,17.5,-14.));
#379=CARTESIAN_POINT('',(61.2992899050247,17.5,-7.));
#380=CARTESIAN_POINT('Origin',(45.,17.5,-7.));
#381=CARTESIAN_POINT('Origin',(45.,17.5,-7.));
#382=CARTESIAN_POINT('Origin',(45.,17.5,-14.7539221807838));
#383=CARTESIAN_POINT('Origin',(45.,17.5,-67.));
#384=CARTESIAN_POINT('',(31.2000117660737,17.5,-55.9229683131661));
#385=CARTESIAN_POINT('',(30.,17.5,-67.));
#386=CARTESIAN_POINT('',(58.7999882339263,17.5,-55.9229683131661));
#387=CARTESIAN_POINT('Origin',(45.,17.5,-55.9229683131661));
#388=CARTESIAN_POINT('Origin',(45.,17.5,-55.9229683131661));
#389=CARTESIAN_POINT('Origin',(45.,-9.9970360471948,-7.));
#390=CARTESIAN_POINT('',(20.,44.9970360471948,-7.));
#391=CARTESIAN_POINT('',(70.,44.9970360471948,-7.));
#392=CARTESIAN_POINT('',(45.,44.9970360471948,-7.));
#393=CARTESIAN_POINT('',(70.,-9.9970360471948,-7.));
#394=CARTESIAN_POINT('',(70.,-9.9970360471948,-7.));
#395=CARTESIAN_POINT('',(20.,-9.9970360471948,-7.));
#396=CARTESIAN_POINT('',(45.,-9.9970360471948,-7.));
#397=CARTESIAN_POINT('',(20.,-9.9970360471948,-7.));
#398=CARTESIAN_POINT('Ctrl Pts',(41.1418427214639,17.5,-67.));
#399=CARTESIAN_POINT('Ctrl Pts',(41.1418427214639,13.6418427214639,-67.));
#400=CARTESIAN_POINT('Ctrl Pts',(45.,13.6418427214639,-67.));
#401=CARTESIAN_POINT('Ctrl Pts',(48.8581572785361,13.6418427214639,-67.));
#402=CARTESIAN_POINT('Ctrl Pts',(48.8581572785361,17.5,-67.));
#403=CARTESIAN_POINT('Ctrl Pts',(48.8581572785361,21.3581572785361,-67.));
#404=CARTESIAN_POINT('Ctrl Pts',(45.,21.3581572785361,-67.));
#405=CARTESIAN_POINT('Ctrl Pts',(41.1418427214639,21.3581572785361,-67.));
#406=CARTESIAN_POINT('Ctrl Pts',(41.1418427214639,17.5,-67.));
#407=CARTESIAN_POINT('Ctrl Pts',(36.6799884043893,17.5,-67.));
#408=CARTESIAN_POINT('Ctrl Pts',(36.6799884043893,9.17998840438935,-67.));
#409=CARTESIAN_POINT('Ctrl Pts',(45.,9.17998840438935,-67.));
#410=CARTESIAN_POINT('Ctrl Pts',(53.3200115956107,9.17998840438935,-67.));
#411=CARTESIAN_POINT('Ctrl Pts',(53.3200115956107,17.5,-67.));
#412=CARTESIAN_POINT('Ctrl Pts',(53.3200115956107,25.8200115956106,-67.));
#413=CARTESIAN_POINT('Ctrl Pts',(45.,25.8200115956106,-67.));
#414=CARTESIAN_POINT('Ctrl Pts',(36.6799884043893,25.8200115956106,-67.));
#415=CARTESIAN_POINT('Ctrl Pts',(36.6799884043893,17.5,-67.));
#416=CARTESIAN_POINT('Ctrl Pts',(33.6997221611552,17.5,-63.6794342249797));
#417=CARTESIAN_POINT('Ctrl Pts',(33.6997221611552,6.19972216115521,-63.6794342249797));
#418=CARTESIAN_POINT('Ctrl Pts',(45.,6.1997221611552,-63.6794342249797));
#419=CARTESIAN_POINT('Ctrl Pts',(56.3002778388448,6.19972216115521,-63.6794342249797));
#420=CARTESIAN_POINT('Ctrl Pts',(56.3002778388448,17.5,-63.6794342249797));
#421=CARTESIAN_POINT('Ctrl Pts',(56.3002778388448,28.8002778388448,-63.6794342249797));
#422=CARTESIAN_POINT('Ctrl Pts',(45.,28.8002778388448,-63.6794342249797));
#423=CARTESIAN_POINT('Ctrl Pts',(33.6997221611552,28.8002778388448,-63.6794342249797));
#424=CARTESIAN_POINT('Ctrl Pts',(33.6997221611552,17.5,-63.6794342249797));
#425=CARTESIAN_POINT('Ctrl Pts',(30.7194559179211,17.5,-60.3588684499594));
#426=CARTESIAN_POINT('Ctrl Pts',(30.7194559179211,3.21945591792106,-60.3588684499594));
#427=CARTESIAN_POINT('Ctrl Pts',(45.,3.21945591792106,-60.3588684499594));
#428=CARTESIAN_POINT('Ctrl Pts',(59.2805440820789,3.21945591792106,-60.3588684499594));
#429=CARTESIAN_POINT('Ctrl Pts',(59.2805440820789,17.5,-60.3588684499594));
#430=CARTESIAN_POINT('Ctrl Pts',(59.2805440820789,31.7805440820789,-60.3588684499594));
#431=CARTESIAN_POINT('Ctrl Pts',(45.,31.7805440820789,-60.3588684499594));
#432=CARTESIAN_POINT('Ctrl Pts',(30.7194559179211,31.7805440820789,-60.3588684499594));
#433=CARTESIAN_POINT('Ctrl Pts',(30.7194559179211,17.5,-60.3588684499594));
#434=CARTESIAN_POINT('Ctrl Pts',(31.2000117660737,17.5,-55.9229683131661));
#435=CARTESIAN_POINT('Ctrl Pts',(31.2000117660737,3.70001176607368,-55.9229683131661));
#436=CARTESIAN_POINT('Ctrl Pts',(45.,3.70001176607368,-55.9229683131661));
#437=CARTESIAN_POINT('Ctrl Pts',(58.7999882339263,3.70001176607368,-55.9229683131661));
#438=CARTESIAN_POINT('Ctrl Pts',(58.7999882339263,17.5,-55.9229683131661));
#439=CARTESIAN_POINT('Ctrl Pts',(58.7999882339263,31.2999882339263,-55.9229683131661));
#440=CARTESIAN_POINT('Ctrl Pts',(45.,31.2999882339263,-55.9229683131661));
#441=CARTESIAN_POINT('Ctrl Pts',(31.2000117660737,31.2999882339263,-55.9229683131661));
#442=CARTESIAN_POINT('Ctrl Pts',(31.2000117660737,17.5,-55.9229683131661));
#443=CARTESIAN_POINT('',(41.1418427214639,17.5,-67.));
#444=CARTESIAN_POINT('Origin',(41.1418427214639,17.5,-57.));
#445=CARTESIAN_POINT('',(48.8581572785361,17.5,-67.));
#446=CARTESIAN_POINT('Origin',(45.,17.5,-67.));
#447=CARTESIAN_POINT('Origin',(45.,17.5,-67.));
#448=CARTESIAN_POINT('Origin',(45.,17.5,-67.));
#449=CARTESIAN_POINT('Origin',(20.,17.5,-1.02576833162797));
#450=CARTESIAN_POINT('',(20.,1.53504885769965,4.94846317433019));
#451=CARTESIAN_POINT('',(20.,-0.35703700168553,-0.25));
#452=CARTESIAN_POINT('',(20.,1.53504885769965,4.94846317433019));
#453=CARTESIAN_POINT('',(20.,35.3570370016855,-0.250000000000001));
#454=CARTESIAN_POINT('',(20.,-0.35703700168553,-0.25));
#455=CARTESIAN_POINT('',(20.,33.4649511680653,4.94846310354145));
#456=CARTESIAN_POINT('',(20.,35.3570370016855,-0.250000000000001));
#457=CARTESIAN_POINT('',(20.,40.648151138074,4.94846308761626));
#458=CARTESIAN_POINT('',(20.,33.4649511680653,4.94846310354145));
#459=CARTESIAN_POINT('',(20.,44.9970360471948,-7.));
#460=CARTESIAN_POINT('',(20.,-5.64815107733011,4.94846333674407));
#461=CARTESIAN_POINT('',(20.,-3.19135202140204,11.6984631848086));
#462=CARTESIAN_POINT('',(20.,1.53504885769965,4.94846317433019));
#463=CARTESIAN_POINT('Origin',(45.,35.3570370016855,-0.250000000000001));
#464=CARTESIAN_POINT('',(70.,-0.35703700168553,-0.25));
#465=CARTESIAN_POINT('',(45.,-0.35703700168553,-0.25));
#466=CARTESIAN_POINT('',(70.,35.3570370016855,-0.250000000000001));
#467=CARTESIAN_POINT('',(70.,-0.35703700168553,-0.25));
#468=CARTESIAN_POINT('',(45.,35.3570370016855,-0.250000000000001));
#469=CARTESIAN_POINT('Origin',(45.,33.4649511680653,4.94846310354145));
#470=CARTESIAN_POINT('',(70.,33.4649511680653,4.94846310354145));
#471=CARTESIAN_POINT('',(70.,35.3570370016855,-0.250000000000001));
#472=CARTESIAN_POINT('',(45.,33.4649511680653,4.94846310354145));
#473=CARTESIAN_POINT('Origin',(45.,40.648151138074,4.94846308761626));
#474=CARTESIAN_POINT('',(70.,40.648151138074,4.94846308761626));
#475=CARTESIAN_POINT('',(70.,33.4649511680653,4.94846310354145));
#476=CARTESIAN_POINT('',(45.,40.648151138074,4.94846308761626));
#477=CARTESIAN_POINT('Origin',(45.,44.9970360471948,-7.));
#478=CARTESIAN_POINT('',(70.,44.9970360471948,-7.));
#479=CARTESIAN_POINT('Origin',(45.,-5.64815105090022,4.94846332712438));
#480=CARTESIAN_POINT('',(70.,-5.64815107733011,4.94846333674407));
#481=CARTESIAN_POINT('',(70.,-3.19135202140204,11.6984631848086));
#482=CARTESIAN_POINT('',(45.,-5.64815107733011,4.94846333674407));
#483=CARTESIAN_POINT('Origin',(45.,1.53504885769965,4.94846317433019));
#484=CARTESIAN_POINT('',(70.,1.53504885769965,4.94846317433019));
#485=CARTESIAN_POINT('',(70.,1.53504885769965,4.94846317433019));
#486=CARTESIAN_POINT('',(45.,1.53504885769965,4.94846317433019));
#487=CARTESIAN_POINT('Origin',(45.,-0.35703700168553,-0.25));
#488=CARTESIAN_POINT('',(70.,1.53504885769965,4.94846317433019));
#489=CARTESIAN_POINT('Origin',(70.,17.5,-1.02576833162797));
#490=UNCERTAINTY_MEASURE_WITH_UNIT(LENGTH_MEASURE(0.01),#494,
'DISTANCE_ACCURACY_VALUE',
'Maximum model space distance between geometric entities at asserted c
onnectivities');
#491=UNCERTAINTY_MEASURE_WITH_UNIT(LENGTH_MEASURE(0.01),#494,
'DISTANCE_ACCURACY_VALUE',
'Maximum model space distance between geometric entities at asserted c
onnectivities');
#492=(
GEOMETRIC_REPRESENTATION_CONTEXT(3)
GLOBAL_UNCERTAINTY_ASSIGNED_CONTEXT((#490))
GLOBAL_UNIT_ASSIGNED_CONTEXT((#494,#496,#497))
REPRESENTATION_CONTEXT('','3D')
);
#493=(
GEOMETRIC_REPRESENTATION_CONTEXT(3)
GLOBAL_UNCERTAINTY_ASSIGNED_CONTEXT((#491))
GLOBAL_UNIT_ASSIGNED_CONTEXT((#494,#496,#497))
REPRESENTATION_CONTEXT('','3D')
);
#494=(
LENGTH_UNIT()
NAMED_UNIT(*)
SI_UNIT(.MILLI.,.METRE.)
);
#495=(
LENGTH_UNIT()
NAMED_UNIT(*)
SI_UNIT($,.METRE.)
);
#496=(
NAMED_UNIT(*)
PLANE_ANGLE_UNIT()
SI_UNIT($,.RADIAN.)
);
#497=(
NAMED_UNIT(*)
SI_UNIT($,.STERADIAN.)
SOLID_ANGLE_UNIT()
);
#498=SHAPE_DEFINITION_REPRESENTATION(#499,#500);
#499=PRODUCT_DEFINITION_SHAPE('',$,#502);
#500=SHAPE_REPRESENTATION('',(#275),#492);
#501=PRODUCT_DEFINITION_CONTEXT('part definition',#506,'design');
#502=PRODUCT_DEFINITION('handle','handle',#503,#501);
#503=PRODUCT_DEFINITION_FORMATION('',$,#508);
#504=PRODUCT_RELATED_PRODUCT_CATEGORY('handle','handle',(#508));
#505=APPLICATION_PROTOCOL_DEFINITION('international standard',
'automotive_design',2009,#506);
#506=APPLICATION_CONTEXT(
'Core Data for Automotive Mechanical Design Process');
#507=PRODUCT_CONTEXT('part definition',#506,'mechanical');
#508=PRODUCT('handle','handle',$,(#507));
#509=PRESENTATION_STYLE_ASSIGNMENT((#510));
#510=SURFACE_STYLE_USAGE(.BOTH.,#511);
#511=SURFACE_SIDE_STYLE('',(#512));
#512=SURFACE_STYLE_FILL_AREA(#513);
#513=FILL_AREA_STYLE('Steel - Satin',(#514));
#514=FILL_AREA_STYLE_COLOUR('Steel - Satin',#515);
#515=COLOUR_RGB('Steel - Satin',0.627450980392157,0.627450980392157,0.627450980392157);
ENDSEC;
END-ISO-10303-21;
