  0
SECTION
  2
HEADER
  9
$ACADVER
  1
AC1009
  9
$INSBASE
 10
0.0
 20
0.0
 30
0.0
  9
$EXTMIN
 10
-0.0000000000000019
 20
3.0
 30
0.0
  9
$EXTMAX
 10
296.7200000000000273
 20
146.4799999999999898
 30
0.0
  9
$LIMMIN
 10
0.0
 20
0.0
  9
$LIMMAX
 10
12.0
 20
9.0
  9
$ORTHOMODE
 70
     0
  9
$REGENMODE
 70
     1
  9
$FILLMODE
 70
     1
  9
$QTEXTMODE
 70
     0
  9
$MIRRTEXT
 70
     0
  9
$DRAGMODE
 70
     2
  9
$LTSCALE
 40
1.0
  9
$OSMODE
 70
    37
  9
$ATTMODE
 70
     1
  9
$TEXTSIZE
 40
0.2
  9
$TRACEWID
 40
0.05
  9
$TEXTSTYLE
  7
STANDARD
  9
$CLAYER
  8
0
  9
$CELTYPE
  6
CONTINUOUS
  9
$CECOLOR
 62
   256
  9
$DIMSCALE
 40
1.0
  9
$DIMASZ
 40
0.18
  9
$DIMEXO
 40
0.0625
  9
$DIMDLI
 40
0.38
  9
$DIMRND
 40
0.0
  9
$DIMDLE
 40
0.0
  9
$DIMEXE
 40
0.18
  9
$DIMTP
 40
0.0
  9
$DIMTM
 40
0.0
  9
$DIMTXT
 40
0.18
  9
$DIMCEN
 40
0.09
  9
$DIMTSZ
 40
0.0
  9
$DIMTOL
 70
     0
  9
$DIMLIM
 70
     0
  9
$DIMTIH
 70
     1
  9
$DIMTOH
 70
     1
  9
$DIMSE1
 70
     0
  9
$DIMSE2
 70
     0
  9
$DIMTAD
 70
     0
  9
$DIMZIN
 70
     0
  9
$DIMBLK
  1

  9
$DIMASO
 70
     1
  9
$DIMSHO
 70
     1
  9
$DIMPOST
  1

  9
$DIMAPOST
  1

  9
$DIMALT
 70
     0
  9
$DIMALTD
 70
     2
  9
$DIMALTF
 40
25.3999999999999986
  9
$DIMLFAC
 40
1.0
  9
$DIMTOFL
 70
     0
  9
$DIMTVP
 40
0.0
  9
$DIMTIX
 70
     0
  9
$DIMSOXD
 70
     0
  9
$DIMSAH
 70
     0
  9
$DIMBLK1
  1

  9
$DIMBLK2
  1

  9
$DIMSTYLE
  2
STANDARD
  9
$DIMCLRD
 70
     0
  9
$DIMCLRE
 70
     0
  9
$DIMCLRT
 70
     0
  9
$DIMTFAC
 40
1.0
  9
$DIMGAP
 40
0.09
  9
$LUNITS
 70
     2
  9
$LUPREC
 70
     4
  9
$SKETCHINC
 40
0.1
  9
$FILLETRAD
 40
0.0
  9
$AUNITS
 70
     0
  9
$AUPREC
 70
     0
  9
$MENU
  1
.
  9
$ELEVATION
 40
0.0
  9
$PELEVATION
 40
0.0
  9
$THICKNESS
 40
0.0
  9
$LIMCHECK
 70
     0
  9
$BLIPMODE
 70
     0
  9
$CHAMFERA
 40
0.0
  9
$CHAMFERB
 40
0.0
  9
$SKPOLY
 70
     0
  9
$TDCREATE
 40
2459031.5631597219035029
  9
$TDUPDATE
 40
2459031.5657060178928077
  9
$TDINDWG
 40
0.0025578704
  9
$TDUSRTIMER
 40
0.0025578704
  9
$USRTIMER
 70
     1
  9
$ANGBASE
 50
0.0
  9
$ANGDIR
 70
     0
  9
$PDMODE
 70
     0
  9
$PDSIZE
 40
0.0
  9
$PLINEWID
 40
0.0
  9
$COORDS
 70
     1
  9
$SPLFRAME
 70
     0
  9
$SPLINETYPE
 70
     6
  9
$SPLINESEGS
 70
     8
  9
$ATTDIA
 70
     1
  9
$ATTREQ
 70
     1
  9
$HANDLING
 70
     1
  9
$HANDSEED
  5
261
  9
$SURFTAB1
 70
     6
  9
$SURFTAB2
 70
     6
  9
$SURFTYPE
 70
     6
  9
$SURFU
 70
     6
  9
$SURFV
 70
     6
  9
$UCSNAME
  2

  9
$UCSORG
 10
0.0
 20
0.0
 30
0.0
  9
$UCSXDIR
 10
1.0
 20
0.0
 30
0.0
  9
$UCSYDIR
 10
0.0
 20
1.0
 30
0.0
  9
$PUCSNAME
  2

  9
$PUCSORG
 10
0.0
 20
0.0
 30
0.0
  9
$PUCSXDIR
 10
1.0
 20
0.0
 30
0.0
  9
$PUCSYDIR
 10
0.0
 20
1.0
 30
0.0
  9
$USERI1
 70
     0
  9
$USERI2
 70
     0
  9
$USERI3
 70
     0
  9
$USERI4
 70
     0
  9
$USERI5
 70
     0
  9
$USERR1
 40
0.0
  9
$USERR2
 40
0.0
  9
$USERR3
 40
0.0
  9
$USERR4
 40
0.0
  9
$USERR5
 40
0.0
  9
$WORLDVIEW
 70
     1
  9
$SHADEDGE
 70
     3
  9
$SHADEDIF
 70
    70
  9
$TILEMODE
 70
     1
  9
$MAXACTVP
 70
    64
  9
$PLIMCHECK
 70
     0
  9
$PEXTMIN
 10
1.0000000000000000E+20
 20
1.0000000000000000E+20
 30
1.0000000000000000E+20
  9
$PEXTMAX
 10
-1.0000000000000000E+20
 20
-1.0000000000000000E+20
 30
-1.0000000000000000E+20
  9
$PLIMMIN
 10
0.0
 20
0.0
  9
$PLIMMAX
 10
12.0
 20
9.0
  9
$UNITMODE
 70
     0
  9
$VISRETAIN
 70
     1
  9
$PLINEGEN
 70
     0
  9
$PSLTSCALE
 70
     1
  0
ENDSEC
  0
SECTION
  2
TABLES
  0
TABLE
  2
VPORT
 70
     1
  0
VPORT
  2
*ACTIVE
 70
     0
 10
0.0
 20
0.0
 11
1.0
 21
1.0
 12
157.6028012913552914
 22
62.8591383632188823
 13
0.0
 23
0.0
 14
1.0
 24
1.0
 15
0.0
 25
0.0
 16
0.0
 26
0.0
 36
1.0
 17
0.0
 27
0.0
 37
0.0
 40
236.4300797254657027
 41
2.114519427402862
 42
50.0
 43
0.0
 44
0.0
 50
0.0
 51
0.0
 71
     0
 72
   100
 73
     1
 74
     0
 75
     1
 76
     0
 77
     0
 78
     0
  0
ENDTAB
  0
TABLE
  2
LTYPE
 70
     2
  0
LTYPE
  2
CONTINUOUS
 70
     0
  3
Solid line
 72
    65
 73
     0
 40
0.0
  0
ENDTAB
  0
TABLE
  2
LAYER
 70
     7
  0
LAYER
  2
0
 70
     0
 62
     7
  6
CONTINUOUS
  0
LAYER
  2
FRONT_OUTSIDECUTPATH
 70
     0
 62
     7
  6
CONTINUOUS
  0
LAYER
  2
LEFT_OUTSIDECUTPATH
 70
     0
 62
     7
  6
CONTINUOUS
  0
LAYER
  2
TOP_OUTSIDECUTPATH
 70
     0
 62
     7
  6
CONTINUOUS
  0
LAYER
  2
BACK_OUTSIDECUTPATH
 70
     0
 62
     7
  6
CONTINUOUS
  0
LAYER
  2
RIGHT_OUTSIDECUTPATH
 70
     0
 62
     7
  6
CONTINUOUS
  0
LAYER
  2
BOTTOM_OUTSIDECUTPATH
 70
     0
 62
     7
  6
CONTINUOUS
  0
ENDTAB
  0
TABLE
  2
STYLE
 70
     2
  0
STYLE
  2
STANDARD
 70
     0
 40
0.0
 41
1.0
 50
0.0
 71
     0
 42
0.2
  3
txt
  4

  0
STYLE
  2
ANNOTATIVE
 70
     0
 40
0.0
 41
1.0
 50
0.0
 71
     0
 42
0.2
  3
txt
  4

  0
ENDTAB
  0
TABLE
  2
VIEW
 70
     0
  0
ENDTAB
  0
TABLE
  2
UCS
 70
     0
  0
ENDTAB
  0
TABLE
  2
APPID
 70
     5
  0
APPID
  2
ACAD
 70
     0
  0
APPID
  2
ACADANNOTATIVE
 70
     0
  0
APPID
  2
ACAD_EXEMPT_FROM_CAD_STANDARDS
 70
     0
  0
APPID
  2
ACAD_NAV_VCDISPLAY
 70
     0
  0
APPID
  2
ACAD_MLEADERVER
 70
     0
  0
ENDTAB
  0
TABLE
  2
DIMSTYLE
 70
     3
  0
DIMSTYLE
  2
STANDARD
 70
     0
  3

  4

  5

  6

  7

 40
1.0
 41
0.18
 42
0.0625
 43
0.38
 44
0.18
 45
0.0
 46
0.0
 47
0.0
 48
0.0
140
0.18
141
0.09
142
0.0
143
25.3999999999999986
144
1.0
145
0.0
146
1.0
147
0.09
 71
     0
 72
     0
 73
     1
 74
     1
 75
     0
 76
     0
 77
     0
 78
     0
170
     0
171
     2
172
     0
173
     0
174
     0
175
     0
176
     0
177
     0
178
     0
  0
DIMSTYLE
  2
ANNOTATIVE
 70
     0
  3

  4

  5

  6

  7

 40
1.0
 41
0.18
 42
0.0625
 43
0.38
 44
0.18
 45
0.0
 46
0.0
 47
0.0
 48
0.0
140
0.18
141
0.09
142
0.0
143
25.3999999999999986
144
1.0
145
0.0
146
1.0
147
0.09
 71
     0
 72
     0
 73
     1
 74
     1
 75
     0
 76
     0
 77
     0
 78
     0
170
     0
171
     2
172
     0
173
     0
174
     0
175
     0
176
     0
177
     0
178
     0
  0
ENDTAB
  0
ENDSEC
  0
SECTION
  2
BLOCKS
  0
BLOCK
  8
0
  2
$MODEL_SPACE
 70
     0
 10
0.0
 20
0.0
 30
0.0
  3
$MODEL_SPACE
  1

  0
ENDBLK
  5
71
  8
0
  0
BLOCK
 67
     1
  8
0
  2
$PAPER_SPACE
 70
     0
 10
0.0
 20
0.0
 30
0.0
  3
$PAPER_SPACE
  1

  0
ENDBLK
  5
6D
 67
     1
  8
0
  0
ENDSEC
  0
SECTION
  2
ENTITIES
  0
LINE
  5
76
  8
FRONT_OUTSIDECUTPATH
 10
21.4899999999999984
 20
3.070294399999999
 30
0.0
 11
21.4899999999999984
 21
4.6500000000000004
 31
0.0
  0
LINE
  5
77
  8
FRONT_OUTSIDECUTPATH
 10
21.4899999999999984
 20
4.6500000000000004
 30
0.0
 11
34.75
 21
4.6500000000000004
 31
0.0
  0
LINE
  5
78
  8
FRONT_OUTSIDECUTPATH
 10
34.75
 20
4.6500000000000004
 30
0.0
 11
34.75
 21
3.070294399999999
 31
0.0
  0
LINE
  5
79
  8
FRONT_OUTSIDECUTPATH
 10
34.75
 20
3.070294399999999
 30
0.0
 11
34.8202944000000016
 21
3.0
 31
0.0
  0
LINE
  5
7A
  8
FRONT_OUTSIDECUTPATH
 10
34.8202944000000016
 20
3.0
 30
0.0
 11
48.4197056000000003
 21
3.0
 31
0.0
  0
LINE
  5
7B
  8
FRONT_OUTSIDECUTPATH
 10
48.4197056000000003
 20
3.0
 30
0.0
 11
48.490000000000002
 21
3.070294399999999
 31
0.0
  0
LINE
  5
7C
  8
FRONT_OUTSIDECUTPATH
 10
48.490000000000002
 20
3.070294399999999
 30
0.0
 11
48.490000000000002
 21
4.6500000000000004
 31
0.0
  0
LINE
  5
7D
  8
FRONT_OUTSIDECUTPATH
 10
48.490000000000002
 20
4.6500000000000004
 30
0.0
 11
61.75
 21
4.6500000000000004
 31
0.0
  0
LINE
  5
7E
  8
FRONT_OUTSIDECUTPATH
 10
61.75
 20
4.6500000000000004
 30
0.0
 11
61.75
 21
3.070294399999999
 31
0.0
  0
LINE
  5
7F
  8
FRONT_OUTSIDECUTPATH
 10
61.75
 20
3.070294399999999
 30
0.0
 11
61.8202944000000016
 21
3.0
 31
0.0
  0
LINE
  5
80
  8
FRONT_OUTSIDECUTPATH
 10
61.8202944000000016
 20
3.0
 30
0.0
 11
75.4197056000000003
 21
3.0
 31
0.0
  0
LINE
  5
81
  8
FRONT_OUTSIDECUTPATH
 10
75.4197056000000003
 20
3.0
 30
0.0
 11
75.4899999999999949
 21
3.070294399999999
 31
0.0
  0
LINE
  5
82
  8
FRONT_OUTSIDECUTPATH
 10
75.4899999999999949
 20
3.070294399999999
 30
0.0
 11
75.4899999999999949
 21
4.6500000000000004
 31
0.0
  0
LINE
  5
83
  8
FRONT_OUTSIDECUTPATH
 10
75.4899999999999949
 20
4.6500000000000004
 30
0.0
 11
88.75
 21
4.6500000000000004
 31
0.0
  0
LINE
  5
84
  8
FRONT_OUTSIDECUTPATH
 10
88.75
 20
4.6500000000000004
 30
0.0
 11
88.75
 21
3.070294399999999
 31
0.0
  0
LINE
  5
85
  8
FRONT_OUTSIDECUTPATH
 10
88.75
 20
3.070294399999999
 30
0.0
 11
88.8202944000000087
 21
3.0
 31
0.0
  0
LINE
  5
86
  8
FRONT_OUTSIDECUTPATH
 10
88.8202944000000087
 20
3.0
 30
0.0
 11
110.1697056000000003
 21
3.0
 31
0.0
  0
LINE
  5
87
  8
FRONT_OUTSIDECUTPATH
 10
110.1697056000000003
 20
3.0
 30
0.0
 11
110.2399999999999949
 21
3.070294399999999
 31
0.0
  0
LINE
  5
88
  8
FRONT_OUTSIDECUTPATH
 10
110.2399999999999949
 20
3.070294399999999
 30
0.0
 11
110.2399999999999949
 21
17.9197056000000003
 31
0.0
  0
LINE
  5
89
  8
FRONT_OUTSIDECUTPATH
 10
110.2399999999999949
 20
17.9197056000000003
 30
0.0
 11
110.1697056000000003
 21
17.9899999999999984
 31
0.0
  0
LINE
  5
8A
  8
FRONT_OUTSIDECUTPATH
 10
110.1697056000000003
 20
17.9899999999999984
 30
0.0
 11
108.5900000000000034
 21
17.9899999999999984
 31
0.0
  0
LINE
  5
8B
  8
FRONT_OUTSIDECUTPATH
 10
108.5900000000000034
 20
17.9899999999999984
 30
0.0
 11
108.5900000000000034
 21
31.25
 31
0.0
  0
LINE
  5
8C
  8
FRONT_OUTSIDECUTPATH
 10
108.5900000000000034
 20
31.25
 30
0.0
 11
110.1697056000000003
 21
31.25
 31
0.0
  0
LINE
  5
8D
  8
FRONT_OUTSIDECUTPATH
 10
110.1697056000000003
 20
31.25
 30
0.0
 11
110.2399999999999949
 21
31.3202944000000016
 31
0.0
  0
LINE
  5
8E
  8
FRONT_OUTSIDECUTPATH
 10
110.2399999999999949
 20
31.3202944000000016
 30
0.0
 11
110.2399999999999949
 21
44.9197056000000075
 31
0.0
  0
LINE
  5
8F
  8
FRONT_OUTSIDECUTPATH
 10
110.2399999999999949
 20
44.9197056000000075
 30
0.0
 11
110.1697056000000003
 21
44.990000000000002
 31
0.0
  0
LINE
  5
90
  8
FRONT_OUTSIDECUTPATH
 10
110.1697056000000003
 20
44.990000000000002
 30
0.0
 11
108.5900000000000034
 21
44.990000000000002
 31
0.0
  0
LINE
  5
91
  8
FRONT_OUTSIDECUTPATH
 10
108.5900000000000034
 20
44.990000000000002
 30
0.0
 11
108.5900000000000034
 21
58.25
 31
0.0
  0
LINE
  5
92
  8
FRONT_OUTSIDECUTPATH
 10
108.5900000000000034
 20
58.25
 30
0.0
 11
110.1697056000000003
 21
58.25
 31
0.0
  0
LINE
  5
93
  8
FRONT_OUTSIDECUTPATH
 10
110.1697056000000003
 20
58.25
 30
0.0
 11
110.2399999999999949
 21
58.3202944000000016
 31
0.0
  0
LINE
  5
94
  8
FRONT_OUTSIDECUTPATH
 10
110.2399999999999949
 20
58.3202944000000016
 30
0.0
 11
110.2399999999999949
 21
62.006846846846841
 31
0.0
  0
LINE
  5
AA
  8
FRONT_OUTSIDECUTPATH
 10
0.0
 20
62.9999999999999929
 30
0.0
 11
0.0
 21
58.3202944000000016
 31
0.0
  0
LINE
  5
AB
  8
FRONT_OUTSIDECUTPATH
 10
0.0
 20
58.3202944000000016
 30
0.0
 11
0.0702944
 21
58.25
 31
0.0
  0
LINE
  5
AC
  8
FRONT_OUTSIDECUTPATH
 10
0.0702944
 20
58.25
 30
0.0
 11
1.649999999999999
 21
58.25
 31
0.0
  0
LINE
  5
AD
  8
FRONT_OUTSIDECUTPATH
 10
1.649999999999999
 20
58.25
 30
0.0
 11
1.649999999999999
 21
44.990000000000002
 31
0.0
  0
LINE
  5
AE
  8
FRONT_OUTSIDECUTPATH
 10
1.649999999999999
 20
44.990000000000002
 30
0.0
 11
0.0702944
 21
44.990000000000002
 31
0.0
  0
LINE
  5
AF
  8
FRONT_OUTSIDECUTPATH
 10
0.0702944
 20
44.990000000000002
 30
0.0
 11
0.0
 21
44.9197056000000075
 31
0.0
  0
LINE
  5
B0
  8
FRONT_OUTSIDECUTPATH
 10
0.0
 20
44.9197056000000075
 30
0.0
 11
0.0
 21
31.3202944000000016
 31
0.0
  0
LINE
  5
B1
  8
FRONT_OUTSIDECUTPATH
 10
0.0
 20
31.3202944000000016
 30
0.0
 11
0.0702944
 21
31.25
 31
0.0
  0
LINE
  5
B2
  8
FRONT_OUTSIDECUTPATH
 10
0.0702944
 20
31.25
 30
0.0
 11
1.649999999999999
 21
31.25
 31
0.0
  0
LINE
  5
B3
  8
FRONT_OUTSIDECUTPATH
 10
1.649999999999999
 20
31.25
 30
0.0
 11
1.649999999999999
 21
17.9899999999999984
 31
0.0
  0
LINE
  5
B4
  8
FRONT_OUTSIDECUTPATH
 10
1.649999999999999
 20
17.9899999999999984
 30
0.0
 11
0.0702944
 21
17.9899999999999984
 31
0.0
  0
LINE
  5
B5
  8
FRONT_OUTSIDECUTPATH
 10
0.0702944
 20
17.9899999999999984
 30
0.0
 11
0.0
 21
17.9197056000000003
 31
0.0
  0
LINE
  5
B6
  8
FRONT_OUTSIDECUTPATH
 10
0.0
 20
17.9197056000000003
 30
0.0
 11
0.0
 21
3.070294399999999
 31
0.0
  0
LINE
  5
B7
  8
FRONT_OUTSIDECUTPATH
 10
0.0
 20
3.070294399999999
 30
0.0
 11
0.0702944
 21
3.0
 31
0.0
  0
LINE
  5
B8
  8
FRONT_OUTSIDECUTPATH
 10
0.0702944
 20
3.0
 30
0.0
 11
21.4197056000000003
 21
3.0
 31
0.0
  0
LINE
  5
B9
  8
FRONT_OUTSIDECUTPATH
 10
21.4197056000000003
 20
3.0
 30
0.0
 11
21.4899999999999984
 21
3.070294399999999
 31
0.0
  0
LINE
  5
BB
  8
LEFT_OUTSIDECUTPATH
 10
128.2299999999999898
 20
3.070294399999999
 30
0.0
 11
128.2299999999999898
 21
4.6500000000000004
 31
0.0
  0
LINE
  5
BC
  8
LEFT_OUTSIDECUTPATH
 10
128.2299999999999898
 20
4.6500000000000004
 30
0.0
 11
141.4900000000000091
 21
4.6500000000000004
 31
0.0
  0
LINE
  5
BD
  8
LEFT_OUTSIDECUTPATH
 10
141.4900000000000091
 20
4.6500000000000004
 30
0.0
 11
141.4900000000000091
 21
3.070294399999999
 31
0.0
  0
LINE
  5
BE
  8
LEFT_OUTSIDECUTPATH
 10
141.4900000000000091
 20
3.070294399999999
 30
0.0
 11
141.5602944000000036
 21
3.0
 31
0.0
  0
LINE
  5
BF
  8
LEFT_OUTSIDECUTPATH
 10
141.5602944000000036
 20
3.0
 30
0.0
 11
155.1597055999999952
 21
3.0
 31
0.0
  0
LINE
  5
C0
  8
LEFT_OUTSIDECUTPATH
 10
155.1597055999999952
 20
3.0
 30
0.0
 11
155.2299999999999898
 21
3.070294399999999
 31
0.0
  0
LINE
  5
C1
  8
LEFT_OUTSIDECUTPATH
 10
155.2299999999999898
 20
3.070294399999999
 30
0.0
 11
155.2299999999999898
 21
4.6500000000000004
 31
0.0
  0
LINE
  5
C2
  8
LEFT_OUTSIDECUTPATH
 10
155.2299999999999898
 20
4.6500000000000004
 30
0.0
 11
168.4900000000000091
 21
4.6500000000000004
 31
0.0
  0
LINE
  5
C3
  8
LEFT_OUTSIDECUTPATH
 10
168.4900000000000091
 20
4.6500000000000004
 30
0.0
 11
168.4900000000000091
 21
3.070294399999999
 31
0.0
  0
LINE
  5
C4
  8
LEFT_OUTSIDECUTPATH
 10
168.4900000000000091
 20
3.070294399999999
 30
0.0
 11
168.5602944000000036
 21
3.0
 31
0.0
  0
LINE
  5
C5
  8
LEFT_OUTSIDECUTPATH
 10
168.5602944000000036
 20
3.0
 30
0.0
 11
181.7597055999999895
 21
3.0
 31
0.0
  0
LINE
  5
C6
  8
LEFT_OUTSIDECUTPATH
 10
181.7597055999999895
 20
3.0
 30
0.0
 11
181.8300000000000125
 21
3.070294399999999
 31
0.0
  0
LINE
  5
C7
  8
LEFT_OUTSIDECUTPATH
 10
181.8300000000000125
 20
3.070294399999999
 30
0.0
 11
181.8300000000000125
 21
17.75
 31
0.0
  0
LINE
  5
C8
  8
LEFT_OUTSIDECUTPATH
 10
181.8300000000000125
 20
17.75
 30
0.0
 11
183.4097055999999952
 21
17.75
 31
0.0
  0
LINE
  5
C9
  8
LEFT_OUTSIDECUTPATH
 10
183.4097055999999952
 20
17.75
 30
0.0
 11
183.4799999999999898
 21
17.8202944000000016
 31
0.0
  0
LINE
  5
CA
  8
LEFT_OUTSIDECUTPATH
 10
183.4799999999999898
 20
17.8202944000000016
 30
0.0
 11
183.4799999999999898
 21
31.419705600000011
 31
0.0
  0
LINE
  5
CB
  8
LEFT_OUTSIDECUTPATH
 10
183.4799999999999898
 20
31.419705600000011
 30
0.0
 11
183.4097055999999952
 21
31.4899999999999984
 31
0.0
  0
LINE
  5
CC
  8
LEFT_OUTSIDECUTPATH
 10
183.4097055999999952
 20
31.4899999999999984
 30
0.0
 11
181.8300000000000125
 21
31.4899999999999984
 31
0.0
  0
LINE
  5
CD
  8
LEFT_OUTSIDECUTPATH
 10
181.8300000000000125
 20
31.4899999999999984
 30
0.0
 11
181.8300000000000125
 21
44.75
 31
0.0
  0
LINE
  5
CE
  8
LEFT_OUTSIDECUTPATH
 10
181.8300000000000125
 20
44.75
 30
0.0
 11
183.4097055999999952
 21
44.75
 31
0.0
  0
LINE
  5
CF
  8
LEFT_OUTSIDECUTPATH
 10
183.4097055999999952
 20
44.75
 30
0.0
 11
183.4799999999999898
 21
44.8202943999999874
 31
0.0
  0
LINE
  5
D0
  8
LEFT_OUTSIDECUTPATH
 10
183.4799999999999898
 20
44.8202943999999874
 30
0.0
 11
183.4799999999999898
 21
58.4197056000000003
 31
0.0
  0
LINE
  5
D1
  8
LEFT_OUTSIDECUTPATH
 10
183.4799999999999898
 20
58.4197056000000003
 30
0.0
 11
183.4097055999999952
 21
58.490000000000002
 31
0.0
  0
LINE
  5
D2
  8
LEFT_OUTSIDECUTPATH
 10
183.4097055999999952
 20
58.490000000000002
 30
0.0
 11
181.8300000000000125
 21
58.490000000000002
 31
0.0
  0
LINE
  5
D3
  8
LEFT_OUTSIDECUTPATH
 10
181.8300000000000125
 20
58.490000000000002
 30
0.0
 11
181.8300000000000125
 21
73.1697056000000003
 31
0.0
  0
LINE
  5
D4
  8
LEFT_OUTSIDECUTPATH
 10
181.8300000000000125
 20
73.1697056000000003
 30
0.0
 11
181.7597055999999895
 21
73.2399999999999949
 31
0.0
  0
LINE
  5
D5
  8
LEFT_OUTSIDECUTPATH
 10
181.7597055999999895
 20
73.2399999999999949
 30
0.0
 11
168.5602944000000036
 21
73.2399999999999949
 31
0.0
  0
LINE
  5
D6
  8
LEFT_OUTSIDECUTPATH
 10
168.5602944000000036
 20
73.2399999999999949
 30
0.0
 11
168.4900000000000091
 21
73.1697056000000003
 31
0.0
  0
LINE
  5
D7
  8
LEFT_OUTSIDECUTPATH
 10
168.4900000000000091
 20
73.1697056000000003
 30
0.0
 11
168.4900000000000091
 21
71.5900000000000034
 31
0.0
  0
LINE
  5
D8
  8
LEFT_OUTSIDECUTPATH
 10
168.4900000000000091
 20
71.5900000000000034
 30
0.0
 11
155.2299999999999898
 21
71.5900000000000034
 31
0.0
  0
LINE
  5
D9
  8
LEFT_OUTSIDECUTPATH
 10
155.2299999999999898
 20
71.5900000000000034
 30
0.0
 11
155.2299999999999898
 21
73.1697056000000003
 31
0.0
  0
LINE
  5
DA
  8
LEFT_OUTSIDECUTPATH
 10
155.2299999999999898
 20
73.1697056000000003
 30
0.0
 11
155.1597055999999952
 21
73.2399999999999949
 31
0.0
  0
LINE
  5
DB
  8
LEFT_OUTSIDECUTPATH
 10
155.1597055999999952
 20
73.2399999999999949
 30
0.0
 11
141.5602944000000036
 21
73.2399999999999949
 31
0.0
  0
LINE
  5
DC
  8
LEFT_OUTSIDECUTPATH
 10
141.5602944000000036
 20
73.2399999999999949
 30
0.0
 11
141.4900000000000091
 21
73.1697056000000003
 31
0.0
  0
LINE
  5
DD
  8
LEFT_OUTSIDECUTPATH
 10
141.4900000000000091
 20
73.1697056000000003
 30
0.0
 11
141.4900000000000091
 21
71.5900000000000034
 31
0.0
  0
LINE
  5
DE
  8
LEFT_OUTSIDECUTPATH
 10
141.4900000000000091
 20
71.5900000000000034
 30
0.0
 11
128.2299999999999898
 21
71.5900000000000034
 31
0.0
  0
LINE
  5
DF
  8
LEFT_OUTSIDECUTPATH
 10
128.2299999999999898
 20
71.5900000000000034
 30
0.0
 11
128.2299999999999898
 21
73.1697056000000003
 31
0.0
  0
LINE
  5
E0
  8
LEFT_OUTSIDECUTPATH
 10
128.2299999999999898
 20
73.1697056000000003
 30
0.0
 11
128.1597055999999952
 21
73.2399999999999949
 31
0.0
  0
LINE
  5
E1
  8
LEFT_OUTSIDECUTPATH
 10
128.1597055999999952
 20
73.2399999999999949
 30
0.0
 11
114.9602943999999951
 21
73.2399999999999949
 31
0.0
  0
LINE
  5
E2
  8
LEFT_OUTSIDECUTPATH
 10
114.9602943999999951
 20
73.2399999999999949
 30
0.0
 11
114.8900000000000006
 21
73.1697056000000003
 31
0.0
  0
LINE
  5
E3
  8
LEFT_OUTSIDECUTPATH
 10
114.8900000000000006
 20
73.1697056000000003
 30
0.0
 11
114.8900000000000006
 21
58.490000000000002
 31
0.0
  0
LINE
  5
E4
  8
LEFT_OUTSIDECUTPATH
 10
114.8900000000000006
 20
58.490000000000002
 30
0.0
 11
113.3102944000000036
 21
58.490000000000002
 31
0.0
  0
LINE
  5
E5
  8
LEFT_OUTSIDECUTPATH
 10
113.3102944000000036
 20
58.490000000000002
 30
0.0
 11
113.2399999999999949
 21
58.4197056000000003
 31
0.0
  0
LINE
  5
E6
  8
LEFT_OUTSIDECUTPATH
 10
113.2399999999999949
 20
58.4197056000000003
 30
0.0
 11
113.2399999999999949
 21
44.8202943999999874
 31
0.0
  0
LINE
  5
E7
  8
LEFT_OUTSIDECUTPATH
 10
113.2399999999999949
 20
44.8202943999999874
 30
0.0
 11
113.3102944000000036
 21
44.75
 31
0.0
  0
LINE
  5
E8
  8
LEFT_OUTSIDECUTPATH
 10
113.3102944000000036
 20
44.75
 30
0.0
 11
114.8900000000000006
 21
44.75
 31
0.0
  0
LINE
  5
E9
  8
LEFT_OUTSIDECUTPATH
 10
114.8900000000000006
 20
44.75
 30
0.0
 11
114.8900000000000006
 21
31.4899999999999984
 31
0.0
  0
LINE
  5
EA
  8
LEFT_OUTSIDECUTPATH
 10
114.8900000000000006
 20
31.4899999999999984
 30
0.0
 11
113.3102944000000036
 21
31.4899999999999984
 31
0.0
  0
LINE
  5
EB
  8
LEFT_OUTSIDECUTPATH
 10
113.3102944000000036
 20
31.4899999999999984
 30
0.0
 11
113.2399999999999949
 21
31.419705600000011
 31
0.0
  0
LINE
  5
EC
  8
LEFT_OUTSIDECUTPATH
 10
113.2399999999999949
 20
31.419705600000011
 30
0.0
 11
113.2399999999999949
 21
17.8202944000000016
 31
0.0
  0
LINE
  5
ED
  8
LEFT_OUTSIDECUTPATH
 10
113.2399999999999949
 20
17.8202944000000016
 30
0.0
 11
113.3102944000000036
 21
17.75
 31
0.0
  0
LINE
  5
EE
  8
LEFT_OUTSIDECUTPATH
 10
113.3102944000000036
 20
17.75
 30
0.0
 11
114.8900000000000006
 21
17.75
 31
0.0
  0
LINE
  5
EF
  8
LEFT_OUTSIDECUTPATH
 10
114.8900000000000006
 20
17.75
 30
0.0
 11
114.8900000000000006
 21
3.070294399999999
 31
0.0
  0
LINE
  5
F0
  8
LEFT_OUTSIDECUTPATH
 10
114.8900000000000006
 20
3.070294399999999
 30
0.0
 11
114.9602943999999951
 21
3.0
 31
0.0
  0
LINE
  5
F1
  8
LEFT_OUTSIDECUTPATH
 10
114.9602943999999951
 20
3.0
 30
0.0
 11
128.1597055999999952
 21
3.0
 31
0.0
  0
LINE
  5
F2
  8
LEFT_OUTSIDECUTPATH
 10
128.1597055999999952
 20
3.0
 30
0.0
 11
128.2299999999999898
 21
3.070294399999999
 31
0.0
  0
LINE
  5
F4
  8
TOP_OUTSIDECUTPATH
 10
221.4699999999999989
 20
3.070294399999999
 30
0.0
 11
221.4699999999999989
 21
4.6500000000000004
 31
0.0
  0
LINE
  5
F5
  8
TOP_OUTSIDECUTPATH
 10
221.4699999999999989
 20
4.6500000000000004
 30
0.0
 11
234.7299999999999898
 21
4.6500000000000004
 31
0.0
  0
LINE
  5
F6
  8
TOP_OUTSIDECUTPATH
 10
234.7299999999999898
 20
4.6500000000000004
 30
0.0
 11
234.7299999999999898
 21
3.070294399999999
 31
0.0
  0
LINE
  5
F7
  8
TOP_OUTSIDECUTPATH
 10
234.7299999999999898
 20
3.070294399999999
 30
0.0
 11
234.8002944000000127
 21
3.0
 31
0.0
  0
LINE
  5
F8
  8
TOP_OUTSIDECUTPATH
 10
234.8002944000000127
 20
3.0
 30
0.0
 11
248.3997056000000043
 21
3.0
 31
0.0
  0
LINE
  5
F9
  8
TOP_OUTSIDECUTPATH
 10
248.3997056000000043
 20
3.0
 30
0.0
 11
248.4699999999999989
 21
3.070294399999999
 31
0.0
  0
LINE
  5
FA
  8
TOP_OUTSIDECUTPATH
 10
248.4699999999999989
 20
3.070294399999999
 30
0.0
 11
248.4699999999999989
 21
4.6500000000000004
 31
0.0
  0
LINE
  5
FB
  8
TOP_OUTSIDECUTPATH
 10
248.4699999999999989
 20
4.6500000000000004
 30
0.0
 11
261.7300000000000182
 21
4.6500000000000004
 31
0.0
  0
LINE
  5
FC
  8
TOP_OUTSIDECUTPATH
 10
261.7300000000000182
 20
4.6500000000000004
 30
0.0
 11
261.7300000000000182
 21
3.070294399999999
 31
0.0
  0
LINE
  5
FD
  8
TOP_OUTSIDECUTPATH
 10
261.7300000000000182
 20
3.070294399999999
 30
0.0
 11
261.8002943999999843
 21
3.0
 31
0.0
  0
LINE
  5
FE
  8
TOP_OUTSIDECUTPATH
 10
261.8002943999999843
 20
3.0
 30
0.0
 11
275.399705600000118
 21
3.0
 31
0.0
  0
LINE
  5
FF
  8
TOP_OUTSIDECUTPATH
 10
275.399705600000118
 20
3.0
 30
0.0
 11
275.4700000000000273
 21
3.070294399999999
 31
0.0
  0
LINE
  5
100
  8
TOP_OUTSIDECUTPATH
 10
275.4700000000000273
 20
3.070294399999999
 30
0.0
 11
275.4700000000000273
 21
4.6500000000000004
 31
0.0
  0
LINE
  5
101
  8
TOP_OUTSIDECUTPATH
 10
275.4700000000000273
 20
4.6500000000000004
 30
0.0
 11
294.9997056000000271
 21
4.6500000000000004
 31
0.0
  0
LINE
  5
102
  8
TOP_OUTSIDECUTPATH
 10
294.9997056000000271
 20
4.6500000000000004
 30
0.0
 11
295.0699999999999932
 21
4.7202944000000002
 31
0.0
  0
LINE
  5
103
  8
TOP_OUTSIDECUTPATH
 10
295.0699999999999932
 20
4.7202944000000002
 30
0.0
 11
295.0699999999999932
 21
17.75
 31
0.0
  0
LINE
  5
104
  8
TOP_OUTSIDECUTPATH
 10
295.0699999999999932
 20
17.75
 30
0.0
 11
296.649705600000118
 21
17.75
 31
0.0
  0
LINE
  5
105
  8
TOP_OUTSIDECUTPATH
 10
296.649705600000118
 20
17.75
 30
0.0
 11
296.7200000000000273
 21
17.8202944000000016
 31
0.0
  0
LINE
  5
106
  8
TOP_OUTSIDECUTPATH
 10
296.7200000000000273
 20
17.8202944000000016
 30
0.0
 11
296.7200000000000273
 21
31.419705600000011
 31
0.0
  0
LINE
  5
107
  8
TOP_OUTSIDECUTPATH
 10
296.7200000000000273
 20
31.419705600000011
 30
0.0
 11
296.649705600000118
 21
31.4899999999999984
 31
0.0
  0
LINE
  5
108
  8
TOP_OUTSIDECUTPATH
 10
296.649705600000118
 20
31.4899999999999984
 30
0.0
 11
295.0699999999999932
 21
31.4899999999999984
 31
0.0
  0
LINE
  5
109
  8
TOP_OUTSIDECUTPATH
 10
295.0699999999999932
 20
31.4899999999999984
 30
0.0
 11
295.0699999999999932
 21
44.75
 31
0.0
  0
LINE
  5
10A
  8
TOP_OUTSIDECUTPATH
 10
295.0699999999999932
 20
44.75
 30
0.0
 11
296.649705600000118
 21
44.75
 31
0.0
  0
LINE
  5
10B
  8
TOP_OUTSIDECUTPATH
 10
296.649705600000118
 20
44.75
 30
0.0
 11
296.7200000000000273
 21
44.8202943999999874
 31
0.0
  0
LINE
  5
10C
  8
TOP_OUTSIDECUTPATH
 10
296.7200000000000273
 20
44.8202943999999874
 30
0.0
 11
296.7200000000000273
 21
58.4197056000000003
 31
0.0
  0
LINE
  5
10D
  8
TOP_OUTSIDECUTPATH
 10
296.7200000000000273
 20
58.4197056000000003
 30
0.0
 11
296.649705600000118
 21
58.490000000000002
 31
0.0
  0
LINE
  5
10E
  8
TOP_OUTSIDECUTPATH
 10
296.649705600000118
 20
58.490000000000002
 30
0.0
 11
295.0699999999999932
 21
58.490000000000002
 31
0.0
  0
LINE
  5
10F
  8
TOP_OUTSIDECUTPATH
 10
295.0699999999999932
 20
58.490000000000002
 30
0.0
 11
295.0699999999999932
 21
71.5197055999999947
 31
0.0
  0
LINE
  5
110
  8
TOP_OUTSIDECUTPATH
 10
295.0699999999999932
 20
71.5197055999999947
 30
0.0
 11
294.9997056000000271
 21
71.5900000000000034
 31
0.0
  0
LINE
  5
111
  8
TOP_OUTSIDECUTPATH
 10
294.9997056000000271
 20
71.5900000000000034
 30
0.0
 11
275.4700000000000273
 21
71.5900000000000034
 31
0.0
  0
LINE
  5
112
  8
TOP_OUTSIDECUTPATH
 10
275.4700000000000273
 20
71.5900000000000034
 30
0.0
 11
275.4700000000000273
 21
73.1697056000000003
 31
0.0
  0
LINE
  5
113
  8
TOP_OUTSIDECUTPATH
 10
275.4700000000000273
 20
73.1697056000000003
 30
0.0
 11
275.399705600000118
 21
73.2399999999999949
 31
0.0
  0
LINE
  5
114
  8
TOP_OUTSIDECUTPATH
 10
275.399705600000118
 20
73.2399999999999949
 30
0.0
 11
261.8002943999999843
 21
73.2399999999999949
 31
0.0
  0
LINE
  5
115
  8
TOP_OUTSIDECUTPATH
 10
261.8002943999999843
 20
73.2399999999999949
 30
0.0
 11
261.7300000000000182
 21
73.1697056000000003
 31
0.0
  0
LINE
  5
116
  8
TOP_OUTSIDECUTPATH
 10
261.7300000000000182
 20
73.1697056000000003
 30
0.0
 11
261.7300000000000182
 21
71.5900000000000034
 31
0.0
  0
LINE
  5
117
  8
TOP_OUTSIDECUTPATH
 10
261.7300000000000182
 20
71.5900000000000034
 30
0.0
 11
248.4699999999999989
 21
71.5900000000000034
 31
0.0
  0
LINE
  5
118
  8
TOP_OUTSIDECUTPATH
 10
248.4699999999999989
 20
71.5900000000000034
 30
0.0
 11
248.4699999999999989
 21
73.1697056000000003
 31
0.0
  0
LINE
  5
119
  8
TOP_OUTSIDECUTPATH
 10
248.4699999999999989
 20
73.1697056000000003
 30
0.0
 11
248.3997056000000043
 21
73.2399999999999949
 31
0.0
  0
LINE
  5
11A
  8
TOP_OUTSIDECUTPATH
 10
248.3997056000000043
 20
73.2399999999999949
 30
0.0
 11
234.8002944000000127
 21
73.2399999999999949
 31
0.0
  0
LINE
  5
11B
  8
TOP_OUTSIDECUTPATH
 10
234.8002944000000127
 20
73.2399999999999949
 30
0.0
 11
234.7299999999999898
 21
73.1697056000000003
 31
0.0
  0
LINE
  5
11C
  8
TOP_OUTSIDECUTPATH
 10
234.7299999999999898
 20
73.1697056000000003
 30
0.0
 11
234.7299999999999898
 21
71.5900000000000034
 31
0.0
  0
LINE
  5
11D
  8
TOP_OUTSIDECUTPATH
 10
234.7299999999999898
 20
71.5900000000000034
 30
0.0
 11
221.4699999999999989
 21
71.5900000000000034
 31
0.0
  0
LINE
  5
11E
  8
TOP_OUTSIDECUTPATH
 10
221.4699999999999989
 20
71.5900000000000034
 30
0.0
 11
221.4699999999999989
 21
73.1697056000000003
 31
0.0
  0
LINE
  5
11F
  8
TOP_OUTSIDECUTPATH
 10
221.4699999999999989
 20
73.1697056000000003
 30
0.0
 11
221.3997056000000043
 21
73.2399999999999949
 31
0.0
  0
LINE
  5
120
  8
TOP_OUTSIDECUTPATH
 10
221.3997056000000043
 20
73.2399999999999949
 30
0.0
 11
207.8002944000000127
 21
73.2399999999999949
 31
0.0
  0
LINE
  5
121
  8
TOP_OUTSIDECUTPATH
 10
207.8002944000000127
 20
73.2399999999999949
 30
0.0
 11
207.7299999999999898
 21
73.1697056000000003
 31
0.0
  0
LINE
  5
122
  8
TOP_OUTSIDECUTPATH
 10
207.7299999999999898
 20
73.1697056000000003
 30
0.0
 11
207.7299999999999898
 21
71.5900000000000034
 31
0.0
  0
LINE
  5
123
  8
TOP_OUTSIDECUTPATH
 10
207.7299999999999898
 20
71.5900000000000034
 30
0.0
 11
188.20029439999999
 21
71.5900000000000034
 31
0.0
  0
LINE
  5
124
  8
TOP_OUTSIDECUTPATH
 10
188.20029439999999
 20
71.5900000000000034
 30
0.0
 11
188.1299999999999955
 21
71.5197055999999947
 31
0.0
  0
LINE
  5
125
  8
TOP_OUTSIDECUTPATH
 10
188.1299999999999955
 20
71.5197055999999947
 30
0.0
 11
188.1299999999999955
 21
58.490000000000002
 31
0.0
  0
LINE
  5
126
  8
TOP_OUTSIDECUTPATH
 10
188.1299999999999955
 20
58.490000000000002
 30
0.0
 11
186.5502944000000127
 21
58.490000000000002
 31
0.0
  0
LINE
  5
127
  8
TOP_OUTSIDECUTPATH
 10
186.5502944000000127
 20
58.490000000000002
 30
0.0
 11
186.4799999999999898
 21
58.4197056000000003
 31
0.0
  0
LINE
  5
128
  8
TOP_OUTSIDECUTPATH
 10
186.4799999999999898
 20
58.4197056000000003
 30
0.0
 11
186.4799999999999898
 21
44.8202943999999874
 31
0.0
  0
LINE
  5
129
  8
TOP_OUTSIDECUTPATH
 10
186.4799999999999898
 20
44.8202943999999874
 30
0.0
 11
186.5502944000000127
 21
44.75
 31
0.0
  0
LINE
  5
12A
  8
TOP_OUTSIDECUTPATH
 10
186.5502944000000127
 20
44.75
 30
0.0
 11
188.1299999999999955
 21
44.75
 31
0.0
  0
LINE
  5
12B
  8
TOP_OUTSIDECUTPATH
 10
188.1299999999999955
 20
44.75
 30
0.0
 11
188.1299999999999955
 21
31.4899999999999984
 31
0.0
  0
LINE
  5
12C
  8
TOP_OUTSIDECUTPATH
 10
188.1299999999999955
 20
31.4899999999999984
 30
0.0
 11
186.5502944000000127
 21
31.4899999999999984
 31
0.0
  0
LINE
  5
12D
  8
TOP_OUTSIDECUTPATH
 10
186.5502944000000127
 20
31.4899999999999984
 30
0.0
 11
186.4799999999999898
 21
31.419705600000011
 31
0.0
  0
LINE
  5
12E
  8
TOP_OUTSIDECUTPATH
 10
186.4799999999999898
 20
31.419705600000011
 30
0.0
 11
186.4799999999999898
 21
17.8202944000000016
 31
0.0
  0
LINE
  5
12F
  8
TOP_OUTSIDECUTPATH
 10
186.4799999999999898
 20
17.8202944000000016
 30
0.0
 11
186.5502944000000127
 21
17.75
 31
0.0
  0
LINE
  5
130
  8
TOP_OUTSIDECUTPATH
 10
186.5502944000000127
 20
17.75
 30
0.0
 11
188.1299999999999955
 21
17.75
 31
0.0
  0
LINE
  5
131
  8
TOP_OUTSIDECUTPATH
 10
188.1299999999999955
 20
17.75
 30
0.0
 11
188.1299999999999955
 21
4.7202944000000002
 31
0.0
  0
LINE
  5
132
  8
TOP_OUTSIDECUTPATH
 10
188.1299999999999955
 20
4.7202944000000002
 30
0.0
 11
188.20029439999999
 21
4.6500000000000004
 31
0.0
  0
LINE
  5
133
  8
TOP_OUTSIDECUTPATH
 10
188.20029439999999
 20
4.6500000000000004
 30
0.0
 11
207.7299999999999898
 21
4.6500000000000004
 31
0.0
  0
LINE
  5
134
  8
TOP_OUTSIDECUTPATH
 10
207.7299999999999898
 20
4.6500000000000004
 30
0.0
 11
207.7299999999999898
 21
3.070294399999999
 31
0.0
  0
LINE
  5
135
  8
TOP_OUTSIDECUTPATH
 10
207.7299999999999898
 20
3.070294399999999
 30
0.0
 11
207.8002944000000127
 21
3.0
 31
0.0
  0
LINE
  5
136
  8
TOP_OUTSIDECUTPATH
 10
207.8002944000000127
 20
3.0
 30
0.0
 11
221.3997056000000043
 21
3.0
 31
0.0
  0
LINE
  5
137
  8
TOP_OUTSIDECUTPATH
 10
221.3997056000000043
 20
3.0
 30
0.0
 11
221.4699999999999989
 21
3.070294399999999
 31
0.0
  0
LINE
  5
139
  8
BACK_OUTSIDECUTPATH
 10
21.4899999999999984
 20
76.3102944000000036
 30
0.0
 11
21.4899999999999984
 21
77.8900000000000006
 31
0.0
  0
LINE
  5
13A
  8
BACK_OUTSIDECUTPATH
 10
21.4899999999999984
 20
77.8900000000000006
 30
0.0
 11
34.75
 21
77.8900000000000006
 31
0.0
  0
LINE
  5
13B
  8
BACK_OUTSIDECUTPATH
 10
34.75
 20
77.8900000000000006
 30
0.0
 11
34.75
 21
76.3102944000000036
 31
0.0
  0
LINE
  5
13C
  8
BACK_OUTSIDECUTPATH
 10
34.75
 20
76.3102944000000036
 30
0.0
 11
34.8202944000000016
 21
76.2399999999999949
 31
0.0
  0
LINE
  5
13D
  8
BACK_OUTSIDECUTPATH
 10
34.8202944000000016
 20
76.2399999999999949
 30
0.0
 11
48.4197056000000003
 21
76.2399999999999949
 31
0.0
  0
LINE
  5
13E
  8
BACK_OUTSIDECUTPATH
 10
48.4197056000000003
 20
76.2399999999999949
 30
0.0
 11
48.490000000000002
 21
76.3102944000000036
 31
0.0
  0
LINE
  5
13F
  8
BACK_OUTSIDECUTPATH
 10
48.490000000000002
 20
76.3102944000000036
 30
0.0
 11
48.490000000000002
 21
77.8900000000000006
 31
0.0
  0
LINE
  5
140
  8
BACK_OUTSIDECUTPATH
 10
48.490000000000002
 20
77.8900000000000006
 30
0.0
 11
61.75
 21
77.8900000000000006
 31
0.0
  0
LINE
  5
141
  8
BACK_OUTSIDECUTPATH
 10
61.75
 20
77.8900000000000006
 30
0.0
 11
61.75
 21
76.3102944000000036
 31
0.0
  0
LINE
  5
142
  8
BACK_OUTSIDECUTPATH
 10
61.75
 20
76.3102944000000036
 30
0.0
 11
61.8202944000000016
 21
76.2399999999999949
 31
0.0
  0
LINE
  5
143
  8
BACK_OUTSIDECUTPATH
 10
61.8202944000000016
 20
76.2399999999999949
 30
0.0
 11
75.4197056000000003
 21
76.2399999999999949
 31
0.0
  0
LINE
  5
144
  8
BACK_OUTSIDECUTPATH
 10
75.4197056000000003
 20
76.2399999999999949
 30
0.0
 11
75.4899999999999949
 21
76.3102944000000036
 31
0.0
  0
LINE
  5
145
  8
BACK_OUTSIDECUTPATH
 10
75.4899999999999949
 20
76.3102944000000036
 30
0.0
 11
75.4899999999999949
 21
77.8900000000000006
 31
0.0
  0
LINE
  5
146
  8
BACK_OUTSIDECUTPATH
 10
75.4899999999999949
 20
77.8900000000000006
 30
0.0
 11
88.75
 21
77.8900000000000006
 31
0.0
  0
LINE
  5
147
  8
BACK_OUTSIDECUTPATH
 10
88.75
 20
77.8900000000000006
 30
0.0
 11
88.75
 21
76.3102944000000036
 31
0.0
  0
LINE
  5
148
  8
BACK_OUTSIDECUTPATH
 10
88.75
 20
76.3102944000000036
 30
0.0
 11
88.8202944000000087
 21
76.2399999999999949
 31
0.0
  0
LINE
  5
149
  8
BACK_OUTSIDECUTPATH
 10
88.8202944000000087
 20
76.2399999999999949
 30
0.0
 11
110.1697056000000003
 21
76.2399999999999949
 31
0.0
  0
LINE
  5
14A
  8
BACK_OUTSIDECUTPATH
 10
110.1697056000000003
 20
76.2399999999999949
 30
0.0
 11
110.2399999999999949
 21
76.3102944000000036
 31
0.0
  0
LINE
  5
14B
  8
BACK_OUTSIDECUTPATH
 10
110.2399999999999949
 20
76.3102944000000036
 30
0.0
 11
110.2399999999999949
 21
91.1597055999999952
 31
0.0
  0
LINE
  5
14C
  8
BACK_OUTSIDECUTPATH
 10
110.2399999999999949
 20
91.1597055999999952
 30
0.0
 11
110.1697056000000003
 21
91.230000000000004
 31
0.0
  0
LINE
  5
14D
  8
BACK_OUTSIDECUTPATH
 10
110.1697056000000003
 20
91.230000000000004
 30
0.0
 11
108.5900000000000034
 21
91.230000000000004
 31
0.0
  0
LINE
  5
14E
  8
BACK_OUTSIDECUTPATH
 10
108.5900000000000034
 20
91.230000000000004
 30
0.0
 11
108.5900000000000034
 21
104.4899999999999949
 31
0.0
  0
LINE
  5
14F
  8
BACK_OUTSIDECUTPATH
 10
108.5900000000000034
 20
104.4899999999999949
 30
0.0
 11
110.1697056000000003
 21
104.4899999999999949
 31
0.0
  0
LINE
  5
150
  8
BACK_OUTSIDECUTPATH
 10
110.1697056000000003
 20
104.4899999999999949
 30
0.0
 11
110.2399999999999949
 21
104.5602944000000036
 31
0.0
  0
LINE
  5
151
  8
BACK_OUTSIDECUTPATH
 10
110.2399999999999949
 20
104.5602944000000036
 30
0.0
 11
110.2399999999999949
 21
118.1597055999998958
 31
0.0
  0
LINE
  5
152
  8
BACK_OUTSIDECUTPATH
 10
110.2399999999999949
 20
118.1597055999998958
 30
0.0
 11
110.1697056000000003
 21
118.230000000000004
 31
0.0
  0
LINE
  5
153
  8
BACK_OUTSIDECUTPATH
 10
110.1697056000000003
 20
118.230000000000004
 30
0.0
 11
108.5900000000000034
 21
118.230000000000004
 31
0.0
  0
LINE
  5
154
  8
BACK_OUTSIDECUTPATH
 10
108.5900000000000034
 20
118.230000000000004
 30
0.0
 11
108.5900000000000034
 21
131.4900000000000091
 31
0.0
  0
LINE
  5
155
  8
BACK_OUTSIDECUTPATH
 10
108.5900000000000034
 20
131.4900000000000091
 30
0.0
 11
110.1697056000000003
 21
131.4900000000000091
 31
0.0
  0
LINE
  5
156
  8
BACK_OUTSIDECUTPATH
 10
110.1697056000000003
 20
131.4900000000000091
 30
0.0
 11
110.2399999999999949
 21
131.5602944000000036
 31
0.0
  0
LINE
  5
157
  8
BACK_OUTSIDECUTPATH
 10
110.2399999999999949
 20
131.5602944000000036
 30
0.0
 11
110.2399999999999949
 21
146.4097055999999952
 31
0.0
  0
LINE
  5
158
  8
BACK_OUTSIDECUTPATH
 10
110.2399999999999949
 20
146.4097055999999952
 30
0.0
 11
110.1697056000000003
 21
146.4799999999999898
 31
0.0
  0
LINE
  5
159
  8
BACK_OUTSIDECUTPATH
 10
110.1697056000000003
 20
146.4799999999999898
 30
0.0
 11
88.8202944000000087
 21
146.4799999999999898
 31
0.0
  0
LINE
  5
15A
  8
BACK_OUTSIDECUTPATH
 10
88.8202944000000087
 20
146.4799999999999898
 30
0.0
 11
88.75
 21
146.4097055999999952
 31
0.0
  0
LINE
  5
15B
  8
BACK_OUTSIDECUTPATH
 10
88.75
 20
146.4097055999999952
 30
0.0
 11
88.75
 21
144.8300000000000125
 31
0.0
  0
LINE
  5
15C
  8
BACK_OUTSIDECUTPATH
 10
88.75
 20
144.8300000000000125
 30
0.0
 11
75.4899999999999949
 21
144.8300000000000125
 31
0.0
  0
LINE
  5
15D
  8
BACK_OUTSIDECUTPATH
 10
75.4899999999999949
 20
144.8300000000000125
 30
0.0
 11
75.4899999999999949
 21
146.4097055999999952
 31
0.0
  0
LINE
  5
15E
  8
BACK_OUTSIDECUTPATH
 10
75.4899999999999949
 20
146.4097055999999952
 30
0.0
 11
75.4197056000000003
 21
146.4799999999999898
 31
0.0
  0
LINE
  5
15F
  8
BACK_OUTSIDECUTPATH
 10
75.4197056000000003
 20
146.4799999999999898
 30
0.0
 11
61.8202944000000016
 21
146.4799999999999898
 31
0.0
  0
LINE
  5
160
  8
BACK_OUTSIDECUTPATH
 10
61.8202944000000016
 20
146.4799999999999898
 30
0.0
 11
61.75
 21
146.4097055999999952
 31
0.0
  0
LINE
  5
161
  8
BACK_OUTSIDECUTPATH
 10
61.75
 20
146.4097055999999952
 30
0.0
 11
61.75
 21
144.8300000000000125
 31
0.0
  0
LINE
  5
162
  8
BACK_OUTSIDECUTPATH
 10
61.75
 20
144.8300000000000125
 30
0.0
 11
48.490000000000002
 21
144.8300000000000125
 31
0.0
  0
LINE
  5
163
  8
BACK_OUTSIDECUTPATH
 10
48.490000000000002
 20
144.8300000000000125
 30
0.0
 11
48.490000000000002
 21
146.4097055999999952
 31
0.0
  0
LINE
  5
164
  8
BACK_OUTSIDECUTPATH
 10
48.490000000000002
 20
146.4097055999999952
 30
0.0
 11
48.4197056000000003
 21
146.4799999999999898
 31
0.0
  0
LINE
  5
165
  8
BACK_OUTSIDECUTPATH
 10
48.4197056000000003
 20
146.4799999999999898
 30
0.0
 11
34.8202944000000016
 21
146.4799999999999898
 31
0.0
  0
LINE
  5
166
  8
BACK_OUTSIDECUTPATH
 10
34.8202944000000016
 20
146.4799999999999898
 30
0.0
 11
34.75
 21
146.4097055999999952
 31
0.0
  0
LINE
  5
167
  8
BACK_OUTSIDECUTPATH
 10
34.75
 20
146.4097055999999952
 30
0.0
 11
34.75
 21
144.8300000000000125
 31
0.0
  0
LINE
  5
168
  8
BACK_OUTSIDECUTPATH
 10
34.75
 20
144.8300000000000125
 30
0.0
 11
21.4899999999999984
 21
144.8300000000000125
 31
0.0
  0
LINE
  5
169
  8
BACK_OUTSIDECUTPATH
 10
21.4899999999999984
 20
144.8300000000000125
 30
0.0
 11
21.4899999999999984
 21
146.4097055999999952
 31
0.0
  0
LINE
  5
16A
  8
BACK_OUTSIDECUTPATH
 10
21.4899999999999984
 20
146.4097055999999952
 30
0.0
 11
21.4197056000000003
 21
146.4799999999999898
 31
0.0
  0
LINE
  5
16B
  8
BACK_OUTSIDECUTPATH
 10
21.4197056000000003
 20
146.4799999999999898
 30
0.0
 11
0.0702944
 21
146.4799999999999898
 31
0.0
  0
LINE
  5
16C
  8
BACK_OUTSIDECUTPATH
 10
0.0702944
 20
146.4799999999999898
 30
0.0
 11
0.0
 21
146.4097055999999952
 31
0.0
  0
LINE
  5
16D
  8
BACK_OUTSIDECUTPATH
 10
0.0
 20
146.4097055999999952
 30
0.0
 11
0.0
 21
131.5602944000000036
 31
0.0
  0
LINE
  5
16E
  8
BACK_OUTSIDECUTPATH
 10
0.0
 20
131.5602944000000036
 30
0.0
 11
0.0702944
 21
131.4900000000000091
 31
0.0
  0
LINE
  5
16F
  8
BACK_OUTSIDECUTPATH
 10
0.0702944
 20
131.4900000000000091
 30
0.0
 11
1.649999999999999
 21
131.4900000000000091
 31
0.0
  0
LINE
  5
170
  8
BACK_OUTSIDECUTPATH
 10
1.649999999999999
 20
131.4900000000000091
 30
0.0
 11
1.649999999999999
 21
118.230000000000004
 31
0.0
  0
LINE
  5
171
  8
BACK_OUTSIDECUTPATH
 10
1.649999999999999
 20
118.230000000000004
 30
0.0
 11
0.0702944
 21
118.230000000000004
 31
0.0
  0
LINE
  5
172
  8
BACK_OUTSIDECUTPATH
 10
0.0702944
 20
118.230000000000004
 30
0.0
 11
0.0
 21
118.1597055999998958
 31
0.0
  0
LINE
  5
173
  8
BACK_OUTSIDECUTPATH
 10
0.0
 20
118.1597055999998958
 30
0.0
 11
0.0
 21
104.5602944000000036
 31
0.0
  0
LINE
  5
174
  8
BACK_OUTSIDECUTPATH
 10
0.0
 20
104.5602944000000036
 30
0.0
 11
0.0702944
 21
104.4899999999999949
 31
0.0
  0
LINE
  5
175
  8
BACK_OUTSIDECUTPATH
 10
0.0702944
 20
104.4899999999999949
 30
0.0
 11
1.649999999999999
 21
104.4899999999999949
 31
0.0
  0
LINE
  5
176
  8
BACK_OUTSIDECUTPATH
 10
1.649999999999999
 20
104.4899999999999949
 30
0.0
 11
1.649999999999999
 21
91.230000000000004
 31
0.0
  0
LINE
  5
177
  8
BACK_OUTSIDECUTPATH
 10
1.649999999999999
 20
91.230000000000004
 30
0.0
 11
0.0702944
 21
91.230000000000004
 31
0.0
  0
LINE
  5
178
  8
BACK_OUTSIDECUTPATH
 10
0.0702944
 20
91.230000000000004
 30
0.0
 11
0.0
 21
91.1597055999999952
 31
0.0
  0
LINE
  5
179
  8
BACK_OUTSIDECUTPATH
 10
0.0
 20
91.1597055999999952
 30
0.0
 11
0.0
 21
76.3102944000000036
 31
0.0
  0
LINE
  5
17A
  8
BACK_OUTSIDECUTPATH
 10
0.0
 20
76.3102944000000036
 30
0.0
 11
0.0702944
 21
76.2399999999999949
 31
0.0
  0
LINE
  5
17B
  8
BACK_OUTSIDECUTPATH
 10
0.0702944
 20
76.2399999999999949
 30
0.0
 11
21.4197056000000003
 21
76.2399999999999949
 31
0.0
  0
LINE
  5
17C
  8
BACK_OUTSIDECUTPATH
 10
21.4197056000000003
 20
76.2399999999999949
 30
0.0
 11
21.4899999999999984
 21
76.3102944000000036
 31
0.0
  0
LINE
  5
17E
  8
RIGHT_OUTSIDECUTPATH
 10
128.2299999999999898
 20
76.3102944000000036
 30
0.0
 11
128.2299999999999898
 21
77.8900000000000006
 31
0.0
  0
LINE
  5
17F
  8
RIGHT_OUTSIDECUTPATH
 10
128.2299999999999898
 20
77.8900000000000006
 30
0.0
 11
141.4900000000000091
 21
77.8900000000000006
 31
0.0
  0
LINE
  5
180
  8
RIGHT_OUTSIDECUTPATH
 10
141.4900000000000091
 20
77.8900000000000006
 30
0.0
 11
141.4900000000000091
 21
76.3102944000000036
 31
0.0
  0
LINE
  5
181
  8
RIGHT_OUTSIDECUTPATH
 10
141.4900000000000091
 20
76.3102944000000036
 30
0.0
 11
141.5602944000000036
 21
76.2399999999999949
 31
0.0
  0
LINE
  5
182
  8
RIGHT_OUTSIDECUTPATH
 10
141.5602944000000036
 20
76.2399999999999949
 30
0.0
 11
155.1597055999999952
 21
76.2399999999999949
 31
0.0
  0
LINE
  5
183
  8
RIGHT_OUTSIDECUTPATH
 10
155.1597055999999952
 20
76.2399999999999949
 30
0.0
 11
155.2299999999999898
 21
76.3102944000000036
 31
0.0
  0
LINE
  5
184
  8
RIGHT_OUTSIDECUTPATH
 10
155.2299999999999898
 20
76.3102944000000036
 30
0.0
 11
155.2299999999999898
 21
77.8900000000000006
 31
0.0
  0
LINE
  5
185
  8
RIGHT_OUTSIDECUTPATH
 10
155.2299999999999898
 20
77.8900000000000006
 30
0.0
 11
168.4900000000000091
 21
77.8900000000000006
 31
0.0
  0
LINE
  5
186
  8
RIGHT_OUTSIDECUTPATH
 10
168.4900000000000091
 20
77.8900000000000006
 30
0.0
 11
168.4900000000000091
 21
76.3102944000000036
 31
0.0
  0
LINE
  5
187
  8
RIGHT_OUTSIDECUTPATH
 10
168.4900000000000091
 20
76.3102944000000036
 30
0.0
 11
168.5602944000000036
 21
76.2399999999999949
 31
0.0
  0
LINE
  5
188
  8
RIGHT_OUTSIDECUTPATH
 10
168.5602944000000036
 20
76.2399999999999949
 30
0.0
 11
181.7597055999999895
 21
76.2399999999999949
 31
0.0
  0
LINE
  5
189
  8
RIGHT_OUTSIDECUTPATH
 10
181.7597055999999895
 20
76.2399999999999949
 30
0.0
 11
181.8300000000000125
 21
76.3102944000000036
 31
0.0
  0
LINE
  5
18A
  8
RIGHT_OUTSIDECUTPATH
 10
181.8300000000000125
 20
76.3102944000000036
 30
0.0
 11
181.8300000000000125
 21
90.9899999999999949
 31
0.0
  0
LINE
  5
18B
  8
RIGHT_OUTSIDECUTPATH
 10
181.8300000000000125
 20
90.9899999999999949
 30
0.0
 11
183.4097055999999952
 21
90.9899999999999949
 31
0.0
  0
LINE
  5
18C
  8
RIGHT_OUTSIDECUTPATH
 10
183.4097055999999952
 20
90.9899999999999949
 30
0.0
 11
183.4799999999999898
 21
91.0602944000000036
 31
0.0
  0
LINE
  5
18D
  8
RIGHT_OUTSIDECUTPATH
 10
183.4799999999999898
 20
91.0602944000000036
 30
0.0
 11
183.4799999999999898
 21
104.6597055999999952
 31
0.0
  0
LINE
  5
18E
  8
RIGHT_OUTSIDECUTPATH
 10
183.4799999999999898
 20
104.6597055999999952
 30
0.0
 11
183.4097055999999952
 21
104.730000000000004
 31
0.0
  0
LINE
  5
18F
  8
RIGHT_OUTSIDECUTPATH
 10
183.4097055999999952
 20
104.730000000000004
 30
0.0
 11
181.8300000000000125
 21
104.730000000000004
 31
0.0
  0
LINE
  5
190
  8
RIGHT_OUTSIDECUTPATH
 10
181.8300000000000125
 20
104.730000000000004
 30
0.0
 11
181.8300000000000125
 21
117.9899999999999949
 31
0.0
  0
LINE
  5
191
  8
RIGHT_OUTSIDECUTPATH
 10
181.8300000000000125
 20
117.9899999999999949
 30
0.0
 11
183.4097055999999952
 21
117.9899999999999949
 31
0.0
  0
LINE
  5
192
  8
RIGHT_OUTSIDECUTPATH
 10
183.4097055999999952
 20
117.9899999999999949
 30
0.0
 11
183.4799999999999898
 21
118.0602944000000036
 31
0.0
  0
LINE
  5
193
  8
RIGHT_OUTSIDECUTPATH
 10
183.4799999999999898
 20
118.0602944000000036
 30
0.0
 11
183.4799999999999898
 21
131.6597055999999952
 31
0.0
  0
LINE
  5
194
  8
RIGHT_OUTSIDECUTPATH
 10
183.4799999999999898
 20
131.6597055999999952
 30
0.0
 11
183.4097055999999952
 21
131.7299999999999898
 31
0.0
  0
LINE
  5
195
  8
RIGHT_OUTSIDECUTPATH
 10
183.4097055999999952
 20
131.7299999999999898
 30
0.0
 11
181.8300000000000125
 21
131.7299999999999898
 31
0.0
  0
LINE
  5
196
  8
RIGHT_OUTSIDECUTPATH
 10
181.8300000000000125
 20
131.7299999999999898
 30
0.0
 11
181.8300000000000125
 21
146.4097055999999952
 31
0.0
  0
LINE
  5
197
  8
RIGHT_OUTSIDECUTPATH
 10
181.8300000000000125
 20
146.4097055999999952
 30
0.0
 11
181.7597055999999895
 21
146.4799999999999898
 31
0.0
  0
LINE
  5
198
  8
RIGHT_OUTSIDECUTPATH
 10
181.7597055999999895
 20
146.4799999999999898
 30
0.0
 11
168.5602944000000036
 21
146.4799999999999898
 31
0.0
  0
LINE
  5
199
  8
RIGHT_OUTSIDECUTPATH
 10
168.5602944000000036
 20
146.4799999999999898
 30
0.0
 11
168.4900000000000091
 21
146.4097055999999952
 31
0.0
  0
LINE
  5
19A
  8
RIGHT_OUTSIDECUTPATH
 10
168.4900000000000091
 20
146.4097055999999952
 30
0.0
 11
168.4900000000000091
 21
144.8300000000000125
 31
0.0
  0
LINE
  5
19B
  8
RIGHT_OUTSIDECUTPATH
 10
168.4900000000000091
 20
144.8300000000000125
 30
0.0
 11
155.2299999999999898
 21
144.8300000000000125
 31
0.0
  0
LINE
  5
19C
  8
RIGHT_OUTSIDECUTPATH
 10
155.2299999999999898
 20
144.8300000000000125
 30
0.0
 11
155.2299999999999898
 21
146.4097055999999952
 31
0.0
  0
LINE
  5
19D
  8
RIGHT_OUTSIDECUTPATH
 10
155.2299999999999898
 20
146.4097055999999952
 30
0.0
 11
155.1597055999999952
 21
146.4799999999999898
 31
0.0
  0
LINE
  5
19E
  8
RIGHT_OUTSIDECUTPATH
 10
155.1597055999999952
 20
146.4799999999999898
 30
0.0
 11
141.5602944000000036
 21
146.4799999999999898
 31
0.0
  0
LINE
  5
19F
  8
RIGHT_OUTSIDECUTPATH
 10
141.5602944000000036
 20
146.4799999999999898
 30
0.0
 11
141.4900000000000091
 21
146.4097055999999952
 31
0.0
  0
LINE
  5
1A0
  8
RIGHT_OUTSIDECUTPATH
 10
141.4900000000000091
 20
146.4097055999999952
 30
0.0
 11
141.4900000000000091
 21
144.8300000000000125
 31
0.0
  0
LINE
  5
1A1
  8
RIGHT_OUTSIDECUTPATH
 10
141.4900000000000091
 20
144.8300000000000125
 30
0.0
 11
128.2299999999999898
 21
144.8300000000000125
 31
0.0
  0
LINE
  5
1A2
  8
RIGHT_OUTSIDECUTPATH
 10
128.2299999999999898
 20
144.8300000000000125
 30
0.0
 11
128.2299999999999898
 21
146.4097055999999952
 31
0.0
  0
LINE
  5
1A3
  8
RIGHT_OUTSIDECUTPATH
 10
128.2299999999999898
 20
146.4097055999999952
 30
0.0
 11
128.1597055999999952
 21
146.4799999999999898
 31
0.0
  0
LINE
  5
1A4
  8
RIGHT_OUTSIDECUTPATH
 10
128.1597055999999952
 20
146.4799999999999898
 30
0.0
 11
114.9602943999999951
 21
146.4799999999999898
 31
0.0
  0
LINE
  5
1A5
  8
RIGHT_OUTSIDECUTPATH
 10
114.9602943999999951
 20
146.4799999999999898
 30
0.0
 11
114.8900000000000006
 21
146.4097055999999952
 31
0.0
  0
LINE
  5
1A6
  8
RIGHT_OUTSIDECUTPATH
 10
114.8900000000000006
 20
146.4097055999999952
 30
0.0
 11
114.8900000000000006
 21
131.7299999999999898
 31
0.0
  0
LINE
  5
1A7
  8
RIGHT_OUTSIDECUTPATH
 10
114.8900000000000006
 20
131.7299999999999898
 30
0.0
 11
113.3102944000000036
 21
131.7299999999999898
 31
0.0
  0
LINE
  5
1A8
  8
RIGHT_OUTSIDECUTPATH
 10
113.3102944000000036
 20
131.7299999999999898
 30
0.0
 11
113.2399999999999949
 21
131.6597055999999952
 31
0.0
  0
LINE
  5
1A9
  8
RIGHT_OUTSIDECUTPATH
 10
113.2399999999999949
 20
131.6597055999999952
 30
0.0
 11
113.2399999999999949
 21
118.0602944000000036
 31
0.0
  0
LINE
  5
1AA
  8
RIGHT_OUTSIDECUTPATH
 10
113.2399999999999949
 20
118.0602944000000036
 30
0.0
 11
113.3102944000000036
 21
117.9899999999999949
 31
0.0
  0
LINE
  5
1AB
  8
RIGHT_OUTSIDECUTPATH
 10
113.3102944000000036
 20
117.9899999999999949
 30
0.0
 11
114.8900000000000006
 21
117.9899999999999949
 31
0.0
  0
LINE
  5
1AC
  8
RIGHT_OUTSIDECUTPATH
 10
114.8900000000000006
 20
117.9899999999999949
 30
0.0
 11
114.8900000000000006
 21
104.730000000000004
 31
0.0
  0
LINE
  5
1AD
  8
RIGHT_OUTSIDECUTPATH
 10
114.8900000000000006
 20
104.730000000000004
 30
0.0
 11
113.3102944000000036
 21
104.730000000000004
 31
0.0
  0
LINE
  5
1AE
  8
RIGHT_OUTSIDECUTPATH
 10
113.3102944000000036
 20
104.730000000000004
 30
0.0
 11
113.2399999999999949
 21
104.6597055999999952
 31
0.0
  0
LINE
  5
1AF
  8
RIGHT_OUTSIDECUTPATH
 10
113.2399999999999949
 20
104.6597055999999952
 30
0.0
 11
113.2399999999999949
 21
91.0602944000000036
 31
0.0
  0
LINE
  5
1B0
  8
RIGHT_OUTSIDECUTPATH
 10
113.2399999999999949
 20
91.0602944000000036
 30
0.0
 11
113.3102944000000036
 21
90.9899999999999949
 31
0.0
  0
LINE
  5
1B1
  8
RIGHT_OUTSIDECUTPATH
 10
113.3102944000000036
 20
90.9899999999999949
 30
0.0
 11
114.8900000000000006
 21
90.9899999999999949
 31
0.0
  0
LINE
  5
1B2
  8
RIGHT_OUTSIDECUTPATH
 10
114.8900000000000006
 20
90.9899999999999949
 30
0.0
 11
114.8900000000000006
 21
76.3102944000000036
 31
0.0
  0
LINE
  5
1B3
  8
RIGHT_OUTSIDECUTPATH
 10
114.8900000000000006
 20
76.3102944000000036
 30
0.0
 11
114.9602943999999951
 21
76.2399999999999949
 31
0.0
  0
LINE
  5
1B4
  8
RIGHT_OUTSIDECUTPATH
 10
114.9602943999999951
 20
76.2399999999999949
 30
0.0
 11
128.1597055999999952
 21
76.2399999999999949
 31
0.0
  0
LINE
  5
1B5
  8
RIGHT_OUTSIDECUTPATH
 10
128.1597055999999952
 20
76.2399999999999949
 30
0.0
 11
128.2299999999999898
 21
76.3102944000000036
 31
0.0
  0
LINE
  5
1B7
  8
BOTTOM_OUTSIDECUTPATH
 10
221.4699999999999989
 20
76.3102944000000036
 30
0.0
 11
221.4699999999999989
 21
77.8900000000000006
 31
0.0
  0
LINE
  5
1B8
  8
BOTTOM_OUTSIDECUTPATH
 10
221.4699999999999989
 20
77.8900000000000006
 30
0.0
 11
234.7299999999999898
 21
77.8900000000000006
 31
0.0
  0
LINE
  5
1B9
  8
BOTTOM_OUTSIDECUTPATH
 10
234.7299999999999898
 20
77.8900000000000006
 30
0.0
 11
234.7299999999999898
 21
76.3102944000000036
 31
0.0
  0
LINE
  5
1BA
  8
BOTTOM_OUTSIDECUTPATH
 10
234.7299999999999898
 20
76.3102944000000036
 30
0.0
 11
234.8002944000000127
 21
76.2399999999999949
 31
0.0
  0
LINE
  5
1BB
  8
BOTTOM_OUTSIDECUTPATH
 10
234.8002944000000127
 20
76.2399999999999949
 30
0.0
 11
248.3997056000000043
 21
76.2399999999999949
 31
0.0
  0
LINE
  5
1BC
  8
BOTTOM_OUTSIDECUTPATH
 10
248.3997056000000043
 20
76.2399999999999949
 30
0.0
 11
248.4699999999999989
 21
76.3102944000000036
 31
0.0
  0
LINE
  5
1BD
  8
BOTTOM_OUTSIDECUTPATH
 10
248.4699999999999989
 20
76.3102944000000036
 30
0.0
 11
248.4699999999999989
 21
77.8900000000000006
 31
0.0
  0
LINE
  5
1BE
  8
BOTTOM_OUTSIDECUTPATH
 10
248.4699999999999989
 20
77.8900000000000006
 30
0.0
 11
261.7300000000000182
 21
77.8900000000000006
 31
0.0
  0
LINE
  5
1BF
  8
BOTTOM_OUTSIDECUTPATH
 10
261.7300000000000182
 20
77.8900000000000006
 30
0.0
 11
261.7300000000000182
 21
76.3102944000000036
 31
0.0
  0
LINE
  5
1C0
  8
BOTTOM_OUTSIDECUTPATH
 10
261.7300000000000182
 20
76.3102944000000036
 30
0.0
 11
261.8002943999999843
 21
76.2399999999999949
 31
0.0
  0
LINE
  5
1C1
  8
BOTTOM_OUTSIDECUTPATH
 10
261.8002943999999843
 20
76.2399999999999949
 30
0.0
 11
275.399705600000118
 21
76.2399999999999949
 31
0.0
  0
LINE
  5
1C2
  8
BOTTOM_OUTSIDECUTPATH
 10
275.399705600000118
 20
76.2399999999999949
 30
0.0
 11
275.4700000000000273
 21
76.3102944000000036
 31
0.0
  0
LINE
  5
1C3
  8
BOTTOM_OUTSIDECUTPATH
 10
275.4700000000000273
 20
76.3102944000000036
 30
0.0
 11
275.4700000000000273
 21
77.8900000000000006
 31
0.0
  0
LINE
  5
1C4
  8
BOTTOM_OUTSIDECUTPATH
 10
275.4700000000000273
 20
77.8900000000000006
 30
0.0
 11
294.9997056000000271
 21
77.8900000000000006
 31
0.0
  0
LINE
  5
1C5
  8
BOTTOM_OUTSIDECUTPATH
 10
294.9997056000000271
 20
77.8900000000000006
 30
0.0
 11
295.0699999999999932
 21
77.9602943999999951
 31
0.0
  0
LINE
  5
1C6
  8
BOTTOM_OUTSIDECUTPATH
 10
295.0699999999999932
 20
77.9602943999999951
 30
0.0
 11
295.0699999999999932
 21
90.9899999999999949
 31
0.0
  0
LINE
  5
1C7
  8
BOTTOM_OUTSIDECUTPATH
 10
295.0699999999999932
 20
90.9899999999999949
 30
0.0
 11
296.649705600000118
 21
90.9899999999999949
 31
0.0
  0
LINE
  5
1C8
  8
BOTTOM_OUTSIDECUTPATH
 10
296.649705600000118
 20
90.9899999999999949
 30
0.0
 11
296.7200000000000273
 21
91.0602944000000036
 31
0.0
  0
LINE
  5
1C9
  8
BOTTOM_OUTSIDECUTPATH
 10
296.7200000000000273
 20
91.0602944000000036
 30
0.0
 11
296.7200000000000273
 21
104.6597055999999952
 31
0.0
  0
LINE
  5
1CA
  8
BOTTOM_OUTSIDECUTPATH
 10
296.7200000000000273
 20
104.6597055999999952
 30
0.0
 11
296.649705600000118
 21
104.730000000000004
 31
0.0
  0
LINE
  5
1CB
  8
BOTTOM_OUTSIDECUTPATH
 10
296.649705600000118
 20
104.730000000000004
 30
0.0
 11
295.0699999999999932
 21
104.730000000000004
 31
0.0
  0
LINE
  5
1CC
  8
BOTTOM_OUTSIDECUTPATH
 10
295.0699999999999932
 20
104.730000000000004
 30
0.0
 11
295.0699999999999932
 21
117.9899999999999949
 31
0.0
  0
LINE
  5
1CD
  8
BOTTOM_OUTSIDECUTPATH
 10
295.0699999999999932
 20
117.9899999999999949
 30
0.0
 11
296.649705600000118
 21
117.9899999999999949
 31
0.0
  0
LINE
  5
1CE
  8
BOTTOM_OUTSIDECUTPATH
 10
296.649705600000118
 20
117.9899999999999949
 30
0.0
 11
296.7200000000000273
 21
118.0602944000000036
 31
0.0
  0
LINE
  5
1CF
  8
BOTTOM_OUTSIDECUTPATH
 10
296.7200000000000273
 20
118.0602944000000036
 30
0.0
 11
296.7200000000000273
 21
131.6597055999999952
 31
0.0
  0
LINE
  5
1D0
  8
BOTTOM_OUTSIDECUTPATH
 10
296.7200000000000273
 20
131.6597055999999952
 30
0.0
 11
296.649705600000118
 21
131.7299999999999898
 31
0.0
  0
LINE
  5
1D1
  8
BOTTOM_OUTSIDECUTPATH
 10
296.649705600000118
 20
131.7299999999999898
 30
0.0
 11
295.0699999999999932
 21
131.7299999999999898
 31
0.0
  0
LINE
  5
1D2
  8
BOTTOM_OUTSIDECUTPATH
 10
295.0699999999999932
 20
131.7299999999999898
 30
0.0
 11
295.0699999999999932
 21
144.7597055999999895
 31
0.0
  0
LINE
  5
1D3
  8
BOTTOM_OUTSIDECUTPATH
 10
295.0699999999999932
 20
144.7597055999999895
 30
0.0
 11
294.9997056000000271
 21
144.8300000000000125
 31
0.0
  0
LINE
  5
1D4
  8
BOTTOM_OUTSIDECUTPATH
 10
294.9997056000000271
 20
144.8300000000000125
 30
0.0
 11
275.4700000000000273
 21
144.8300000000000125
 31
0.0
  0
LINE
  5
1D5
  8
BOTTOM_OUTSIDECUTPATH
 10
275.4700000000000273
 20
144.8300000000000125
 30
0.0
 11
275.4700000000000273
 21
146.4097055999999952
 31
0.0
  0
LINE
  5
1D6
  8
BOTTOM_OUTSIDECUTPATH
 10
275.4700000000000273
 20
146.4097055999999952
 30
0.0
 11
275.399705600000118
 21
146.4799999999999898
 31
0.0
  0
LINE
  5
1D7
  8
BOTTOM_OUTSIDECUTPATH
 10
275.399705600000118
 20
146.4799999999999898
 30
0.0
 11
261.8002943999999843
 21
146.4799999999999898
 31
0.0
  0
LINE
  5
1D8
  8
BOTTOM_OUTSIDECUTPATH
 10
261.8002943999999843
 20
146.4799999999999898
 30
0.0
 11
261.7300000000000182
 21
146.4097055999999952
 31
0.0
  0
LINE
  5
1D9
  8
BOTTOM_OUTSIDECUTPATH
 10
261.7300000000000182
 20
146.4097055999999952
 30
0.0
 11
261.7300000000000182
 21
144.8300000000000125
 31
0.0
  0
LINE
  5
1DA
  8
BOTTOM_OUTSIDECUTPATH
 10
261.7300000000000182
 20
144.8300000000000125
 30
0.0
 11
248.4699999999999989
 21
144.8300000000000125
 31
0.0
  0
LINE
  5
1DB
  8
BOTTOM_OUTSIDECUTPATH
 10
248.4699999999999989
 20
144.8300000000000125
 30
0.0
 11
248.4699999999999989
 21
146.4097055999999952
 31
0.0
  0
LINE
  5
1DC
  8
BOTTOM_OUTSIDECUTPATH
 10
248.4699999999999989
 20
146.4097055999999952
 30
0.0
 11
248.3997056000000043
 21
146.4799999999999898
 31
0.0
  0
LINE
  5
1DD
  8
BOTTOM_OUTSIDECUTPATH
 10
248.3997056000000043
 20
146.4799999999999898
 30
0.0
 11
234.8002944000000127
 21
146.4799999999999898
 31
0.0
  0
LINE
  5
1DE
  8
BOTTOM_OUTSIDECUTPATH
 10
234.8002944000000127
 20
146.4799999999999898
 30
0.0
 11
234.7299999999999898
 21
146.4097055999999952
 31
0.0
  0
LINE
  5
1DF
  8
BOTTOM_OUTSIDECUTPATH
 10
234.7299999999999898
 20
146.4097055999999952
 30
0.0
 11
234.7299999999999898
 21
144.8300000000000125
 31
0.0
  0
LINE
  5
1E0
  8
BOTTOM_OUTSIDECUTPATH
 10
234.7299999999999898
 20
144.8300000000000125
 30
0.0
 11
221.4699999999999989
 21
144.8300000000000125
 31
0.0
  0
LINE
  5
1E1
  8
BOTTOM_OUTSIDECUTPATH
 10
221.4699999999999989
 20
144.8300000000000125
 30
0.0
 11
221.4699999999999989
 21
146.4097055999999952
 31
0.0
  0
LINE
  5
1E2
  8
BOTTOM_OUTSIDECUTPATH
 10
221.4699999999999989
 20
146.4097055999999952
 30
0.0
 11
221.3997056000000043
 21
146.4799999999999898
 31
0.0
  0
LINE
  5
1E3
  8
BOTTOM_OUTSIDECUTPATH
 10
221.3997056000000043
 20
146.4799999999999898
 30
0.0
 11
207.8002944000000127
 21
146.4799999999999898
 31
0.0
  0
LINE
  5
1E4
  8
BOTTOM_OUTSIDECUTPATH
 10
207.8002944000000127
 20
146.4799999999999898
 30
0.0
 11
207.7299999999999898
 21
146.4097055999999952
 31
0.0
  0
LINE
  5
1E5
  8
BOTTOM_OUTSIDECUTPATH
 10
207.7299999999999898
 20
146.4097055999999952
 30
0.0
 11
207.7299999999999898
 21
144.8300000000000125
 31
0.0
  0
LINE
  5
1E6
  8
BOTTOM_OUTSIDECUTPATH
 10
207.7299999999999898
 20
144.8300000000000125
 30
0.0
 11
188.20029439999999
 21
144.8300000000000125
 31
0.0
  0
LINE
  5
1E7
  8
BOTTOM_OUTSIDECUTPATH
 10
188.20029439999999
 20
144.8300000000000125
 30
0.0
 11
188.1299999999999955
 21
144.7597055999999895
 31
0.0
  0
LINE
  5
1E8
  8
BOTTOM_OUTSIDECUTPATH
 10
188.1299999999999955
 20
144.7597055999999895
 30
0.0
 11
188.1299999999999955
 21
131.7299999999999898
 31
0.0
  0
LINE
  5
1E9
  8
BOTTOM_OUTSIDECUTPATH
 10
188.1299999999999955
 20
131.7299999999999898
 30
0.0
 11
186.5502944000000127
 21
131.7299999999999898
 31
0.0
  0
LINE
  5
1EA
  8
BOTTOM_OUTSIDECUTPATH
 10
186.5502944000000127
 20
131.7299999999999898
 30
0.0
 11
186.4799999999999898
 21
131.6597055999999952
 31
0.0
  0
LINE
  5
1EB
  8
BOTTOM_OUTSIDECUTPATH
 10
186.4799999999999898
 20
131.6597055999999952
 30
0.0
 11
186.4799999999999898
 21
118.0602944000000036
 31
0.0
  0
LINE
  5
1EC
  8
BOTTOM_OUTSIDECUTPATH
 10
186.4799999999999898
 20
118.0602944000000036
 30
0.0
 11
186.5502944000000127
 21
117.9899999999999949
 31
0.0
  0
LINE
  5
1ED
  8
BOTTOM_OUTSIDECUTPATH
 10
186.5502944000000127
 20
117.9899999999999949
 30
0.0
 11
188.1299999999999955
 21
117.9899999999999949
 31
0.0
  0
LINE
  5
1EE
  8
BOTTOM_OUTSIDECUTPATH
 10
188.1299999999999955
 20
117.9899999999999949
 30
0.0
 11
188.1299999999999955
 21
104.730000000000004
 31
0.0
  0
LINE
  5
1EF
  8
BOTTOM_OUTSIDECUTPATH
 10
188.1299999999999955
 20
104.730000000000004
 30
0.0
 11
186.5502944000000127
 21
104.730000000000004
 31
0.0
  0
LINE
  5
1F0
  8
BOTTOM_OUTSIDECUTPATH
 10
186.5502944000000127
 20
104.730000000000004
 30
0.0
 11
186.4799999999999898
 21
104.6597055999999952
 31
0.0
  0
LINE
  5
1F1
  8
BOTTOM_OUTSIDECUTPATH
 10
186.4799999999999898
 20
104.6597055999999952
 30
0.0
 11
186.4799999999999898
 21
91.0602944000000036
 31
0.0
  0
LINE
  5
1F2
  8
BOTTOM_OUTSIDECUTPATH
 10
186.4799999999999898
 20
91.0602944000000036
 30
0.0
 11
186.5502944000000127
 21
90.9899999999999949
 31
0.0
  0
LINE
  5
1F3
  8
BOTTOM_OUTSIDECUTPATH
 10
186.5502944000000127
 20
90.9899999999999949
 30
0.0
 11
188.1299999999999955
 21
90.9899999999999949
 31
0.0
  0
LINE
  5
1F4
  8
BOTTOM_OUTSIDECUTPATH
 10
188.1299999999999955
 20
90.9899999999999949
 30
0.0
 11
188.1299999999999955
 21
77.9602943999999951
 31
0.0
  0
LINE
  5
1F5
  8
BOTTOM_OUTSIDECUTPATH
 10
188.1299999999999955
 20
77.9602943999999951
 30
0.0
 11
188.20029439999999
 21
77.8900000000000006
 31
0.0
  0
LINE
  5
1F6
  8
BOTTOM_OUTSIDECUTPATH
 10
188.20029439999999
 20
77.8900000000000006
 30
0.0
 11
207.7299999999999898
 21
77.8900000000000006
 31
0.0
  0
LINE
  5
1F7
  8
BOTTOM_OUTSIDECUTPATH
 10
207.7299999999999898
 20
77.8900000000000006
 30
0.0
 11
207.7299999999999898
 21
76.3102944000000036
 31
0.0
  0
LINE
  5
1F8
  8
BOTTOM_OUTSIDECUTPATH
 10
207.7299999999999898
 20
76.3102944000000036
 30
0.0
 11
207.8002944000000127
 21
76.2399999999999949
 31
0.0
  0
LINE
  5
1F9
  8
BOTTOM_OUTSIDECUTPATH
 10
207.8002944000000127
 20
76.2399999999999949
 30
0.0
 11
221.3997056000000043
 21
76.2399999999999949
 31
0.0
  0
LINE
  5
1FA
  8
BOTTOM_OUTSIDECUTPATH
 10
221.3997056000000043
 20
76.2399999999999949
 30
0.0
 11
221.4699999999999989
 21
76.3102944000000036
 31
0.0
  0
POLYLINE
  5
206
  8
0
  6
CONTINUOUS
 66
     1
 10
0.0
 20
0.0
 30
0.0
 70
     1
  0
VERTEX
  5
25C
  8
0
  6
CONTINUOUS
 10
84.2399999999999949
 20
118.4097055999999952
 30
0.0
  0
VERTEX
  5
25D
  8
0
  6
CONTINUOUS
 10
97.2399999999999949
 20
118.4097055999999952
 30
0.0
  0
VERTEX
  5
25E
  8
0
  6
CONTINUOUS
 10
97.2399999999999949
 20
131.4097055999999952
 30
0.0
  0
VERTEX
  5
25F
  8
0
  6
CONTINUOUS
 10
84.2399999999999949
 20
131.4097055999999952
 30
0.0
  0
SEQEND
  5
260
  8
0
  6
CONTINUOUS
  0
LINE
  5
208
  8
0
  6
CONTINUOUS
 10
-0.0000000000000019
 20
63.0
 30
0.0
 11
110.2399999999999949
 21
62.006846846846841
 31
0.0
  0
ENDSEC
  0
EOF
