0
SECTION
2
HEADER
9
$INSUNITS
70
4
9
$ACADVER
1
AC1014
9
$HANDSEED
5
FFFF
0
ENDSEC
0
SECTION
2
TABLES
0
TABLE
2
VPORT
5
8
100
AcDbSymbolTable
0
ENDTAB
0
TABLE
2
LTYPE
5
5
100
AcDbSymbolTable
0
LTYPE
5
14
100
AcDbSymbolTableRecord
100
AcDbLinetypeTableRecord
2
BYBLOCK
70
0
0
LTYPE
5
15
100
AcDbSymbolTableRecord
100
AcDbLinetypeTableRecord
2
BYLAYER
70
0
0
ENDTAB
0
TABLE
2
LAYER
5
2
100
AcDbSymbolTable
70
2
0
LAYER
5
50
100
AcDbSymbolTableRecord
100
AcDbLayerTableRecord
2
0
70
0
6
CONTINUOUS
0
ENDTAB
0
TABLE
2
STYLE
5
3
100
AcDbSymbolTable
70
1
0
STYLE
5
11
100
AcDbSymbolTableRecord
100
AcDbTextStyleTableRecord
2
STANDARD
70
0
0
ENDTAB
0
TABLE
2
VIEW
5
6
100
AcDbSymbolTable
70
0
0
ENDTAB
0
TABLE
2
UCS
5
7
100
AcDbSymbolTable
70
0
0
ENDTAB
0
TABLE
2
APPID
5
9
100
AcDbSymbolTable
70
2
0
APPID
5
12
100
AcDbSymbolTableRecord
100
AcDbRegAppTableRecord
2
ACAD
70
0
0
ENDTAB
0
TABLE
2
DIMSTYLE
5
A
100
AcDbSymbolTable
70
1
0
ENDTAB
0
TABLE
2
BLOCK_RECORD
5
1
100
AcDbSymbolTable
70
1
0
BLOCK_RECORD
5
1F
100
AcDbSymbolTableRecord
100
AcDbBlockTableRecord
2
*MODEL_SPACE
0
BLOCK_RECORD
5
1B
100
AcDbSymbolTableRecord
100
AcDbBlockTableRecord
2
*PAPER_SPACE
0
ENDTAB
0
ENDSEC
0
SECTION
2
BLOCKS
0
BLOCK
5
20
100
AcDbEntity
100
AcDbBlockBegin
2
*MODEL_SPACE
0
ENDBLK
5
21
100
AcDbEntity
100
AcDbBlockEnd
0
BLOCK
5
1C
100
AcDbEntity
100
AcDbBlockBegin
2
*PAPER_SPACE
0
ENDBLK
5
1D
100
AcDbEntity
100
AcDbBlockEnd
0
ENDSEC
0
SECTION
2
ENTITIES
0
ARC
5
100
100
AcDbEntity
8
0
100
AcDbCircle
10
659.84814215970368
20
-975.66630599183486
30
0
40
3.0254000000002086
210
0
220
0
230
1
100
AcDbArc
50
-44.999999999937558
51
135.00000120747694
0
LINE
5
101
100
AcDbEntity
8
0
100
AcDbLine
10
661.98742301550794
20
-977.80558684763446
30
0
11
661.98742301550783
21
-988.44846342443179
31
0
0
ARC
5
102
100
AcDbEntity
8
0
100
AcDbCircle
10
659.84814215970368
20
-990.58774428023139
30
0
40
3.0254000000000074
210
0
220
0
230
1
100
AcDbArc
50
-134.99999999991476
51
44.999999999939106
0
LINE
5
103
100
AcDbEntity
8
0
100
AcDbLine
10
657.70886130390511
20
-992.72702513603633
30
0
11
654.16598472710643
21
-992.72702513603633
31
0
0
ARC
5
104
100
AcDbEntity
8
0
100
AcDbCircle
10
652.02670387130775
20
-990.58774428023173
30
0
40
3.0254000000002086
210
0
220
0
230
1
100
AcDbArc
50
134.99999999994216
51
314.99999999992082
0
LINE
5
105
100
AcDbEntity
8
0
100
AcDbLine
10
649.88742301550803
20
-988.4484634244277
30
0
11
649.88742301550803
21
-977.80558684763901
31
0
0
ARC
5
106
100
AcDbEntity
8
0
100
AcDbCircle
10
652.02670387130775
20
-975.66630599183509
30
0
40
3.0254000000000074
210
0
220
-0
230
1
100
AcDbArc
50
44.999999999919311
51
225.00000000005633
0
LINE
5
107
100
AcDbEntity
8
0
100
AcDbLine
10
654.16598472711257
20
-973.52702513603629
30
0
11
657.70886125881759
21
-973.5270251811171
31
0
0
LWPOLYLINE
5
108
100
AcDbEntity
8
0
100
AcDbPolyline
90
8
70
1
43
0.0
10
657.70886130389954
20
-1005.5270251360354
42
-0.99999999999999989
10
661.98742301550794
20
-1009.8055868476343
10
661.9874230155026
20
-1020.448463424426
42
-0.99999999999999989
10
657.70886130390522
20
-1024.727025136036
10
654.16598472710757
20
-1024.7270251360351
42
-0.99999999999999989
10
649.88742301550803
20
-1020.4484634244272
10
649.88742301550292
20
-1009.8055868476337
42
-0.99999999999999989
10
654.16598472711246
20
-1005.5270251360361
0
LWPOLYLINE
5
109
100
AcDbEntity
8
0
100
AcDbPolyline
90
8
70
1
43
0.0
10
657.70886130389977
20
-1069.527025136035
42
-0.99999999999999989
10
661.98742301550794
20
-1073.8055868476342
10
661.98742301550226
20
-1084.4484634244257
42
-0.99999999999999989
10
657.70886130390545
20
-1088.7270251360362
10
654.16598472710757
20
-1088.7270251360346
42
-0.99999999999999989
10
649.88742301550803
20
-1084.448463424427
10
649.88742301550235
20
-1073.8055868476335
42
-0.99999999999999989
10
654.16598472711269
20
-1069.5270251360362
0
ARC
5
110
100
AcDbEntity
8
0
100
AcDbCircle
10
659.84814215970368
20
-1039.6663059918346
30
0
40
3.0254000000002086
210
0
220
0
230
1
100
AcDbArc
50
-44.999999999937558
51
135.00000120747694
0
LINE
5
111
100
AcDbEntity
8
0
100
AcDbLine
10
661.98742301550794
20
-1041.8055868476342
30
0
11
661.98742301550783
21
-1052.4484634244318
31
0
0
ARC
5
112
100
AcDbEntity
8
0
100
AcDbCircle
10
659.84814215970368
20
-1054.5877442802309
30
0
40
3.0254000000000074
210
0
220
0
230
1
100
AcDbArc
50
-134.99999999991019
51
44.99999999993301
0
LINE
5
113
100
AcDbEntity
8
0
100
AcDbLine
10
657.70886130390534
20
-1056.727025136036
30
0
11
654.16598472710621
21
-1056.727025136036
31
0
0
ARC
5
114
100
AcDbEntity
8
0
100
AcDbCircle
10
652.02670387130763
20
-1054.5877442802312
30
0
40
3.0254000000000074
210
0
220
0
230
1
100
AcDbArc
50
134.99999999994216
51
314.99999999991627
0
LINE
5
115
100
AcDbEntity
8
0
100
AcDbLine
10
649.88742301550803
20
-1052.4484634244272
30
0
11
649.88742301550803
21
-1041.8055868476386
31
0
0
ARC
5
116
100
AcDbEntity
8
0
100
AcDbCircle
10
652.02670387130775
20
-1039.6663059918349
30
0
40
3.0254000000000074
210
0
220
-0
230
1
100
AcDbArc
50
44.99999999991779
51
225.00000000005326
0
LINE
5
117
100
AcDbEntity
8
0
100
AcDbLine
10
654.16598472711257
20
-1037.5270251360362
30
0
11
657.70886125881759
21
-1037.5270251811169
31
0
0
ARC
5
118
100
AcDbEntity
8
0
100
AcDbCircle
10
659.84814215970391
20
-943.66630599183532
30
0
40
3.0254000000000074
210
0
220
0
230
1
100
AcDbArc
50
-44.999999999940606
51
135.00000120747848
0
LINE
5
119
100
AcDbEntity
8
0
100
AcDbLine
10
661.98742301550794
20
-945.80558684763491
30
0
11
661.98742301550783
21
-956.44846342443213
31
0
0
ARC
5
120
100
AcDbEntity
8
0
100
AcDbCircle
10
659.84814215970368
20
-958.5877442802315
30
0
40
3.0254000000000074
210
0
220
0
230
1
100
AcDbArc
50
-134.99999999991476
51
44.999999999936065
0
LINE
5
121
100
AcDbEntity
8
0
100
AcDbLine
10
657.70886130390511
20
-960.72702513603645
30
0
11
654.16598472710643
21
-960.72702513603645
31
0
0
ARC
5
122
100
AcDbEntity
8
0
100
AcDbCircle
10
652.02670387130775
20
-958.58774428023185
30
0
40
3.0254000000002086
210
0
220
0
230
1
100
AcDbArc
50
134.99999999994066
51
314.99999999992082
0
LINE
5
123
100
AcDbEntity
8
0
100
AcDbLine
10
649.88742301550803
20
-956.4484634244277
30
0
11
649.88742301550803
21
-945.80558684763912
31
0
0
ARC
5
124
100
AcDbEntity
8
0
100
AcDbCircle
10
652.02670387130763
20
-943.66630599183532
30
0
40
3.0254000000000074
210
0
220
-0
230
1
100
AcDbArc
50
44.999999999922359
51
225.00000000005633
0
LINE
5
125
100
AcDbEntity
8
0
100
AcDbLine
10
654.16598472711235
20
-941.5270251360364
30
0
11
657.70886125881793
21
-941.52702518111778
31
0
0
ARC
5
126
100
AcDbEntity
8
0
100
AcDbCircle
10
339.92670387130977
20
-975.66630599183486
30
0
40
3.0254000000001078
210
0
220
-0
230
1
100
AcDbArc
50
44.999999999921599
51
224.99999999992158
0
LINE
5
127
100
AcDbEntity
8
0
100
AcDbLine
10
342.06598472711454
20
-973.52702513603595
30
0
11
345.60886130390116
21
-973.52702513603595
31
0
0
ARC
5
128
100
AcDbEntity
8
0
100
AcDbCircle
10
347.74814215970594
20
-975.66630599183463
30
0
40
3.0253999999999577
210
0
220
0
230
1
100
AcDbArc
50
-44.999999999963464
51
135.00000000008146
0
LINE
5
129
100
AcDbEntity
8
0
100
AcDbLine
10
349.88742301550906
20
-977.80558684763503
30
0
11
349.887423015509
21
-988.44846342443032
31
0
0
ARC
5
130
100
AcDbEntity
8
0
100
AcDbCircle
10
347.74814215970622
20
-990.58774428023128
30
0
40
3.0254000000000074
210
0
220
0
230
1
100
AcDbArc
50
-134.99999999992085
51
44.999999999975635
0
LINE
5
131
100
AcDbEntity
8
0
100
AcDbLine
10
345.60886130390742
20
-992.72702513603599
30
0
11
342.06598472710851
21
-992.72702513603599
31
0
0
ARC
5
132
100
AcDbEntity
8
0
100
AcDbCircle
10
339.92670387130971
20
-990.58774428023128
30
0
40
3.0254000000000074
210
0
220
0
230
1
100
AcDbArc
50
134.99999999996498
51
314.99999999992082
0
LINE
5
133
100
AcDbEntity
8
0
100
AcDbLine
10
337.78742301550921
20
-988.44846342442816
30
0
11
337.787423015505
21
-977.80558684763378
31
0
0
LWPOLYLINE
5
134
100
AcDbEntity
8
0
100
AcDbPolyline
90
8
70
1
43
0.0
10
337.78742301550494
20
-1009.8055868476337
42
-0.99999999999999989
10
342.06598472711448
20
-1005.5270251360357
10
345.60886130390344
20
-1005.5270251360338
42
-0.99999999999999989
10
349.887423015509
20
-1009.8055868476354
10
349.88742301550468
20
-1020.4484634244261
42
-0.99999999999999989
10
345.60886130390764
20
-1024.727025136036
10
342.06598472711028
20
-1024.7270251360337
42
-0.99999999999999989
10
337.78742301550915
20
-1020.4484634244279
0
ARC
5
135
100
AcDbEntity
8
0
100
AcDbCircle
10
339.92670387131
20
-1071.6663059918344
30
0
40
3.0254000000000074
210
0
220
-0
230
1
100
AcDbArc
50
44.999999999914742
51
224.99999999991169
0
LINE
5
136
100
AcDbEntity
8
0
100
AcDbLine
10
342.06598472711505
20
-1069.5270251360357
30
0
11
345.60886130390116
21
-1069.5270251360357
31
0
0
ARC
5
137
100
AcDbEntity
8
0
100
AcDbCircle
10
347.74814215970622
20
-1071.6663059918344
30
0
40
3.0254000000000074
210
0
220
0
230
1
100
AcDbArc
50
-44.999999999972573
51
135.00000000008527
0
LINE
5
138
100
AcDbEntity
8
0
100
AcDbLine
10
349.887423015509
20
-1073.8055868476351
30
0
11
349.887423015509
21
-1084.44846342443
31
0
0
ARC
5
139
100
AcDbEntity
8
0
100
AcDbCircle
10
347.74814215970622
20
-1086.5877442802307
30
0
40
3.0254000000000576
210
0
220
0
230
1
100
AcDbArc
50
-134.99999999990641
51
44.999999999972601
0
LINE
5
140
100
AcDbEntity
8
0
100
AcDbLine
10
345.60886130390793
20
-1088.727025136036
30
0
11
342.06598472710823
21
-1088.7270251360358
31
0
0
ARC
5
141
100
AcDbEntity
8
0
100
AcDbCircle
10
339.92670387131
20
-1086.5877442802307
30
0
40
3.025400000000058
210
0
220
0
230
1
100
AcDbArc
50
134.99999999997411
51
314.99999999990865
0
LINE
5
142
100
AcDbEntity
8
0
100
AcDbLine
10
337.78742301550915
20
-1084.4484634244279
30
0
11
337.78742301550494
21
-1073.8055868476329
31
0
0
LWPOLYLINE
5
143
100
AcDbEntity
8
0
100
AcDbPolyline
90
8
70
1
43
0.0
10
337.787423015505
20
-1041.8055868476335
42
-0.99999999999999989
10
342.06598472711454
20
-1037.5270251360357
10
345.60886130390338
20
-1037.5270251360334
42
-0.99999999999999989
10
349.88742301550906
20
-1041.8055868476351
10
349.88742301550474
20
-1052.4484634244259
42
-0.99999999999999989
10
345.6088613039077
20
-1056.7270251360358
10
342.06598472711022
20
-1056.7270251360337
42
-0.99999999999999989
10
337.78742301550921
20
-1052.4484634244277
0
LWPOLYLINE
5
144
100
AcDbEntity
8
0
100
AcDbPolyline
90
8
70
1
43
0.0
10
337.78742301550488
20
-945.80558684763423
42
-0.99999999999999989
10
342.06598472711443
20
-941.52702513603629
10
345.60886130390287
20
-941.52702513603458
42
-0.99999999999999989
10
349.887423015509
20
-945.8055868476356
10
349.88742301550474
20
-956.44846342442656
42
-0.99999999999999989
10
345.60886130390713
20
-960.72702513603622
10
342.06598472711016
20
-960.7270251360344
42
-0.99999999999999989
10
337.78742301550926
20
-956.44846342442838
0
LWPOLYLINE
5
145
100
AcDbEntity
8
0
100
AcDbPolyline
90
8
70
1
43
0.0
10
349.94672760245061
20
-930.90945960027261
42
-0.9860375241765964
10
345.60886130390708
20
-935.12702513603608
10
325.887423015509
20
-935.12702513603608
10
325.88742301550883
20
-1095.1270251360356
10
673.88742301550792
20
-1095.1270251360361
10
673.88742301550803
20
-935.12702513603676
10
654.16598472710643
20
-935.12702513603642
42
-0.98603752417734969
10
649.82811842856654
20
-930.90945960026943
42
0.97226729583073823
0
CIRCLE
5
146
100
AcDbEntity
8
0
100
AcDbCircle
10
499.88742301550843
20
-935.12702513603642
30
0
40
16.973999999999823
210
0
220
-0
230
1
0
ARC
5
147
100
AcDbEntity
8
0
100
AcDbCircle
10
604.55131233115037
20
-630.40010419957491
30
0
40
3.0253999999999071
210
0
220
0
230
1
100
AcDbArc
50
-44.999999999989363
51
135.00000000001219
0
LINE
5
148
100
AcDbEntity
8
0
100
AcDbLine
10
606.69059318695247
20
-632.53938505537621
30
0
11
606.69059318695247
21
-643.18226163216968
31
0
0
ARC
5
149
100
AcDbEntity
8
0
100
AcDbCircle
10
604.55131233115014
20
-645.32154248797087
30
0
40
3.0254000000001078
210
0
220
0
230
1
100
AcDbArc
50
-134.99999999997107
51
44.999999999984773
0
LINE
5
150
100
AcDbEntity
8
0
100
AcDbLine
10
602.41203147534941
20
-647.46082334377377
30
0
11
598.86915489855483
21
-647.46082334377343
31
0
0
ARC
5
151
100
AcDbEntity
8
0
100
AcDbCircle
10
596.72987404275409
20
-645.32154248797099
30
0
40
3.0253999999999577
210
0
220
0
230
1
100
AcDbArc
50
134.99999999999238
51
314.99999999997715
0
LINE
5
152
100
AcDbEntity
8
0
100
AcDbLine
10
594.59059318695256
20
-643.18226163216889
30
0
11
594.59059318695267
21
-632.53938505537701
31
0
0
ARC
5
153
100
AcDbEntity
8
0
100
AcDbCircle
10
596.72987404275409
20
-630.40010419957491
30
0
40
3.0254000000000074
210
0
220
-0
230
1
100
AcDbArc
50
44.999999999981732
51
225.00000000000915
0
LINE
5
154
100
AcDbEntity
8
0
100
AcDbLine
10
598.86915489855653
20
-628.26082334377384
30
0
11
602.41203147534816
21
-628.26082334377361
31
0
0
ARC
5
155
100
AcDbEntity
8
0
100
AcDbCircle
10
604.55131233115026
20
-662.40010419957457
30
0
40
3.0253999999999568
210
0
220
0
230
1
100
AcDbArc
50
-44.999999999984787
51
135.00000000001523
0
LINE
5
156
100
AcDbEntity
8
0
100
AcDbLine
10
606.69059318695258
20
-664.53938505537576
30
0
11
606.69059318695247
21
-675.18226163216968
31
0
0
ARC
5
157
100
AcDbEntity
8
0
100
AcDbCircle
10
604.55131233115014
20
-677.32154248797076
30
0
40
3.0254000000001078
210
0
220
0
230
1
100
AcDbArc
50
-134.99999999997107
51
44.999999999983253
0
LINE
5
158
100
AcDbEntity
8
0
100
AcDbLine
10
602.41203147534941
20
-679.46082334377365
30
0
11
598.86915489855483
21
-679.46082334377365
31
0
0
ARC
5
159
100
AcDbEntity
8
0
100
AcDbCircle
10
596.72987404275409
20
-677.32154248797087
30
0
40
3.0253999999999577
210
0
220
0
230
1
100
AcDbArc
50
134.99999999999238
51
314.9999999999726
0
LINE
5
160
100
AcDbEntity
8
0
100
AcDbLine
10
594.59059318695256
20
-675.18226163216877
30
0
11
594.59059318695267
21
-664.53938505537667
31
0
0
ARC
5
161
100
AcDbEntity
8
0
100
AcDbCircle
10
596.72987404275409
20
-662.40010419957457
30
0
40
3.0253999999999577
210
0
220
-0
230
1
100
AcDbArc
50
44.999999999978684
51
225.00000000000915
0
LINE
5
162
100
AcDbEntity
8
0
100
AcDbLine
10
598.86915489855664
20
-660.26082334377361
30
0
11
602.41203147534793
21
-660.26082334377338
31
0
0
ARC
5
163
100
AcDbEntity
8
0
100
AcDbCircle
10
604.55131233115026
20
-726.40010419957457
30
0
40
3.0253999999999568
210
0
220
0
230
1
100
AcDbArc
50
-44.999999999986315
51
135.00000000001523
0
LINE
5
164
100
AcDbEntity
8
0
100
AcDbLine
10
606.69059318695258
20
-728.53938505537587
30
0
11
606.69059318695247
21
-739.18226163216968
31
0
0
ARC
5
165
100
AcDbEntity
8
0
100
AcDbCircle
10
604.55131233115014
20
-741.32154248797076
30
0
40
3.0254000000001078
210
0
220
0
230
1
100
AcDbArc
50
-134.99999999997107
51
44.999999999983253
0
LINE
5
166
100
AcDbEntity
8
0
100
AcDbLine
10
602.41203147534941
20
-743.46082334377365
30
0
11
598.86915489855483
21
-743.46082334377365
31
0
0
ARC
5
167
100
AcDbEntity
8
0
100
AcDbCircle
10
596.72987404275409
20
-741.32154248797087
30
0
40
3.0253999999999577
210
0
220
0
230
1
100
AcDbArc
50
134.99999999999392
51
314.9999999999726
0
LINE
5
168
100
AcDbEntity
8
0
100
AcDbLine
10
594.59059318695256
20
-739.18226163216889
30
0
11
594.59059318695267
21
-728.53938505537667
31
0
0
ARC
5
169
100
AcDbEntity
8
0
100
AcDbCircle
10
596.72987404275409
20
-726.40010419957457
30
0
40
3.0253999999999577
210
0
220
-0
230
1
100
AcDbArc
50
44.99999999997717
51
225.00000000000915
0
LINE
5
170
100
AcDbEntity
8
0
100
AcDbLine
10
598.86915489855664
20
-724.26082334377372
30
0
11
602.41203147534793
21
-724.26082334377338
31
0
0
ARC
5
171
100
AcDbEntity
8
0
100
AcDbCircle
10
604.55131233115026
20
-694.40010419957446
30
0
40
3.0253999999999568
210
0
220
0
230
1
100
AcDbArc
50
-44.999999999984787
51
135.00000000001523
0
LINE
5
172
100
AcDbEntity
8
0
100
AcDbLine
10
606.69059318695258
20
-696.53938505537565
30
0
11
606.69059318695247
21
-707.18226163216957
31
0
0
ARC
5
173
100
AcDbEntity
8
0
100
AcDbCircle
10
604.55131233115014
20
-709.32154248797087
30
0
40
3.0254000000001078
210
0
220
0
230
1
100
AcDbArc
50
-134.99999999996956
51
44.999999999986294
0
LINE
5
174
100
AcDbEntity
8
0
100
AcDbLine
10
602.41203147534941
20
-711.46082334377388
30
0
11
598.86915489855483
21
-711.46082334377354
31
0
0
ARC
5
175
100
AcDbEntity
8
0
100
AcDbCircle
10
596.72987404275409
20
-709.3215424879711
30
0
40
3.0253999999999577
210
0
220
0
230
1
100
AcDbArc
50
134.99999999999238
51
314.99999999997715
0
LINE
5
176
100
AcDbEntity
8
0
100
AcDbLine
10
594.59059318695256
20
-707.182261632169
30
0
11
594.59059318695267
21
-696.53938505537678
31
0
0
ARC
5
177
100
AcDbEntity
8
0
100
AcDbCircle
10
596.72987404275409
20
-694.40010419957446
30
0
40
3.0253999999999577
210
0
220
-0
230
1
100
AcDbArc
50
44.999999999978684
51
225.00000000001216
0
LINE
5
178
100
AcDbEntity
8
0
100
AcDbLine
10
598.86915489855664
20
-692.2608233437735
30
0
11
602.41203147534793
21
-692.26082334377327
31
0
0
ARC
5
179
100
AcDbEntity
8
0
100
AcDbCircle
10
604.55131233115026
20
-598.40010419957503
30
0
40
3.0254000000000074
210
0
220
0
230
1
100
AcDbArc
50
-44.999999999989363
51
135.00000120742976
0
LINE
5
180
100
AcDbEntity
8
0
100
AcDbLine
10
606.69059318695247
20
-600.53938505537644
30
0
11
606.69059318695247
21
-611.18226163217014
31
0
0
ARC
5
181
100
AcDbEntity
8
0
100
AcDbCircle
10
604.55131233115026
20
-613.32154248797133
30
0
40
3.0254000000000576
210
0
220
0
230
1
100
AcDbArc
50
-134.99999999998326
51
44.999999999986294
0
LINE
5
182
100
AcDbEntity
8
0
100
AcDbLine
10
602.41203147534907
20
-615.46082334377377
30
0
11
598.86915489855505
21
-615.46082334377377
31
0
0
ARC
5
183
100
AcDbEntity
8
0
100
AcDbCircle
10
596.72987404275409
20
-613.32154248797133
30
0
40
3.0254000000000074
210
0
220
0
230
1
100
AcDbArc
50
134.99999999999085
51
314.99999999998022
0
LINE
5
184
100
AcDbEntity
8
0
100
AcDbLine
10
594.59059318695267
20
-611.18226163216923
30
0
11
594.59059318695267
21
-600.53938505537724
31
0
0
ARC
5
185
100
AcDbEntity
8
0
100
AcDbCircle
10
596.72987404275409
20
-598.40010419957514
30
0
40
3.0254000000000576
210
0
220
-0
230
1
100
AcDbArc
50
44.999999999987814
51
225.00000000000915
0
LINE
5
186
100
AcDbEntity
8
0
100
AcDbLine
10
598.8691548985563
20
-596.26082334377384
30
0
11
602.4120314302661
21
-596.26082338885567
31
0
0
LWPOLYLINE
5
187
100
AcDbEntity
8
0
100
AcDbPolyline
90
8
70
1
43
0.0
10
282.49059318695231
20
-632.53938505537587
42
-0.99999999999999989
10
286.7691548985573
20
-628.26082334377372
10
290.3120314753491
20
-628.26082334377315
42
-0.99999999999999989
10
294.59059318695296
20
-632.53938505537644
10
294.59059318695211
20
-643.18226163216877
42
-0.99999999999999989
10
290.31203147534995
20
-647.46082334377343
10
286.76915489855645
20
-647.46082334377297
42
-0.99999999999999989
10
282.49059318695316
20
-643.182261632169
0
LWPOLYLINE
5
188
100
AcDbEntity
8
0
100
AcDbPolyline
90
8
70
1
43
0.0
10
282.49059318695231
20
-664.53938505537565
42
-0.99999999999999989
10
286.7691548985573
20
-660.2608233437735
10
290.3120314753491
20
-660.26082334377293
42
-0.99999999999999989
10
294.59059318695296
20
-664.53938505537621
10
294.59059318695211
20
-675.182261632169
42
-0.99999999999999989
10
290.31203147534995
20
-679.46082334377365
10
286.76915489855645
20
-679.46082334377309
42
-0.99999999999999989
10
282.49059318695316
20
-675.18226163216923
0
LWPOLYLINE
5
189
100
AcDbEntity
8
0
100
AcDbPolyline
90
8
70
1
43
0.0
10
282.49059318695231
20
-728.53938505537576
42
-0.99999999999999989
10
286.7691548985573
20
-724.26082334377361
10
290.3120314753491
20
-724.26082334377293
42
-0.99999999999999989
10
294.59059318695296
20
-728.53938505537621
10
294.59059318695211
20
-739.182261632169
42
-0.99999999999999989
10
290.31203147534995
20
-743.46082334377365
10
286.76915489855645
20
-743.4608233437732
42
-0.99999999999999989
10
282.49059318695316
20
-739.18226163216923
0
LWPOLYLINE
5
190
100
AcDbEntity
8
0
100
AcDbPolyline
90
8
70
1
43
0.0
10
282.49059318695231
20
-696.53938505537576
42
-0.99999999999999989
10
286.7691548985573
20
-692.26082334377361
10
290.3120314753491
20
-692.26082334377315
42
-0.99999999999999989
10
294.59059318695296
20
-696.53938505537644
10
294.59059318695211
20
-707.18226163216877
42
-0.99999999999999989
10
290.31203147534995
20
-711.46082334377354
10
286.76915489855645
20
-711.46082334377297
42
-0.99999999999999989
10
282.49059318695316
20
-707.18226163216912
0
LWPOLYLINE
5
191
100
AcDbEntity
8
0
100
AcDbPolyline
90
8
70
1
43
0.0
10
282.49059318695237
20
-600.5393850553761
42
-0.99999999999999989
10
286.76915489855725
20
-596.26082334377384
10
290.31203147534904
20
-596.26082334377338
42
-0.99999999999999989
10
294.59059318695301
20
-600.53938505537656
10
294.59059318695211
20
-611.18226163216877
42
-0.99999999999999989
10
290.31203147534995
20
-615.46082334377377
10
286.76915489855645
20
-615.4608233437732
42
-0.99999999999999989
10
282.49059318695316
20
-611.18226163216934
0
LWPOLYLINE
5
192
100
AcDbEntity
8
0
100
AcDbPolyline
90
8
70
1
43
0.0
10
294.64989777389451
20
-585.6432578080113
42
-0.98603752417738888
10
290.3120314753499
20
-589.86082334377375
10
270.59059318695296
20
-589.86082334377375
10
270.5905931869529
20
-749.86082334377352
10
618.59059318695267
20
-749.86082334377352
10
618.59059318695267
20
-589.86082334377375
10
598.86915489855517
20
-589.86082334377397
42
-0.98603752417754253
10
594.53128860001118
20
-585.64325780801084
42
0.97226729583075555
0
CIRCLE
5
193
100
AcDbEntity
8
0
100
AcDbCircle
10
444.59059318695267
20
-589.86082334377375
30
0
40
16.973999999999858
210
0
220
-0
230
1
0
LWPOLYLINE
5
194
100
AcDbEntity
8
0
100
AcDbPolyline
90
28
70
1
43
0.0
10
783.15936640091707
20
-842.75476414217701
42
-0.99999999999999989
10
787.43792811252433
20
-838.47620243057713
10
992.2141380226451
20
-838.47620243057759
42
-0.99999999999999989
10
996.49269973425316
20
-842.75476414217667
10
996.49269973425305
20
-978.47620243057679
10
1020.4926997342532
20
-978.4762024305769
10
1020.4926997342491
20
-842.75476414217701
42
-0.99999999999999989
10
1024.7712614458565
20
-838.47620243057713
10
1173.1593664009197
20
-838.47620243057713
10
1173.1593664009197
20
-814.47620243057725
10
1143.4379281125184
20
-814.4762024305777
42
-0.99999999999999989
10
1139.1593664009197
20
-810.1976407189693
10
1139.1593664009197
20
-674.47620243057759
10
1115.1593664009195
20
-674.47620243057736
10
1115.1593664009158
20
-810.19764071896986
42
-0.99999999999999989
10
1110.8808046893157
20
-814.47620243057713
10
906.10459477918698
20
-814.47620243057702
42
-0.99999999999999989
10
901.82603306758654
20
-810.19764071896998
10
901.82603306758665
20
-674.47620243057736
10
877.82603306758688
20
-674.47620243057736
10
877.82603306758324
20
-810.19764071896952
42
-0.99999999999999989
10
873.54747135598336
20
-814.47620243057713
10
725.15936640092059
20
-814.47620243057713
10
725.15936640092059
20
-838.47620243057736
10
754.88080468931435
20
-838.47620243057668
42
-0.99999999999999989
10
759.15936640092036
20
-842.75476414217769
10
759.15936640092036
20
-978.4762024305769
10
783.15936640092048
20
-978.4762024305769
0
LWPOLYLINE
5
195
100
AcDbEntity
8
0
100
AcDbPolyline
90
28
70
1
43
0.0
10
1027.2714180348455
20
-648.05881900640179
42
-0.99999999999999989
10
1031.5499797464531
20
-652.33738071800167
10
1031.5499797464533
20
-788.05881900640065
10
1055.5499797464531
20
-788.05881900640088
10
1055.5499797464497
20
-652.33738071800246
42
-0.99999999999999989
10
1059.828541458056
20
-648.05881900640111
10
1089.5499797464529
20
-648.05881900640111
10
1089.5499797464529
20
-624.05881900640122
10
941.16187479138694
20
-624.0588190064019
42
-0.99999999999999989
10
936.88331307978672
20
-619.78025729479475
10
936.8833130797866
20
-484.05881900640139
10
912.88331307978683
20
-484.05881900640134
10
912.88331307978387
20
-619.78025729479543
42
-0.99999999999999989
10
908.60475136818252
20
-624.05881900640122
10
703.82854145805459
20
-624.05881900640156
42
-0.99999999999999989
10
699.54997974645357
20
-619.78025729479532
10
699.54997974645369
20
-484.05881900640156
10
675.54997974645357
20
-484.05881900640156
10
675.54997974645164
20
-619.78025729479577
42
-0.99999999999999989
10
671.27141803485029
20
-624.05881900640134
10
641.5499797464538
20
-624.05881900640134
10
641.5499797464538
20
-648.05881900640134
10
789.93808470151419
20
-648.05881900640156
42
-0.99999999999999989
10
794.21664641312032
20
-652.33738071800235
10
794.21664641312054
20
-788.05881900640088
10
818.21664641312032
20
-788.05881900640088
10
818.21664641311736
20
-652.33738071800246
42
-0.99999999999999989
10
822.4952081247236
20
-648.05881900640145
0
ARC
5
196
100
AcDbEntity
8
0
100
AcDbCircle
10
796.44900466812476
20
-533.76530618898778
30
0
40
19.749199220472484
210
0
220
0
230
1
100
AcDbArc
50
149.33190173247669
51
150.66809826752362
0
ARC
5
197
100
AcDbEntity
8
0
100
AcDbCircle
10
774.00093894757856
20
-521.15159912478089
30
0
40
5.9999999999999929
210
0
220
0
230
1
100
AcDbArc
50
254.15940208248711
51
330.66809826752353
0
LINE
5
198
100
AcDbEntity
8
0
100
AcDbLine
10
772.36316709837911
20
-526.92374806343184
30
0
11
766.61872872924857
21
-525.2938387262999
31
0
0
SPLINE
5
199
100
AcDbEntity
8
0
100
AcDbSpline
70
4
71
5
72
81
73
75
74
0
42
0.000000001
43
0.0000000001
44
0.0000000001
40
0
40
0
40
0
40
0
40
0
40
0
40
0.014285714285714285
40
0.028571428571428571
40
0.042857142857142858
40
0.057142857142857141
40
0.071428571428571425
40
0.085714285714285715
40
0.10000000000000001
40
0.1142857142857143
40
0.12857142857142859
40
0.14285714285714288
40
0.15714285714285717
40
0.17142857142857146
40
0.18571428571428575
40
0.20000000000000004
40
0.21428571428571433
40
0.22857142857142862
40
0.24285714285714291
40
0.25714285714285717
40
0.27142857142857146
40
0.28571428571428575
40
0.30000000000000004
40
0.31428571428571433
40
0.32857142857142863
40
0.34285714285714292
40
0.35714285714285721
40
0.3714285714285715
40
0.38571428571428579
40
0.40000000000000008
40
0.41428571428571437
40
0.42857142857142866
40
0.44285714285714295
40
0.45714285714285724
40
0.47142857142857153
40
0.48571428571428582
40
0.50000000000000011
40
0.51428571428571435
40
0.52857142857142858
40
0.54285714285714282
40
0.55714285714285705
40
0.57142857142857129
40
0.58571428571428552
40
0.59999999999999976
40
0.61428571428571399
40
0.62857142857142823
40
0.64285714285714246
40
0.6571428571428567
40
0.67142857142857093
40
0.68571428571428517
40
0.6999999999999994
40
0.71428571428571364
40
0.72857142857142787
40
0.74285714285714211
40
0.75714285714285634
40
0.77142857142857058
40
0.78571428571428481
40
0.79999999999999905
40
0.81428571428571328
40
0.82857142857142752
40
0.84285714285714175
40
0.85714285714285599
40
0.87142857142857022
40
0.88571428571428445
40
0.89999999999999869
40
0.91428571428571292
40
0.92857142857142716
40
0.94285714285714139
40
0.95714285714285563
40
0.97142857142856986
40
0.9857142857142841
40
1
40
1
40
1
40
1
40
1
40
1
41
1
41
1
41
1
41
1
41
1
41
1
41
1
41
1
41
1
41
1
41
1
41
1
41
1
41
1
41
1
41
1
41
1
41
1
41
1
41
1
41
1
41
1
41
1
41
1
41
1
41
1
41
1
41
1
41
1
41
1
41
1
41
1
41
1
41
1
41
1
41
1
41
1
41
1
41
1
41
1
41
1
41
1
41
1
41
1
41
1
41
1
41
1
41
1
41
1
41
1
41
1
41
1
41
1
41
1
41
1
41
1
41
1
41
1
41
1
41
1
41
1
41
1
41
1
41
1
41
1
41
1
41
1
41
1
41
1
41
1
41
1
41
1
41
1
41
1
41
1
10
766.61872872924857
20
-525.2938387262999
30
0
10
766.57960082403633
20
-525.28273669439523
30
0
10
766.50103046373874
20
-525.26228535659118
30
0
10
766.38223130752988
20
-525.23686632461249
30
0
10
766.2220443735348
20
-525.21292436992223
30
0
10
766.01940362855942
20
-525.19633633485034
30
0
10
765.81507518900833
20
-525.18906203588779
30
0
10
765.60976186929247
20
-525.18724720138266
30
0
10
765.40395106099129
20
-525.18837788704468
30
0
10
765.19783092209855
20
-525.19175831088648
30
0
10
764.99140980340371
20
-525.19776882282804
30
0
10
764.78459332363161
20
-525.2073767642396
30
0
10
764.57727148032586
20
-525.22159038970153
30
0
10
764.36941843249781
20
-525.24082821101888
30
0
10
764.16109774465485
20
-525.26489616591778
30
0
10
763.95241949510341
20
-525.29327287835395
30
0
10
763.74351238217537
20
-525.32529906552406
30
0
10
763.53449061774882
20
-525.36039991179587
30
0
10
763.3254204072756
20
-525.39831100256833
30
0
10
763.1163306790769
20
-525.4390077189363
30
0
10
762.90722835039492
20
-525.48260440216802
30
0
10
762.69811162673409
20
-525.52926657987905
30
0
10
762.4889847225611
20
-525.57911371947046
30
0
10
762.27987022837067
20
-525.63213760545625
30
0
10
762.07080240506775
20
-525.68824745462985
30
0
10
761.8618218897667
20
-525.74730563287756
30
0
10
761.65297012955762
20
-525.80916514865021
30
0
10
761.44428333892176
20
-525.87371031175667
30
0
10
761.23578849834018
20
-525.94088373886075
30
0
10
761.02750668126248
20
-526.01066441037665
30
0
10
760.81945523104753
20
-526.08305338252694
30
0
10
760.6116502424502
20
-526.15805743975079
30
0
10
760.40410924234095
20
-526.2356713995448
30
0
10
760.196852692221
20
-526.31586823774921
30
0
10
759.98990259282459
20
-526.39860849322497
30
0
10
759.78328164997629
20
-526.48384590302294
30
0
10
759.57701227844746
20
-526.57153410365038
30
0
10
759.37111552248723
20
-526.66163382962952
30
0
10
759.16561050830819
20
-526.75411664080434
30
0
10
758.96051508885637
20
-526.84896087965785
30
0
10
758.75584624148007
20
-526.94614920967308
30
0
10
758.5516205344527
20
-527.04566567188112
30
0
10
758.34785462164018
20
-527.14749254742082
30
0
10
758.14456552197896
20
-527.25160853854493
30
0
10
757.94177033800042
20
-527.35799045427757
30
0
10
757.73948607811667
20
-527.46661420174951
30
0
10
757.53772944540538
20
-527.57745598809447
30
0
10
757.3365166094776
20
-527.69049352905517
30
0
10
757.13586306423826
20
-527.8057068917409
30
0
10
756.93578385622504
20
-527.92307775163601
30
0
10
756.73629375317648
20
-528.04258888299057
30
0
10
756.537407427635
20
-528.16422355286841
30
0
10
756.33913963853888
20
-528.28796491956075
30
0
10
756.14150538351521
20
-528.41379547561689
30
0
10
755.94451963693803
20
-528.54169745525053
30
0
10
755.74819711657847
20
-528.67165316101159
30
0
10
755.55255202445562
20
-528.80364531531302
30
0
10
755.35759781621482
20
-528.93765736581622
30
0
10
755.16334689122334
20
-529.07367385130067
30
0
10
754.96981105835471
20
-529.21168004994615
30
0
10
754.77700206831639
20
-529.351661551147
30
0
10
754.58493215744841
20
-529.49360381027896
30
0
10
754.3936144902932
20
-529.63749176548367
30
0
10
754.20306387138919
20
-529.78330923779845
30
0
10
754.01329620299884
20
-529.93103927355412
30
0
10
753.82432728375306
20
-530.08066498473613
30
0
10
753.63617176627724
20
-530.2321702383183
30
0
10
753.44884213058674
20
-530.38554035851155
30
0
10
753.26234742829786
20
-530.54076289912609
30
0
10
753.07669283585165
20
-530.69782807825493
30
0
10
752.89188082653811
20
-530.8567285344817
30
0
10
752.74470575152077
20
-530.98531308447139
30
0
10
752.63470370780874
20
-531.0825737953686
30
0
10
752.56153751674447
20
-531.14777961402058
30
0
10
752.52499654742167
20
-531.18047385951854
30
0
0
ARC
5
200
100
AcDbEntity
8
0
100
AcDbCircle
10
796.44900466812476
20
-533.76530618898778
30
0
40
43.999998267716542
210
0
220
0
230
1
100
AcDbArc
50
176.63215212182939
51
183.36784787817049
0
SPLINE
5
201
100
AcDbEntity
8
0
100
AcDbSpline
70
4
71
5
72
81
73
75
74
0
42
0.000000001
43
0.0000000001
44
0.0000000001
40
-1
40
-1
40
-1
40
-1
40
-1
40
-1
40
-0.9857142857142841
40
-0.97142857142856986
40
-0.95714285714285563
40
-0.94285714285714139
40
-0.92857142857142716
40
-0.91428571428571292
40
-0.89999999999999869
40
-0.88571428571428445
40
-0.87142857142857022
40
-0.85714285714285599
40
-0.84285714285714175
40
-0.82857142857142752
40
-0.81428571428571328
40
-0.79999999999999905
40
-0.78571428571428481
40
-0.77142857142857058
40
-0.75714285714285634
40
-0.74285714285714211
40
-0.72857142857142787
40
-0.71428571428571364
40
-0.6999999999999994
40
-0.68571428571428517
40
-0.67142857142857093
40
-0.6571428571428567
40
-0.64285714285714246
40
-0.62857142857142823
40
-0.61428571428571399
40
-0.59999999999999976
40
-0.58571428571428552
40
-0.57142857142857129
40
-0.55714285714285705
40
-0.54285714285714282
40
-0.52857142857142858
40
-0.51428571428571435
40
-0.50000000000000011
40
-0.48571428571428582
40
-0.47142857142857153
40
-0.45714285714285724
40
-0.44285714285714295
40
-0.42857142857142866
40
-0.41428571428571437
40
-0.40000000000000008
40
-0.38571428571428579
40
-0.3714285714285715
40
-0.35714285714285721
40
-0.34285714285714292
40
-0.32857142857142863
40
-0.31428571428571433
40
-0.30000000000000004
40
-0.28571428571428575
40
-0.27142857142857146
40
-0.25714285714285717
40
-0.24285714285714291
40
-0.22857142857142862
40
-0.21428571428571433
40
-0.20000000000000004
40
-0.18571428571428575
40
-0.17142857142857146
40
-0.15714285714285717
40
-0.14285714285714288
40
-0.12857142857142859
40
-0.1142857142857143
40
-0.10000000000000001
40
-0.085714285714285715
40
-0.071428571428571425
40
-0.057142857142857141
40
-0.042857142857142858
40
-0.028571428571428571
40
-0.014285714285714285
40
0
40
0
40
0
40
0
40
0
40
0
41
1
41
1
41
1
41
1
41
1
41
1
41
1
41
1
41
1
41
1
41
1
41
1
41
1
41
1
41
1
41
1
41
1
41
1
41
1
41
1
41
1
41
1
41
1
41
1
41
1
41
1
41
1
41
1
41
1
41
1
41
1
41
1
41
1
41
1
41
1
41
1
41
1
41
1
41
1
41
1
41
1
41
1
41
1
41
1
41
1
41
1
41
1
41
1
41
1
41
1
41
1
41
1
41
1
41
1
41
1
41
1
41
1
41
1
41
1
41
1
41
1
41
1
41
1
41
1
41
1
41
1
41
1
41
1
41
1
41
1
41
1
41
1
41
1
41
1
41
1
10
752.52499654742167
20
-536.35013851845702
30
0
10
752.56153751674447
20
-536.38283276395487
30
0
10
752.63470370780874
20
-536.44803858260696
30
0
10
752.74470575152077
20
-536.54529929350417
30
0
10
752.89188082653811
20
-536.67388384349397
30
0
10
753.07669283585165
20
-536.83278429972063
30
0
10
753.26234742829786
20
-536.98984947884946
30
0
10
753.44884213058674
20
-537.14507201946401
30
0
10
753.63617176627724
20
-537.29844213965725
30
0
10
753.82432728375306
20
-537.44994739323931
30
0
10
754.01329620299884
20
-537.59957310442144
30
0
10
754.20306387138919
20
-537.747303140177
30
0
10
754.3936144902932
20
-537.89312061249188
30
0
10
754.58493215744841
20
-538.03700856769649
30
0
10
754.77700206831639
20
-538.17895082682855
30
0
10
754.96981105835471
20
-538.3189323280294
30
0
10
755.16334689122334
20
-538.45693852667489
30
0
10
755.35759781621482
20
-538.59295501215934
30
0
10
755.55255202445562
20
-538.72696706266242
30
0
10
755.74819711657847
20
-538.85895921696385
30
0
10
755.94451963693803
20
-538.98891492272492
30
0
10
756.14150538351521
20
-539.11681690235855
30
0
10
756.33913963853888
20
-539.24264745841481
30
0
10
756.537407427635
20
-539.36638882510715
30
0
10
756.73629375317648
20
-539.48802349498487
30
0
10
756.93578385622504
20
-539.60753462633954
30
0
10
757.13586306423826
20
-539.72490548623466
30
0
10
757.3365166094776
20
-539.84011884892038
30
0
10
757.53772944540538
20
-539.95315638988109
30
0
10
757.73948607811667
20
-540.06399817622605
30
0
10
757.94177033800042
20
-540.17262192369787
30
0
10
758.14456552197896
20
-540.27900383943063
30
0
10
758.34785462164018
20
-540.38311983055473
30
0
10
758.5516205344527
20
-540.48494670609455
30
0
10
758.75584624148007
20
-540.58446316830236
30
0
10
758.96051508885637
20
-540.68165149831771
30
0
10
759.16561050830819
20
-540.77649573717122
30
0
10
759.37111552248723
20
-540.86897854834604
30
0
10
759.57701227844746
20
-540.95907827432507
30
0
10
759.78328164997629
20
-541.04676647495262
30
0
10
759.98990259282459
20
-541.13200388475059
30
0
10
760.196852692221
20
-541.21474414022634
30
0
10
760.40410924234095
20
-541.29494097843076
30
0
10
760.6116502424502
20
-541.37255493822477
30
0
10
760.81945523104753
20
-541.4475589954485
30
0
10
761.02750668126248
20
-541.51994796759891
30
0
10
761.23578849834018
20
-541.58972863911481
30
0
10
761.44428333892176
20
-541.656902066219
30
0
10
761.65297012955762
20
-541.72144722932546
30
0
10
761.8618218897667
20
-541.78330674509789
30
0
10
762.07080240506775
20
-541.84236492334571
30
0
10
762.27987022837067
20
-541.89847477251931
30
0
10
762.4889847225611
20
-541.9514986585051
30
0
10
762.69811162673409
20
-542.00134579809651
30
0
10
762.90722835039492
20
-542.04800797580765
30
0
10
763.1163306790769
20
-542.09160465903926
30
0
10
763.3254204072756
20
-542.13230137540722
30
0
10
763.53449061774882
20
-542.17021246617969
30
0
10
763.74351238217537
20
-542.20531331245149
30
0
10
763.95241949510341
20
-542.2373394996215
30
0
10
764.16109774465485
20
-542.26571621205778
30
0
10
764.36941843249781
20
-542.28978416695668
30
0
10
764.57727148032586
20
-542.30902198827403
30
0
10
764.78459332363161
20
-542.32323561373596
30
0
10
764.99140980340371
20
-542.33284355514752
30
0
10
765.19783092209855
20
-542.33885406708896
30
0
10
765.40395106099129
20
-542.34223449093088
30
0
10
765.60976186929247
20
-542.3433651765929
30
0
10
765.81507518900833
20
-542.34155034208777
30
0
10
766.01940362855942
20
-542.33427604312521
30
0
10
766.2220443735348
20
-542.31768800805321
30
0
10
766.38223130752988
20
-542.29374605336307
30
0
10
766.50103046373874
20
-542.26832702138427
30
0
10
766.57960082403633
20
-542.24787568358022
30
0
10
766.61872872924857
20
-542.23677365167566
30
0
0
LINE
5
202
100
AcDbEntity
8
0
100
AcDbLine
10
766.61872872924869
20
-542.23677365167566
30
0
11
772.36316709837911
21
-540.60686431454371
31
0
0
ARC
5
203
100
AcDbEntity
8
0
100
AcDbCircle
10
774.00093894757856
20
-546.37901325319467
30
0
40
6.0000000000000195
210
0
220
-0
230
1
100
AcDbArc
50
29.331901732476442
51
105.84059791751292
0
ARC
5
204
100
AcDbEntity
8
0
100
AcDbCircle
10
796.44900466812476
20
-533.76530618898778
30
0
40
19.749199220472491
210
0
220
0
230
1
100
AcDbArc
50
209.33190173247641
51
210.66809826752331
0
ARC
5
205
100
AcDbEntity
8
0
100
AcDbCircle
10
774.30118105435326
20
-546.89904783669988
30
0
40
5.9999999999999734
210
-0
220
0
230
1
100
AcDbArc
50
-45.840597917515005
51
30.668098267523789
0
LINE
5
206
100
AcDbEntity
8
0
100
AcDbLine
10
778.48112274505252
20
-551.20347433303527
30
0
11
774.19736066866574
21
-555.36334922261017
31
0
0
SPLINE
5
207
100
AcDbEntity
8
0
100
AcDbSpline
70
4
71
5
72
81
73
75
74
0
42
0.000000001
43
0.0000000001
44
0.0000000001
40
0
40
0
40
0
40
0
40
0
40
0
40
0.014285714285714285
40
0.028571428571428571
40
0.042857142857142858
40
0.057142857142857141
40
0.071428571428571425
40
0.085714285714285715
40
0.10000000000000001
40
0.1142857142857143
40
0.12857142857142859
40
0.14285714285714288
40
0.15714285714285717
40
0.17142857142857146
40
0.18571428571428575
40
0.20000000000000004
40
0.21428571428571433
40
0.22857142857142862
40
0.24285714285714291
40
0.25714285714285717
40
0.27142857142857146
40
0.28571428571428575
40
0.30000000000000004
40
0.31428571428571433
40
0.32857142857142863
40
0.34285714285714292
40
0.35714285714285721
40
0.3714285714285715
40
0.38571428571428579
40
0.40000000000000008
40
0.41428571428571437
40
0.42857142857142866
40
0.44285714285714295
40
0.45714285714285724
40
0.47142857142857153
40
0.48571428571428582
40
0.50000000000000011
40
0.51428571428571435
40
0.52857142857142858
40
0.54285714285714282
40
0.55714285714285705
40
0.57142857142857129
40
0.58571428571428552
40
0.59999999999999976
40
0.61428571428571399
40
0.62857142857142823
40
0.64285714285714246
40
0.6571428571428567
40
0.67142857142857093
40
0.68571428571428517
40
0.6999999999999994
40
0.71428571428571364
40
0.72857142857142787
40
0.74285714285714211
40
0.75714285714285634
40
0.77142857142857058
40
0.78571428571428481
40
0.79999999999999905
40
0.81428571428571328
40
0.82857142857142752
40
0.84285714285714175
40
0.85714285714285599
40
0.87142857142857022
40
0.88571428571428445
40
0.89999999999999869
40
0.91428571428571292
40
0.92857142857142716
40
0.94285714285714139
40
0.95714285714285563
40
0.97142857142856986
40
0.9857142857142841
40
1
40
1
40
1
40
1
40
1
40
1
41
1
41
1
41
1
41
1
41
1
41
1
41
1
41
1
41
1
41
1
41
1
41
1
41
1
41
1
41
1
41
1
41
1
41
1
41
1
41
1
41
1
41
1
41
1
41
1
41
1
41
1
41
1
41
1
41
1
41
1
41
1
41
1
41
1
41
1
41
1
41
1
41
1
41
1
41
1
41
1
41
1
41
1
41
1
41
1
41
1
41
1
41
1
41
1
41
1
41
1
41
1
41
1
41
1
41
1
41
1
41
1
41
1
41
1
41
1
41
1
41
1
41
1
41
1
41
1
41
1
41
1
41
1
41
1
41
1
41
1
41
1
41
1
41
1
41
1
41
1
10
774.19736066866562
20
-555.36334922261017
30
0
10
774.16818207439644
20
-555.39168396656862
30
0
10
774.11118551616812
20
-555.44950222566888
30
0
10
774.02977241063036
20
-555.53967579690448
30
0
10
773.92894460265484
20
-555.66643077375352
30
0
10
773.81325857039599
20
-555.83362878920798
30
0
10
773.70479462292428
20
-556.00694525909353
30
0
10
773.60056627028121
20
-556.18384439245028
30
0
10
773.49864006863754
20
-556.36264712364346
30
0
10
773.39850753211385
20
-556.54284261207715
30
0
10
773.30050222879754
20
-556.72461380071513
30
0
10
773.20541471025194
20
-556.90852609682486
30
0
10
773.11406314932901
20
-557.09517889261815
30
0
10
773.02679706738911
20
-557.28480382294981
30
0
10
772.94348018382721
20
-557.4772488082051
30
0
10
772.86371601289727
20
-557.67215782975211
30
0
10
772.78699794810893
20
-557.86908979016403
30
0
10
772.71288529046114
20
-558.06765837123726
30
0
10
772.64118215291876
20
-558.26767403006772
30
0
10
772.57188167904474
20
-558.46909940454213
30
0
10
772.50508634990308
20
-558.67198567478715
30
0
10
772.44093861936631
20
-558.87641715868904
30
0
10
772.37954405647213
20
-559.08244994011329
30
0
10
772.32090684164791
20
-559.29006034737472
30
0
10
772.26496548478326
20
-559.49917331805591
30
0
10
772.21162110979662
20
-559.7096848423264
30
0
10
772.16076714181679
20
-559.92148553017876
30
0
10
772.11232149744046
20
-560.13448617385689
30
0
10
772.06624797148106
20
-560.34863471591063
30
0
10
772.02253889716815
20
-560.56390239640427
30
0
10
771.98120386089681
20
-560.78027472365977
30
0
10
771.94225678554085
20
-560.99774115143009
30
0
10
771.90570194635609
20
-561.21628390974854
30
0
10
771.87152617048446
20
-561.43587176635538
30
0
10
771.83970628394377
20
-561.65646593748613
30
0
10
771.81021357475743
20
-561.87802362784578
30
0
10
771.78301909834863
20
-562.10050224392614
30
0
10
771.75809937194049
20
-562.32386392813396
30
0
10
771.73543932874168
20
-562.54807789660549
30
0
10
771.71502913926543
20
-562.77311785947745
30
0
10
771.69686227832187
20
-562.99896044567618
30
0
10
771.68093320917501
20
-563.22558332717165
30
0
10
771.66723491377422
20
-563.45296322186255
30
0
10
771.6557574571973
20
-563.68107474204373
30
0
10
771.64648930673582
20
-563.90989148100061
30
0
10
771.63941810155893
20
-564.13938666258161
30
0
10
771.63453158797893
20
-564.36953392506405
30
0
10
771.63181855206813
20
-564.60030812302534
30
0
10
771.63126947838975
20
-564.83168587190494
30
0
10
771.63287602071648
20
-565.06364497876098
30
0
10
771.63663064498019
20
-565.29616404148192
30
0
10
771.64252619630463
20
-565.52922198680517
30
0
10
771.65055546881104
20
-565.76279761226078
30
0
10
771.66071079941628
20
-565.9968691757972
30
0
10
771.67298428968468
20
-566.23141482633343
30
0
10
771.68736797206077
20
-566.46641296918017
30
0
10
771.70385398472467
20
-566.70184266623517
30
0
10
771.72243472075309
20
-566.93768398839802
30
0
10
771.74310299002047
20
-567.17391846689145
30
0
10
771.76585194749282
20
-567.41052851402094
30
0
10
771.79067498857353
20
-567.64749674807263
30
0
10
771.81756563541842
20
-567.884805299753
30
0
10
771.84651742634651
20
-568.12243523730433
30
0
10
771.87752375223477
20
-568.36036565013956
30
0
10
771.91057788190608
20
-568.59857428966029
30
0
10
771.94567308922615
20
-568.83703902984382
30
0
10
771.98280272889724
20
-569.07573911463112
30
0
10
772.02196033132077
20
-569.31465639811745
30
0
10
772.06313964358844
20
-569.55377681827815
30
0
10
772.10633478254078
20
-569.79309100123021
30
0
10
772.15154060964937
20
-570.03259312433352
30
0
10
772.1893105589661
20
-570.22434275309729
30
0
10
772.21853978353704
20
-570.36823767286864
30
0
10
772.2384265834321
20
-570.46420436235462
30
0
10
772.24847014592956
20
-570.51219689281606
30
0
0
ARC
5
208
100
AcDbEntity
8
0
100
AcDbCircle
10
796.44900466812476
20
-533.76530618898778
30
0
40
43.999998267716563
210
0
220
0
230
1
100
AcDbArc
50
236.63215212182956
51
243.36784787817052
0
SPLINE
5
209
100
AcDbEntity
8
0
100
AcDbSpline
70
4
71
5
72
81
73
75
74
0
42
0.000000001
43
0.0000000001
44
0.0000000001
40
-1
40
-1
40
-1
40
-1
40
-1
40
-1
40
-0.9857142857142841
40
-0.97142857142856986
40
-0.95714285714285563
40
-0.94285714285714139
40
-0.92857142857142716
40
-0.91428571428571292
40
-0.89999999999999869
40
-0.88571428571428445
40
-0.87142857142857022
40
-0.85714285714285599
40
-0.84285714285714175
40
-0.82857142857142752
40
-0.81428571428571328
40
-0.79999999999999905
40
-0.78571428571428481
40
-0.77142857142857058
40
-0.75714285714285634
40
-0.74285714285714211
40
-0.72857142857142787
40
-0.71428571428571364
40
-0.6999999999999994
40
-0.68571428571428517
40
-0.67142857142857093
40
-0.6571428571428567
40
-0.64285714285714246
40
-0.62857142857142823
40
-0.61428571428571399
40
-0.59999999999999976
40
-0.58571428571428552
40
-0.57142857142857129
40
-0.55714285714285705
40
-0.54285714285714282
40
-0.52857142857142858
40
-0.51428571428571435
40
-0.50000000000000011
40
-0.48571428571428582
40
-0.47142857142857153
40
-0.45714285714285724
40
-0.44285714285714295
40
-0.42857142857142866
40
-0.41428571428571437
40
-0.40000000000000008
40
-0.38571428571428579
40
-0.3714285714285715
40
-0.35714285714285721
40
-0.34285714285714292
40
-0.32857142857142863
40
-0.31428571428571433
40
-0.30000000000000004
40
-0.28571428571428575
40
-0.27142857142857146
40
-0.25714285714285717
40
-0.24285714285714291
40
-0.22857142857142862
40
-0.21428571428571433
40
-0.20000000000000004
40
-0.18571428571428575
40
-0.17142857142857146
40
-0.15714285714285717
40
-0.14285714285714288
40
-0.12857142857142859
40
-0.1142857142857143
40
-0.10000000000000001
40
-0.085714285714285715
40
-0.071428571428571425
40
-0.057142857142857141
40
-0.042857142857142858
40
-0.028571428571428571
40
-0.014285714285714285
40
0
40
0
40
0
40
0
40
0
40
0
41
1
41
1
41
1
41
1
41
1
41
1
41
1
41
1
41
1
41
1
41
1
41
1
41
1
41
1
41
1
41
1
41
1
41
1
41
1
41
1
41
1
41
1
41
1
41
1
41
1
41
1
41
1
41
1
41
1
41
1
41
1
41
1
41
1
41
1
41
1
41
1
41
1
41
1
41
1
41
1
41
1
41
1
41
1
41
1
41
1
41
1
41
1
41
1
41
1
41
1
41
1
41
1
41
1
41
1
41
1
41
1
41
1
41
1
41
1
41
1
41
1
41
1
41
1
41
1
41
1
41
1
41
1
41
1
41
1
41
1
41
1
41
1
41
1
41
1
41
1
10
776.72553106961686
20
-573.0970292222853
30
0
10
776.77211560143701
20
-573.08173093732171
30
0
10
776.86516859239646
20
-573.05097006648782
30
0
10
777.00439986067954
20
-573.00433585761368
30
0
10
777.1893448850135
20
-572.94117077883971
30
0
10
777.4193627214355
20
-572.86056911196306
30
0
10
777.64821245283417
20
-572.77832010813984
30
0
10
777.87588646739084
20
-572.69442222859368
30
0
10
778.10237370550499
20
-572.60887506530071
30
0
10
778.32765886265167
20
-572.52168023409547
30
0
10
778.55172298921752
20
-572.43284120509384
30
0
10
778.77454478727896
20
-572.34236260132877
30
0
10
778.99610173207134
20
-572.25024966080855
30
0
10
779.21637119015475
20
-572.15650767846159
30
0
10
779.43533174786762
20
-572.06114138591329
30
0
10
779.65296377898665
20
-571.96415465306256
30
0
10
779.86924856932762
20
-571.86555080457856
30
0
10
780.08416776358627
20
-571.76533281156958
30
0
10
780.29770270785571
20
-571.66350353990981
30
0
10
780.50983381264246
20
-571.56006599715636
30
0
10
780.72054001537811
20
-571.45502356007069
30
0
10
780.92979925222369
20
-571.34837988916809
30
0
10
781.13758883785249
20
-571.2401388816877
30
0
10
781.34388589945513
20
-571.13030462292454
30
0
10
781.54866777632094
20
-571.01888134747912
30
0
10
781.75191250363343
20
-570.90587341611274
30
0
10
781.95359825397315
20
-570.79128516915182
30
0
10
782.15370272553412
20
-570.67512078295795
30
0
10
782.35220252555121
20
-570.55738412595724
30
0
10
782.54907264468238
20
-570.43807864981989
30
0
10
782.74428569938937
20
-570.31720721571082
30
0
10
782.93781273290631
20
-570.19477239248647
30
0
10
783.12962437599072
20
-570.0707768634295
30
0
10
783.31969199340233
20
-569.94522384427842
30
0
10
783.50798863128284
20
-569.81811742499087
30
0
10
783.69449061771559
20
-569.68946316880738
30
0
10
783.87917584769127
20
-569.55926744478904
30
0
10
784.06202081867161
20
-569.42753628749222
30
0
10
784.24299784822369
20
-569.29427432926343
30
0
10
784.42207274334351
20
-569.15948391381062
30
0
10
784.59920097700558
20
-569.02316363324894
30
0
10
784.77433118986141
20
-568.88530971759394
30
0
10
784.94741196410951
20
-568.74591869919152
30
0
10
785.1183981250341
20
-568.60498990066708
30
0
10
785.28725603827547
20
-568.4625275301205
30
0
10
785.45397245221909
20
-568.3185441750154
30
0
10
785.61854519498388
20
-568.17305716603778
30
0
10
785.78096650960606
20
-568.02608205108811
30
0
10
785.94120765586558
20
-567.87762657051644
30
0
10
786.09920544809484
20
-567.72768539843651
30
0
10
786.25484158840914
20
-567.57623205241384
30
0
10
786.40796805484752
20
-567.42322893090636
30
0
10
786.55844533421384
20
-567.26864240963073
30
0
10
786.70617767549243
20
-567.11245676779788
30
0
10
786.85114666861648
20
-566.95468746160691
30
0
10
786.99345366815692
20
-566.79539787459373
30
0
10
787.1332429224816
20
-566.63466921648728
30
0
10
787.2706099954122
20
-566.47256464842917
30
0
10
787.40551910219119
20
-566.30909691362774
30
0
10
787.5377081503309
20
-566.14419114038583
30
0
10
787.66662222895229
20
-565.97765883127511
30
0
10
787.79162603323346
20
-565.80928180091871
30
0
10
787.91221299912172
20
-565.63889469190428
30
0
10
788.02818328150443
20
-565.46645552157304
30
0
10
788.13991224273093
20
-565.29215116687487
30
0
10
788.24832805810956
20
-565.11639049017833
30
0
10
788.35431566047851
20
-564.93957542558655
30
0
10
788.45820026713614
20
-564.7619033800554
30
0
10
788.5592852342088
20
-564.58318941219352
30
0
10
788.65514972628807
20
-564.40259864334541
30
0
10
788.74210443900461
20
-564.21881259281906
30
0
10
788.80146356502428
20
-564.06811566127976
30
0
10
788.83884961569538
20
-563.95252305806537
30
0
10
788.86042341776465
20
-563.87425346116106
30
0
10
788.87037272870771
20
-563.83481668529816
30
0
0
LINE
5
210
100
AcDbEntity
8
0
100
AcDbLine
10
788.87037272870771
20
-563.83481668529816
30
0
11
790.33104902145112
21
-558.04503245859109
31
0
0
ARC
5
211
100
AcDbEntity
8
0
100
AcDbCircle
10
796.14876256135005
20
-559.51275490090677
30
0
40
5.9999999999999911
210
0
220
-0
230
1
100
AcDbArc
50
89.331901732476879
51
165.84059791751372
0
ARC
5
212
100
AcDbEntity
8
0
100
AcDbCircle
10
796.44900466812476
20
-533.76530618898778
30
0
40
19.749199220472438
210
0
220
0
230
1
100
AcDbArc
50
269.33190173247624
51
270.66809826752336
0
ARC
5
213
100
AcDbEntity
8
0
100
AcDbCircle
10
796.74924677489935
20
-559.51275490090677
30
0
40
6.0000000000000275
210
0
220
-0
230
1
100
AcDbArc
50
14.159402082486295
51
90.668098267523149
0
LINE
5
214
100
AcDbEntity
8
0
100
AcDbLine
10
802.56696031479828
20
-558.04503245859109
30
0
11
804.02763660754181
21
-563.83481668529816
31
0
0
SPLINE
5
215
100
AcDbEntity
8
0
100
AcDbSpline
70
4
71
5
72
81
73
75
74
0
42
0.000000001
43
0.0000000001
44
0.0000000001
40
0
40
0
40
0
40
0
40
0
40
0
40
0.014285714285714285
40
0.028571428571428571
40
0.042857142857142858
40
0.057142857142857141
40
0.071428571428571425
40
0.085714285714285715
40
0.10000000000000001
40
0.1142857142857143
40
0.12857142857142859
40
0.14285714285714288
40
0.15714285714285717
40
0.17142857142857146
40
0.18571428571428575
40
0.20000000000000004
40
0.21428571428571433
40
0.22857142857142862
40
0.24285714285714291
40
0.25714285714285717
40
0.27142857142857146
40
0.28571428571428575
40
0.30000000000000004
40
0.31428571428571433
40
0.32857142857142863
40
0.34285714285714292
40
0.35714285714285721
40
0.3714285714285715
40
0.38571428571428579
40
0.40000000000000008
40
0.41428571428571437
40
0.42857142857142866
40
0.44285714285714295
40
0.45714285714285724
40
0.47142857142857153
40
0.48571428571428582
40
0.50000000000000011
40
0.51428571428571435
40
0.52857142857142858
40
0.54285714285714282
40
0.55714285714285705
40
0.57142857142857129
40
0.58571428571428552
40
0.59999999999999976
40
0.61428571428571399
40
0.62857142857142823
40
0.64285714285714246
40
0.6571428571428567
40
0.67142857142857093
40
0.68571428571428517
40
0.6999999999999994
40
0.71428571428571364
40
0.72857142857142787
40
0.74285714285714211
40
0.75714285714285634
40
0.77142857142857058
40
0.78571428571428481
40
0.79999999999999905
40
0.81428571428571328
40
0.82857142857142752
40
0.84285714285714175
40
0.85714285714285599
40
0.87142857142857022
40
0.88571428571428445
40
0.89999999999999869
40
0.91428571428571292
40
0.92857142857142716
40
0.94285714285714139
40
0.95714285714285563
40
0.97142857142856986
40
0.9857142857142841
40
1
40
1
40
1
40
1
40
1
40
1
41
1
41
1
41
1
41
1
41
1
41
1
41
1
41
1
41
1
41
1
41
1
41
1
41
1
41
1
41
1
41
1
41
1
41
1
41
1
41
1
41
1
41
1
41
1
41
1
41
1
41
1
41
1
41
1
41
1
41
1
41
1
41
1
41
1
41
1
41
1
41
1
41
1
41
1
41
1
41
1
41
1
41
1
41
1
41
1
41
1
41
1
41
1
41
1
41
1
41
1
41
1
41
1
41
1
41
1
41
1
41
1
41
1
41
1
41
1
41
1
41
1
41
1
41
1
41
1
41
1
41
1
41
1
41
1
41
1
41
1
41
1
41
1
41
1
41
1
41
1
10
804.02763660754181
20
-563.83481668529816
30
0
10
804.03758591848487
20
-563.87425346116106
30
0
10
804.05915972055413
20
-563.95252305806537
30
0
10
804.09654577122524
20
-564.06811566127976
30
0
10
804.1559048972448
20
-564.21881259281906
30
0
10
804.24285960996144
20
-564.40259864334541
30
0
10
804.3387241020406
20
-564.58318941219352
30
0
10
804.43980906911338
20
-564.7619033800554
30
0
10
804.54369367577101
20
-564.93957542558655
30
0
10
804.64968127813995
20
-565.11639049017833
30
0
10
804.75809709351847
20
-565.29215116687487
30
0
10
804.86982605474509
20
-565.46645552157304
30
0
10
804.98579633712779
20
-565.63889469190428
30
0
10
805.10638330301606
20
-565.80928180091871
30
0
10
805.23138710729711
20
-565.97765883127511
30
0
10
805.3603011859185
20
-566.14419114038583
30
0
10
805.49249023405821
20
-566.30909691362774
30
0
10
805.6273993408372
20
-566.47256464842917
30
0
10
805.7647664137678
20
-566.63466921648728
30
0
10
805.9045556680926
20
-566.79539787459373
30
0
10
806.04686266763292
20
-566.95468746160691
30
0
10
806.19183166075697
20
-567.11245676779788
30
0
10
806.33956400203556
20
-567.26864240963073
30
0
10
806.49004128140189
20
-567.42322893090636
30
0
10
806.64316774784027
20
-567.57623205241384
30
0
10
806.79880388815468
20
-567.72768539843651
30
0
10
806.95680168038393
20
-567.87762657051644
30
0
10
807.11704282664346
20
-568.02608205108811
30
0
10
807.27946414126563
20
-568.17305716603767
30
0
10
807.44403688403042
20
-568.3185441750154
30
0
10
807.61075329797393
20
-568.4625275301205
30
0
10
807.7796112112153
20
-568.60498990066708
30
0
10
807.9505973721399
20
-568.74591869919152
30
0
10
808.1236781463881
20
-568.88530971759394
30
0
10
808.29880835924382
20
-569.02316363324894
30
0
10
808.47593659290601
20
-569.15948391381062
30
0
10
808.65501148802582
20
-569.29427432926343
30
0
10
808.83598851757779
20
-569.42753628749222
30
0
10
809.01883348855813
20
-569.55926744478904
30
0
10
809.20351871853381
20
-569.68946316880738
30
0
10
809.39002070496656
20
-569.81811742499087
30
0
10
809.57831734284707
20
-569.94522384427842
30
0
10
809.7683849602588
20
-570.0707768634295
30
0
10
809.96019660334309
20
-570.19477239248647
30
0
10
810.15372363686015
20
-570.31720721571082
30
0
10
810.34893669156702
20
-570.43807864981989
30
0
10
810.5458068106982
20
-570.55738412595724
30
0
10
810.74430661071528
20
-570.67512078295795
30
0
10
810.94441108227625
20
-570.79128516915182
30
0
10
811.14609683261608
20
-570.90587341611274
30
0
10
811.34934155992846
20
-571.01888134747901
30
0
10
811.55412343679427
20
-571.13030462292454
30
0
10
811.76042049839691
20
-571.2401388816877
30
0
10
811.96821008402583
20
-571.34837988916809
30
0
10
812.17746932087141
20
-571.45502356007069
30
0
10
812.38817552360706
20
-571.56006599715636
30
0
10
812.6003066283937
20
-571.66350353990981
30
0
10
812.81384157266314
20
-571.76533281156946
30
0
10
813.02876076692189
20
-571.86555080457856
30
0
10
813.24504555726276
20
-571.96415465306256
30
0
10
813.46267758838178
20
-572.06114138591329
30
0
10
813.68163814609477
20
-572.15650767846159
30
0
10
813.90190760417806
20
-572.25024966080855
30
0
10
814.12346454897045
20
-572.34236260132877
30
0
10
814.34628634703188
20
-572.43284120509384
30
0
10
814.57035047359784
20
-572.52168023409547
30
0
10
814.79563563074453
20
-572.60887506530071
30
0
10
815.02212286885867
20
-572.69442222859368
30
0
10
815.24979688341534
20
-572.77832010813984
30
0
10
815.47864661481401
20
-572.86056911196306
30
0
10
815.70866445123602
20
-572.94117077883971
30
0
10
815.89360947556997
20
-573.00433585761368
30
0
10
816.03284074385306
20
-573.05097006648782
30
0
10
816.12589373481239
20
-573.08173093732171
30
0
10
816.17247826663265
20
-573.0970292222853
30
0
0
ARC
5
216
100
AcDbEntity
8
0
100
AcDbCircle
10
796.44900466812476
20
-533.76530618898778
30
0
40
43.99999826771662
210
-0
220
0
230
1
100
AcDbArc
50
296.63215212182945
51
303.36784787817044
0
SPLINE
5
217
100
AcDbEntity
8
0
100
AcDbSpline
70
4
71
5
72
81
73
75
74
0
42
0.000000001
43
0.0000000001
44
0.0000000001
40
-1
40
-1
40
-1
40
-1
40
-1
40
-1
40
-0.9857142857142841
40
-0.97142857142856986
40
-0.95714285714285563
40
-0.94285714285714139
40
-0.92857142857142716
40
-0.91428571428571292
40
-0.89999999999999869
40
-0.88571428571428445
40
-0.87142857142857022
40
-0.85714285714285599
40
-0.84285714285714175
40
-0.82857142857142752
40
-0.81428571428571328
40
-0.79999999999999905
40
-0.78571428571428481
40
-0.77142857142857058
40
-0.75714285714285634
40
-0.74285714285714211
40
-0.72857142857142787
40
-0.71428571428571364
40
-0.6999999999999994
40
-0.68571428571428517
40
-0.67142857142857093
40
-0.6571428571428567
40
-0.64285714285714246
40
-0.62857142857142823
40
-0.61428571428571399
40
-0.59999999999999976
40
-0.58571428571428552
40
-0.57142857142857129
40
-0.55714285714285705
40
-0.54285714285714282
40
-0.52857142857142858
40
-0.51428571428571435
40
-0.50000000000000011
40
-0.48571428571428582
40
-0.47142857142857153
40
-0.45714285714285724
40
-0.44285714285714295
40
-0.42857142857142866
40
-0.41428571428571437
40
-0.40000000000000008
40
-0.38571428571428579
40
-0.3714285714285715
40
-0.35714285714285721
40
-0.34285714285714292
40
-0.32857142857142863
40
-0.31428571428571433
40
-0.30000000000000004
40
-0.28571428571428575
40
-0.27142857142857146
40
-0.25714285714285717
40
-0.24285714285714291
40
-0.22857142857142862
40
-0.21428571428571433
40
-0.20000000000000004
40
-0.18571428571428575
40
-0.17142857142857146
40
-0.15714285714285717
40
-0.14285714285714288
40
-0.12857142857142859
40
-0.1142857142857143
40
-0.10000000000000001
40
-0.085714285714285715
40
-0.071428571428571425
40
-0.057142857142857141
40
-0.042857142857142858
40
-0.028571428571428571
40
-0.014285714285714285
40
0
40
0
40
0
40
0
40
0
40
0
41
1
41
1
41
1
41
1
41
1
41
1
41
1
41
1
41
1
41
1
41
1
41
1
41
1
41
1
41
1
41
1
41
1
41
1
41
1
41
1
41
1
41
1
41
1
41
1
41
1
41
1
41
1
41
1
41
1
41
1
41
1
41
1
41
1
41
1
41
1
41
1
41
1
41
1
41
1
41
1
41
1
41
1
41
1
41
1
41
1
41
1
41
1
41
1
41
1
41
1
41
1
41
1
41
1
41
1
41
1
41
1
41
1
41
1
41
1
41
1
41
1
41
1
41
1
41
1
41
1
41
1
41
1
41
1
41
1
41
1
41
1
41
1
41
1
41
1
41
1
10
820.64953919031996
20
-570.51219689281606
30
0
10
820.6595827528173
20
-570.46420436235462
30
0
10
820.67946955271236
20
-570.36823767286864
30
0
10
820.70869877728342
20
-570.22434275309729
30
0
10
820.74646872660014
20
-570.03259312433352
30
0
10
820.79167455370862
20
-569.79309100123021
30
0
10
820.83486969266107
20
-569.55377681827815
30
0
10
820.87604900492863
20
-569.31465639811745
30
0
10
820.91520660735227
20
-569.07573911463112
30
0
10
820.95233624702337
20
-568.83703902984382
30
0
10
820.98743145434344
20
-568.59857428966029
30
0
10
821.02048558401464
20
-568.36036565013956
30
0
10
821.05149190990289
20
-568.12243523730433
30
0
10
821.0804437008311
20
-567.884805299753
30
0
10
821.10733434767599
20
-567.64749674807263
30
0
10
821.1321573887567
20
-567.41052851402094
30
0
10
821.15490634622904
20
-567.17391846689145
30
0
10
821.17557461549632
20
-566.93768398839802
30
0
10
821.19415535152484
20
-566.70184266623517
30
0
10
821.21064136418863
20
-566.46641296918017
30
0
10
821.22502504656484
20
-566.23141482633343
30
0
10
821.23729853683312
20
-565.9968691757972
30
0
10
821.24745386743837
20
-565.76279761226078
30
0
10
821.25548313994489
20
-565.52922198680517
30
0
10
821.26137869126921
20
-565.29616404148192
30
0
10
821.26513331553292
20
-565.06364497876098
30
0
10
821.26673985785965
20
-564.83168587190494
30
0
10
821.26619078418128
20
-564.60030812302534
30
0
10
821.26347774827059
20
-564.36953392506405
30
0
10
821.25859123469058
20
-564.13938666258161
30
0
10
821.2515200295137
20
-563.90989148100061
30
0
10
821.24225187905211
20
-563.68107474204373
30
0
10
821.23077442247506
20
-563.45296322186255
30
0
10
821.21707612707439
20
-563.22558332717165
30
0
10
821.20114705792741
20
-562.99896044567618
30
0
10
821.18298019698398
20
-562.77311785947745
30
0
10
821.16257000750784
20
-562.54807789660549
30
0
10
821.13990996430903
20
-562.32386392813396
30
0
10
821.11499023790088
20
-562.10050224392614
30
0
10
821.08779576149209
20
-561.87802362784578
30
0
10
821.05830305230552
20
-561.65646593748613
30
0
10
821.02648316576506
20
-561.43587176635538
30
0
10
820.99230738989331
20
-561.21628390974854
30
0
10
820.95575255070855
20
-560.99774115143009
30
0
10
820.91680547535259
20
-560.78027472365977
30
0
10
820.87547043908125
20
-560.56390239640427
30
0
10
820.83176136476834
20
-560.34863471591063
30
0
10
820.78568783880894
20
-560.13448617385689
30
0
10
820.73724219443261
20
-559.92148553017876
30
0
10
820.68638822645289
20
-559.7096848423264
30
0
10
820.63304385146625
20
-559.49917331805591
30
0
10
820.5771024946016
20
-559.29006034737472
30
0
10
820.51846527977727
20
-559.08244994011329
30
0
10
820.45707071688309
20
-558.87641715868904
30
0
10
820.39292298634632
20
-558.67198567478715
30
0
10
820.32612765720478
20
-558.46909940454213
30
0
10
820.25682718333076
20
-558.26767403006772
30
0
10
820.18512404578826
20
-558.06765837123726
30
0
10
820.11101138814058
20
-557.86908979016403
30
0
10
820.03429332335213
20
-557.67215782975211
30
0
10
819.95452915242231
20
-557.4772488082051
30
0
10
819.87121226886029
20
-557.28480382294981
30
0
10
819.7839461869205
20
-557.09517889261815
30
0
10
819.69259462599757
20
-556.90852609682486
30
0
10
819.59750710745197
20
-556.72461380071513
30
0
10
819.49950180413566
20
-556.54284261207715
30
0
10
819.39936926761197
20
-556.36264712364346
30
0
10
819.29744306596831
20
-556.18384439245028
30
0
10
819.19321471332523
20
-556.00694525909353
30
0
10
819.08475076585341
20
-555.83362878920798
30
0
10
818.96906473359468
20
-555.66643077375352
30
0
10
818.86823692561904
20
-555.53967579690448
30
0
10
818.78682382008139
20
-555.44950222566888
30
0
10
818.72982726185296
20
-555.39168396656862
30
0
10
818.70064866758389
20
-555.36334922261017
30
0
0
LINE
5
218
100
AcDbEntity
8
0
100
AcDbLine
10
818.70064866758401
20
-555.36334922261017
30
0
11
814.41688659119689
21
-551.20347433303527
31
0
0
ARC
5
219
100
AcDbEntity
8
0
100
AcDbCircle
10
818.59682828189625
20
-546.89904783669988
30
0
40
5.9999999999999964
210
0
220
0
230
1
100
AcDbArc
50
149.33190173247675
51
225.84059791751423
0
ARC
5
220
100
AcDbEntity
8
0
100
AcDbCircle
10
796.44900466812476
20
-533.76530618898778
30
0
40
19.749199220472484
210
-0
220
0
230
1
100
AcDbArc
50
329.33190173247652
51
330.66809826752376
0
ARC
5
221
100
AcDbEntity
8
0
100
AcDbCircle
10
818.89707038867084
20
-546.37901325319467
30
0
40
5.9999999999999929
210
0
220
-0
230
1
100
AcDbArc
50
74.159402082486025
51
150.66809826752262
0
LINE
5
222
100
AcDbEntity
8
0
100
AcDbLine
10
820.53484223787041
20
-540.60686431454371
30
0
11
826.27928060700083
21
-542.23677365167566
31
0
0
SPLINE
5
223
100
AcDbEntity
8
0
100
AcDbSpline
70
4
71
5
72
81
73
75
74
0
42
0.000000001
43
0.0000000001
44
0.0000000001
40
0
40
0
40
0
40
0
40
0
40
0
40
0.014285714285714285
40
0.028571428571428571
40
0.042857142857142858
40
0.057142857142857141
40
0.071428571428571425
40
0.085714285714285715
40
0.10000000000000001
40
0.1142857142857143
40
0.12857142857142859
40
0.14285714285714288
40
0.15714285714285717
40
0.17142857142857146
40
0.18571428571428575
40
0.20000000000000004
40
0.21428571428571433
40
0.22857142857142862
40
0.24285714285714291
40
0.25714285714285717
40
0.27142857142857146
40
0.28571428571428575
40
0.30000000000000004
40
0.31428571428571433
40
0.32857142857142863
40
0.34285714285714292
40
0.35714285714285721
40
0.3714285714285715
40
0.38571428571428579
40
0.40000000000000008
40
0.41428571428571437
40
0.42857142857142866
40
0.44285714285714295
40
0.45714285714285724
40
0.47142857142857153
40
0.48571428571428582
40
0.50000000000000011
40
0.51428571428571435
40
0.52857142857142858
40
0.54285714285714282
40
0.55714285714285705
40
0.57142857142857129
40
0.58571428571428552
40
0.59999999999999976
40
0.61428571428571399
40
0.62857142857142823
40
0.64285714285714246
40
0.6571428571428567
40
0.67142857142857093
40
0.68571428571428517
40
0.6999999999999994
40
0.71428571428571364
40
0.72857142857142787
40
0.74285714285714211
40
0.75714285714285634
40
0.77142857142857058
40
0.78571428571428481
40
0.79999999999999905
40
0.81428571428571328
40
0.82857142857142752
40
0.84285714285714175
40
0.85714285714285599
40
0.87142857142857022
40
0.88571428571428445
40
0.89999999999999869
40
0.91428571428571292
40
0.92857142857142716
40
0.94285714285714139
40
0.95714285714285563
40
0.97142857142856986
40
0.9857142857142841
40
1
40
1
40
1
40
1
40
1
40
1
41
1
41
1
41
1
41
1
41
1
41
1
41
1
41
1
41
1
41
1
41
1
41
1
41
1
41
1
41
1
41
1
41
1
41
1
41
1
41
1
41
1
41
1
41
1
41
1
41
1
41
1
41
1
41
1
41
1
41
1
41
1
41
1
41
1
41
1
41
1
41
1
41
1
41
1
41
1
41
1
41
1
41
1
41
1
41
1
41
1
41
1
41
1
41
1
41
1
41
1
41
1
41
1
41
1
41
1
41
1
41
1
41
1
41
1
41
1
41
1
41
1
41
1
41
1
41
1
41
1
41
1
41
1
41
1
41
1
41
1
41
1
41
1
41
1
41
1
41
1
10
826.27928060700083
20
-542.23677365167566
30
0
10
826.31840851221318
20
-542.24787568358022
30
0
10
826.39697887251077
20
-542.26832702138427
30
0
10
826.51577802871952
20
-542.29374605336307
30
0
10
826.67596496271472
20
-542.31768800805321
30
0
10
826.87860570768999
20
-542.33427604312521
30
0
10
827.08293414724108
20
-542.34155034208777
30
0
10
827.28824746695693
20
-542.3433651765929
30
0
10
827.49405827525823
20
-542.34223449093088
30
0
10
827.70017841415097
20
-542.33885406708896
30
0
10
827.9065995328458
20
-542.33284355514752
30
0
10
828.1134160126179
20
-542.32323561373596
30
0
10
828.32073785592354
20
-542.30902198827391
30
0
10
828.52859090375159
20
-542.28978416695668
30
0
10
828.73691159159466
20
-542.26571621205778
30
0
10
828.9455898411461
20
-542.2373394996215
30
0
10
829.15449695407403
20
-542.20531331245149
30
0
10
829.3635187185007
20
-542.17021246617969
30
0
10
829.5725889289738
20
-542.13230137540722
30
0
10
829.78167865717251
20
-542.09160465903915
30
0
10
829.9907809858546
20
-542.04800797580765
30
0
10
830.19989770951543
20
-542.00134579809651
30
0
10
830.4090246136883
20
-541.95149865850499
30
0
10
830.61813910787873
20
-541.89847477251919
30
0
10
830.82720693118176
20
-541.84236492334571
30
0
10
831.0361874464827
20
-541.78330674509789
30
0
10
831.2450392066919
20
-541.72144722932535
30
0
10
831.45372599732764
20
-541.656902066219
30
0
10
831.66222083790922
20
-541.58972863911481
30
0
10
831.87050265498692
20
-541.51994796759891
30
0
10
832.07855410520199
20
-541.4475589954485
30
0
10
832.28635909379932
20
-541.37255493822477
30
0
10
832.49390009390845
20
-541.29494097843076
30
0
10
832.70115664402852
20
-541.21474414022634
30
0
10
832.90810674342481
20
-541.13200388475059
30
0
10
833.11472768627311
20
-541.04676647495262
30
0
10
833.32099705780195
20
-540.95907827432507
30
0
10
833.52689381376217
20
-540.86897854834592
30
0
10
833.73239882794121
20
-540.77649573717122
30
0
10
833.93749424739315
20
-540.68165149831771
30
0
10
834.14216309476944
20
-540.58446316830236
30
0
10
834.34638880179682
20
-540.48494670609443
30
0
10
834.55015471460922
20
-540.38311983055473
30
0
10
834.75344381427044
20
-540.27900383943052
30
0
10
834.95623899824909
20
-540.17262192369787
30
0
10
835.15852325813285
20
-540.06399817622605
30
0
10
835.36027989084403
20
-539.95315638988109
30
0
10
835.56149272677192
20
-539.84011884892038
30
0
10
835.76214627201125
20
-539.72490548623466
30
0
10
835.96222548002447
20
-539.60753462633954
30
0
10
836.16171558307303
20
-539.48802349498487
30
0
10
836.3606019086144
20
-539.36638882510715
30
0
10
836.55886969771063
20
-539.24264745841481
30
0
10
836.75650395273419
20
-539.11681690235855
30
0
10
836.95348969931149
20
-538.98891492272492
30
0
10
837.14981221967093
20
-538.85895921696385
30
0
10
837.34545731179378
20
-538.72696706266242
30
0
10
837.5404115200347
20
-538.59295501215934
30
0
10
837.73466244502617
20
-538.45693852667489
30
0
10
837.92819827789469
20
-538.3189323280294
30
0
10
838.12100726793301
20
-538.17895082682855
30
0
10
838.31307717880111
20
-538.03700856769649
30
0
10
838.50439484595631
20
-537.89312061249188
30
0
10
838.69494546486021
20
-537.747303140177
30
0
10
838.88471313325056
20
-537.59957310442144
30
0
10
839.07368205249645
20
-537.44994739323931
30
0
10
839.26183756997216
20
-537.29844213965725
30
0
10
839.44916720566266
20
-537.14507201946401
30
0
10
839.63566190795166
20
-536.98984947884946
30
0
10
839.82131650039776
20
-536.83278429972052
30
0
10
840.0061285097114
20
-536.67388384349397
30
0
10
840.15330358472863
20
-536.54529929350406
30
0
10
840.26330562844066
20
-536.44803858260696
30
0
10
840.33647181950505
20
-536.38283276395487
30
0
10
840.37301278882774
20
-536.35013851845702
30
0
0
ARC
5
224
100
AcDbEntity
8
0
100
AcDbCircle
10
796.44900466812476
20
-533.76530618898778
30
0
40
43.999998267716542
210
-0
220
0
230
1
100
AcDbArc
50
-3.3678478781704904
51
3.3678478781704908
0
SPLINE
5
225
100
AcDbEntity
8
0
100
AcDbSpline
70
4
71
5
72
81
73
75
74
0
42
0.000000001
43
0.0000000001
44
0.0000000001
40
-1
40
-1
40
-1
40
-1
40
-1
40
-1
40
-0.9857142857142841
40
-0.97142857142856986
40
-0.95714285714285563
40
-0.94285714285714139
40
-0.92857142857142716
40
-0.91428571428571292
40
-0.89999999999999869
40
-0.88571428571428445
40
-0.87142857142857022
40
-0.85714285714285599
40
-0.84285714285714175
40
-0.82857142857142752
40
-0.81428571428571328
40
-0.79999999999999905
40
-0.78571428571428481
40
-0.77142857142857058
40
-0.75714285714285634
40
-0.74285714285714211
40
-0.72857142857142787
40
-0.71428571428571364
40
-0.6999999999999994
40
-0.68571428571428517
40
-0.67142857142857093
40
-0.6571428571428567
40
-0.64285714285714246
40
-0.62857142857142823
40
-0.61428571428571399
40
-0.59999999999999976
40
-0.58571428571428552
40
-0.57142857142857129
40
-0.55714285714285705
40
-0.54285714285714282
40
-0.52857142857142858
40
-0.51428571428571435
40
-0.50000000000000011
40
-0.48571428571428582
40
-0.47142857142857153
40
-0.45714285714285724
40
-0.44285714285714295
40
-0.42857142857142866
40
-0.41428571428571437
40
-0.40000000000000008
40
-0.38571428571428579
40
-0.3714285714285715
40
-0.35714285714285721
40
-0.34285714285714292
40
-0.32857142857142863
40
-0.31428571428571433
40
-0.30000000000000004
40
-0.28571428571428575
40
-0.27142857142857146
40
-0.25714285714285717
40
-0.24285714285714291
40
-0.22857142857142862
40
-0.21428571428571433
40
-0.20000000000000004
40
-0.18571428571428575
40
-0.17142857142857146
40
-0.15714285714285717
40
-0.14285714285714288
40
-0.12857142857142859
40
-0.1142857142857143
40
-0.10000000000000001
40
-0.085714285714285715
40
-0.071428571428571425
40
-0.057142857142857141
40
-0.042857142857142858
40
-0.028571428571428571
40
-0.014285714285714285
40
0
40
0
40
0
40
0
40
0
40
0
41
1
41
1
41
1
41
1
41
1
41
1
41
1
41
1
41
1
41
1
41
1
41
1
41
1
41
1
41
1
41
1
41
1
41
1
41
1
41
1
41
1
41
1
41
1
41
1
41
1
41
1
41
1
41
1
41
1
41
1
41
1
41
1
41
1
41
1
41
1
41
1
41
1
41
1
41
1
41
1
41
1
41
1
41
1
41
1
41
1
41
1
41
1
41
1
41
1
41
1
41
1
41
1
41
1
41
1
41
1
41
1
41
1
41
1
41
1
41
1
41
1
41
1
41
1
41
1
41
1
41
1
41
1
41
1
41
1
41
1
41
1
41
1
41
1
41
1
41
1
10
840.37301278882774
20
-531.18047385951854
30
0
10
840.33647181950505
20
-531.14777961402058
30
0
10
840.26330562844066
20
-531.0825737953686
30
0
10
840.15330358472863
20
-530.98531308447139
30
0
10
840.0061285097114
20
-530.85672853448159
30
0
10
839.82131650039776
20
-530.69782807825493
30
0
10
839.63566190795166
20
-530.54076289912609
30
0
10
839.44916720566266
20
-530.38554035851155
30
0
10
839.26183756997216
20
-530.2321702383183
30
0
10
839.07368205249645
20
-530.08066498473613
30
0
10
838.88471313325056
20
-529.93103927355412
30
0
10
838.69494546486021
20
-529.78330923779845
30
0
10
838.50439484595631
20
-529.63749176548367
30
0
10
838.31307717880111
20
-529.49360381027896
30
0
10
838.12100726793301
20
-529.351661551147
30
0
10
837.92819827789469
20
-529.21168004994615
30
0
10
837.73466244502617
20
-529.07367385130067
30
0
10
837.5404115200347
20
-528.93765736581622
30
0
10
837.34545731179378
20
-528.80364531531302
30
0
10
837.14981221967093
20
-528.67165316101159
30
0
10
836.95348969931149
20
-528.54169745525053
30
0
10
836.75650395273419
20
-528.41379547561689
30
0
10
836.55886969771063
20
-528.28796491956064
30
0
10
836.3606019086144
20
-528.16422355286841
30
0
10
836.16171558307303
20
-528.04258888299057
30
0
10
835.96222548002447
20
-527.92307775163601
30
0
10
835.76214627201125
20
-527.8057068917409
30
0
10
835.56149272677192
20
-527.69049352905517
30
0
10
835.36027989084403
20
-527.57745598809447
30
0
10
835.15852325813285
20
-527.46661420174951
30
0
10
834.95623899824909
20
-527.35799045427757
30
0
10
834.75344381427044
20
-527.25160853854493
30
0
10
834.55015471460922
20
-527.14749254742082
30
0
10
834.34638880179682
20
-527.04566567188101
30
0
10
834.14216309476944
20
-526.94614920967308
30
0
10
833.93749424739315
20
-526.84896087965785
30
0
10
833.73239882794121
20
-526.75411664080434
30
0
10
833.52689381376217
20
-526.66163382962952
30
0
10
833.32099705780195
20
-526.57153410365038
30
0
10
833.11472768627311
20
-526.48384590302294
30
0
10
832.90810674342481
20
-526.39860849322497
30
0
10
832.70115664402852
20
-526.31586823774921
30
0
10
832.49390009390845
20
-526.2356713995448
30
0
10
832.28635909379932
20
-526.15805743975079
30
0
10
832.07855410520199
20
-526.08305338252694
30
0
10
831.87050265498692
20
-526.01066441037665
30
0
10
831.66222083790922
20
-525.94088373886063
30
0
10
831.45372599732764
20
-525.87371031175655
30
0
10
831.2450392066919
20
-525.8091651486501
30
0
10
831.0361874464827
20
-525.74730563287756
30
0
10
830.82720693118176
20
-525.68824745462985
30
0
10
830.61813910787873
20
-525.63213760545625
30
0
10
830.4090246136883
20
-525.57911371947046
30
0
10
830.19989770951543
20
-525.52926657987905
30
0
10
829.9907809858546
20
-525.48260440216791
30
0
10
829.78167865717251
20
-525.4390077189363
30
0
10
829.5725889289738
20
-525.39831100256822
30
0
10
829.3635187185007
20
-525.36039991179575
30
0
10
829.15449695407403
20
-525.32529906552406
30
0
10
828.9455898411461
20
-525.29327287835395
30
0
10
828.73691159159466
20
-525.26489616591778
30
0
10
828.52859090375159
20
-525.24082821101888
30
0
10
828.32073785592354
20
-525.22159038970153
30
0
10
828.1134160126179
20
-525.2073767642396
30
0
10
827.9065995328458
20
-525.19776882282804
30
0
10
827.70017841415097
20
-525.19175831088648
30
0
10
827.49405827525823
20
-525.18837788704468
30
0
10
827.28824746695693
20
-525.18724720138266
30
0
10
827.08293414724108
20
-525.18906203588779
30
0
10
826.87860570768999
20
-525.19633633485034
30
0
10
826.67596496271472
20
-525.21292436992223
30
0
10
826.51577802871952
20
-525.23686632461249
30
0
10
826.39697887251077
20
-525.26228535659118
30
0
10
826.31840851221318
20
-525.28273669439523
30
0
10
826.27928060700083
20
-525.2938387262999
30
0
0
LINE
5
226
100
AcDbEntity
8
0
100
AcDbLine
10
826.27928060700071
20
-525.2938387262999
30
0
11
820.53484223787041
21
-526.92374806343184
31
0
0
ARC
5
227
100
AcDbEntity
8
0
100
AcDbCircle
10
818.89707038867084
20
-521.15159912478089
30
0
40
5.9999999999999858
210
0
220
0
230
1
100
AcDbArc
50
209.3319017324755
51
285.84059791751395
0
ARC
5
228
100
AcDbEntity
8
0
100
AcDbCircle
10
796.44900466812476
20
-533.76530618898778
30
0
40
19.749199220472526
210
0
220
-0
230
1
100
AcDbArc
50
29.331901732476858
51
30.668098267523462
0
ARC
5
229
100
AcDbEntity
8
0
100
AcDbCircle
10
818.59682828189625
20
-520.63156454127568
30
0
40
5.9999999999999734
210
0
220
0
230
1
100
AcDbArc
50
134.15940208248577
51
210.66809826752322
0
LINE
5
230
100
AcDbEntity
8
0
100
AcDbLine
10
814.41688659119689
20
-516.32713804494028
30
0
11
818.70064866758389
21
-512.16726315536539
31
0
0
SPLINE
5
231
100
AcDbEntity
8
0
100
AcDbSpline
70
4
71
5
72
81
73
75
74
0
42
0.000000001
43
0.0000000001
44
0.0000000001
40
0
40
0
40
0
40
0
40
0
40
0
40
0.014285714285714285
40
0.028571428571428571
40
0.042857142857142858
40
0.057142857142857141
40
0.071428571428571425
40
0.085714285714285715
40
0.10000000000000001
40
0.1142857142857143
40
0.12857142857142859
40
0.14285714285714288
40
0.15714285714285717
40
0.17142857142857146
40
0.18571428571428575
40
0.20000000000000004
40
0.21428571428571433
40
0.22857142857142862
40
0.24285714285714291
40
0.25714285714285717
40
0.27142857142857146
40
0.28571428571428575
40
0.30000000000000004
40
0.31428571428571433
40
0.32857142857142863
40
0.34285714285714292
40
0.35714285714285721
40
0.3714285714285715
40
0.38571428571428579
40
0.40000000000000008
40
0.41428571428571437
40
0.42857142857142866
40
0.44285714285714295
40
0.45714285714285724
40
0.47142857142857153
40
0.48571428571428582
40
0.50000000000000011
40
0.51428571428571435
40
0.52857142857142858
40
0.54285714285714282
40
0.55714285714285705
40
0.57142857142857129
40
0.58571428571428552
40
0.59999999999999976
40
0.61428571428571399
40
0.62857142857142823
40
0.64285714285714246
40
0.6571428571428567
40
0.67142857142857093
40
0.68571428571428517
40
0.6999999999999994
40
0.71428571428571364
40
0.72857142857142787
40
0.74285714285714211
40
0.75714285714285634
40
0.77142857142857058
40
0.78571428571428481
40
0.79999999999999905
40
0.81428571428571328
40
0.82857142857142752
40
0.84285714285714175
40
0.85714285714285599
40
0.87142857142857022
40
0.88571428571428445
40
0.89999999999999869
40
0.91428571428571292
40
0.92857142857142716
40
0.94285714285714139
40
0.95714285714285563
40
0.97142857142856986
40
0.9857142857142841
40
1
40
1
40
1
40
1
40
1
40
1
41
1
41
1
41
1
41
1
41
1
41
1
41
1
41
1
41
1
41
1
41
1
41
1
41
1
41
1
41
1
41
1
41
1
41
1
41
1
41
1
41
1
41
1
41
1
41
1
41
1
41
1
41
1
41
1
41
1
41
1
41
1
41
1
41
1
41
1
41
1
41
1
41
1
41
1
41
1
41
1
41
1
41
1
41
1
41
1
41
1
41
1
41
1
41
1
41
1
41
1
41
1
41
1
41
1
41
1
41
1
41
1
41
1
41
1
41
1
41
1
41
1
41
1
41
1
41
1
41
1
41
1
41
1
41
1
41
1
41
1
41
1
41
1
41
1
41
1
41
1
10
818.70064866758389
20
-512.16726315536539
30
0
10
818.72982726185296
20
-512.13892841140694
30
0
10
818.78682382008139
20
-512.08111015230668
30
0
10
818.86823692561904
20
-511.99093658107103
30
0
10
818.96906473359468
20
-511.86418160422198
30
0
10
819.08475076585341
20
-511.69698358876752
30
0
10
819.19321471332523
20
-511.52366711888197
30
0
10
819.29744306596831
20
-511.34676798552528
30
0
10
819.39936926761197
20
-511.1679652543321
30
0
10
819.49950180413566
20
-510.98776976589841
30
0
10
819.59750710745197
20
-510.80599857726037
30
0
10
819.69259462599757
20
-510.62208628115064
30
0
10
819.7839461869205
20
-510.43543348535741
30
0
10
819.87121226886029
20
-510.24580855502575
30
0
10
819.95452915242231
20
-510.0533635697704
30
0
10
820.03429332335213
20
-509.85845454822345
30
0
10
820.11101138814058
20
-509.66152258781153
30
0
10
820.18512404578826
20
-509.4629540067383
30
0
10
820.25682718333076
20
-509.26293834790778
30
0
10
820.32612765720478
20
-509.06151297343337
30
0
10
820.39292298634632
20
-508.85862670318841
30
0
10
820.45707071688309
20
-508.65419521928641
30
0
10
820.51846527977727
20
-508.44816243786221
30
0
10
820.5771024946016
20
-508.24055203060078
30
0
10
820.63304385146625
20
-508.03143905991965
30
0
10
820.686388226453
20
-507.82092753564916
30
0
10
820.73724219443261
20
-507.60912684779674
30
0
10
820.78568783880894
20
-507.39612620411862
30
0
10
820.83176136476834
20
-507.18197766206487
30
0
10
820.87547043908125
20
-506.96670998157128
30
0
10
820.91680547535259
20
-506.75033765431579
30
0
10
820.95575255070855
20
-506.53287122654541
30
0
10
820.99230738989331
20
-506.31432846822696
30
0
10
821.02648316576506
20
-506.09474061162018
30
0
10
821.05830305230575
20
-505.87414644048943
30
0
10
821.08779576149209
20
-505.65258875012978
30
0
10
821.11499023790088
20
-505.43011013404941
30
0
10
821.13990996430903
20
-505.2067484498416
30
0
10
821.16257000750784
20
-504.98253448137001
30
0
10
821.18298019698398
20
-504.75749451849811
30
0
10
821.20114705792753
20
-504.53165193229938
30
0
10
821.21707612707439
20
-504.30502905080391
30
0
10
821.23077442247518
20
-504.07764915611301
30
0
10
821.24225187905211
20
-503.84953763593188
30
0
10
821.2515200295137
20
-503.62072089697494
30
0
10
821.25859123469058
20
-503.39122571539394
30
0
10
821.2634777482707
20
-503.16107845291151
30
0
10
821.26619078418128
20
-502.93030425495022
30
0
10
821.26673985785965
20
-502.69892650607062
30
0
10
821.26513331553292
20
-502.46696739921452
30
0
10
821.26137869126921
20
-502.23444833649359
30
0
10
821.25548313994489
20
-502.00139039117039
30
0
10
821.24745386743837
20
-501.76781476571477
30
0
10
821.23729853683312
20
-501.5337432021783
30
0
10
821.22502504656484
20
-501.29919755164212
30
0
10
821.21064136418863
20
-501.06419940879533
30
0
10
821.19415535152484
20
-500.82876971174045
30
0
10
821.17557461549632
20
-500.59292838957754
30
0
10
821.15490634622915
20
-500.35669391108411
30
0
10
821.1321573887567
20
-500.12008386395462
30
0
10
821.10733434767599
20
-499.88311562990299
30
0
10
821.0804437008311
20
-499.64580707822267
30
0
10
821.05149190990289
20
-499.40817714067117
30
0
10
821.02048558401464
20
-499.170246727836
30
0
10
820.98743145434344
20
-498.93203808831527
30
0
10
820.95233624702337
20
-498.69357334813168
30
0
10
820.91520660735239
20
-498.45487326334444
30
0
10
820.87604900492875
20
-498.21595597985811
30
0
10
820.83486969266107
20
-497.97683555969735
30
0
10
820.79167455370862
20
-497.73752137674535
30
0
10
820.74646872660014
20
-497.49801925364204
30
0
10
820.70869877728342
20
-497.30626962487827
30
0
10
820.67946955271236
20
-497.16237470510686
30
0
10
820.6595827528173
20
-497.06640801562094
30
0
10
820.64953919031996
20
-497.01841548515949
30
0
0
ARC
5
232
100
AcDbEntity
8
0
100
AcDbCircle
10
796.44900466812476
20
-533.76530618898778
30
0
40
43.999998267716563
210
0
220
-0
230
1
100
AcDbArc
50
56.632152121829563
51
63.367847878170302
0
SPLINE
5
233
100
AcDbEntity
8
0
100
AcDbSpline
70
4
71
5
72
81
73
75
74
0
42
0.000000001
43
0.0000000001
44
0.0000000001
40
-1
40
-1
40
-1
40
-1
40
-1
40
-1
40
-0.9857142857142841
40
-0.97142857142856986
40
-0.95714285714285563
40
-0.94285714285714139
40
-0.92857142857142716
40
-0.91428571428571292
40
-0.89999999999999869
40
-0.88571428571428445
40
-0.87142857142857022
40
-0.85714285714285599
40
-0.84285714285714175
40
-0.82857142857142752
40
-0.81428571428571328
40
-0.79999999999999905
40
-0.78571428571428481
40
-0.77142857142857058
40
-0.75714285714285634
40
-0.74285714285714211
40
-0.72857142857142787
40
-0.71428571428571364
40
-0.6999999999999994
40
-0.68571428571428517
40
-0.67142857142857093
40
-0.6571428571428567
40
-0.64285714285714246
40
-0.62857142857142823
40
-0.61428571428571399
40
-0.59999999999999976
40
-0.58571428571428552
40
-0.57142857142857129
40
-0.55714285714285705
40
-0.54285714285714282
40
-0.52857142857142858
40
-0.51428571428571435
40
-0.50000000000000011
40
-0.48571428571428582
40
-0.47142857142857153
40
-0.45714285714285724
40
-0.44285714285714295
40
-0.42857142857142866
40
-0.41428571428571437
40
-0.40000000000000008
40
-0.38571428571428579
40
-0.3714285714285715
40
-0.35714285714285721
40
-0.34285714285714292
40
-0.32857142857142863
40
-0.31428571428571433
40
-0.30000000000000004
40
-0.28571428571428575
40
-0.27142857142857146
40
-0.25714285714285717
40
-0.24285714285714291
40
-0.22857142857142862
40
-0.21428571428571433
40
-0.20000000000000004
40
-0.18571428571428575
40
-0.17142857142857146
40
-0.15714285714285717
40
-0.14285714285714288
40
-0.12857142857142859
40
-0.1142857142857143
40
-0.10000000000000001
40
-0.085714285714285715
40
-0.071428571428571425
40
-0.057142857142857141
40
-0.042857142857142858
40
-0.028571428571428571
40
-0.014285714285714285
40
0
40
0
40
0
40
0
40
0
40
0
41
1
41
1
41
1
41
1
41
1
41
1
41
1
41
1
41
1
41
1
41
1
41
1
41
1
41
1
41
1
41
1
41
1
41
1
41
1
41
1
41
1
41
1
41
1
41
1
41
1
41
1
41
1
41
1
41
1
41
1
41
1
41
1
41
1
41
1
41
1
41
1
41
1
41
1
41
1
41
1
41
1
41
1
41
1
41
1
41
1
41
1
41
1
41
1
41
1
41
1
41
1
41
1
41
1
41
1
41
1
41
1
41
1
41
1
41
1
41
1
41
1
41
1
41
1
41
1
41
1
41
1
41
1
41
1
41
1
41
1
41
1
41
1
41
1
41
1
41
1
10
816.17247826663265
20
-494.43358315569026
30
0
10
816.12589373481239
20
-494.44888144065379
30
0
10
816.03284074385306
20
-494.47964231148768
30
0
10
815.89360947556997
20
-494.52627652036188
30
0
10
815.70866445123602
20
-494.58944159913585
30
0
10
815.47864661481401
20
-494.6700432660125
30
0
10
815.24979688341534
20
-494.75229226983566
30
0
10
815.02212286885867
20
-494.83619014938193
30
0
10
814.79563563074453
20
-494.92173731267485
30
0
10
814.57035047359784
20
-495.00893214388009
30
0
10
814.34628634703188
20
-495.09777117288166
30
0
10
814.12346454897045
20
-495.18824977664673
30
0
10
813.90190760417806
20
-495.28036271716701
30
0
10
813.68163814609477
20
-495.37410469951391
30
0
10
813.46267758838178
20
-495.46947099206221
30
0
10
813.24504555726276
20
-495.56645772491299
30
0
10
813.02876076692189
20
-495.66506157339694
30
0
10
812.81384157266314
20
-495.76527956640604
30
0
10
812.6003066283937
20
-495.86710883806569
30
0
10
812.38817552360706
20
-495.9705463808192
30
0
10
812.17746932087141
20
-496.07558881790487
30
0
10
811.96821008402583
20
-496.18223248880747
30
0
10
811.76042049839691
20
-496.29047349628775
30
0
10
811.55412343679427
20
-496.40030775505102
30
0
10
811.34934155992846
20
-496.51173103049649
30
0
10
811.14609683261608
20
-496.62473896186276
30
0
10
810.94441108227625
20
-496.73932720882368
30
0
10
810.74430661071528
20
-496.85549159501755
30
0
10
810.5458068106982
20
-496.9732282520182
30
0
10
810.34893669156702
20
-497.09253372815567
30
0
10
810.15372363686015
20
-497.21340516226473
30
0
10
809.96019660334309
20
-497.33583998548903
30
0
10
809.7683849602588
20
-497.45983551454617
30
0
10
809.57831734284707
20
-497.58538853369714
30
0
10
809.39002070496656
20
-497.71249495298468
30
0
10
809.20351871853381
20
-497.84114920916812
30
0
10
809.01883348855813
20
-497.97134493318651
30
0
10
808.83598851757802
20
-498.10307609048334
30
0
10
808.65501148802593
20
-498.23633804871213
30
0
10
808.47593659290601
20
-498.37112846416494
30
0
10
808.29880835924382
20
-498.50744874472662
30
0
10
808.1236781463881
20
-498.64530266038162
30
0
10
807.9505973721399
20
-498.78469367878404
30
0
10
807.7796112112153
20
-498.92562247730842
30
0
10
807.61075329797393
20
-499.068084847855
30
0
10
807.44403688403042
20
-499.21206820296015
30
0
10
807.27946414126575
20
-499.35755521193784
30
0
10
807.11704282664346
20
-499.50453032688745
30
0
10
806.95680168038393
20
-499.65298580745912
30
0
10
806.79880388815468
20
-499.802926979539
30
0
10
806.64316774784027
20
-499.95438032556171
30
0
10
806.49004128140189
20
-500.1073834470692
30
0
10
806.33956400203556
20
-500.26196996834483
30
0
10
806.19183166075697
20
-500.41815561017762
30
0
10
806.04686266763292
20
-500.57592491636859
30
0
10
805.9045556680926
20
-500.73521450338183
30
0
10
805.76476641376803
20
-500.89594316148828
30
0
10
805.6273993408372
20
-501.05804772954633
30
0
10
805.49249023405821
20
-501.22151546434782
30
0
10
805.36030118591862
20
-501.38642123758973
30
0
10
805.23138710729711
20
-501.55295354670039
30
0
10
805.10638330301606
20
-501.72133057705679
30
0
10
804.98579633712779
20
-501.89171768607127
30
0
10
804.86982605474509
20
-502.06415685640252
30
0
10
804.75809709351847
20
-502.23846121110063
30
0
10
804.64968127814006
20
-502.41422188779717
30
0
10
804.54369367577101
20
-502.591036952389
30
0
10
804.43980906911338
20
-502.76870899792016
30
0
10
804.3387241020406
20
-502.94742296578198
30
0
10
804.24285960996144
20
-503.12801373463009
30
0
10
804.1559048972448
20
-503.3117997851565
30
0
10
804.09654577122524
20
-503.46249671669574
30
0
10
804.05915972055413
20
-503.57808931991019
30
0
10
804.03758591848487
20
-503.65635891681444
30
0
10
804.02763660754181
20
-503.69579569267739
30
0
0
LINE
5
234
100
AcDbEntity
8
0
100
AcDbLine
10
804.02763660754181
20
-503.69579569267739
30
0
11
802.56696031479828
21
-509.48557991938446
31
0
0
ARC
5
235
100
AcDbEntity
8
0
100
AcDbCircle
10
796.74924677489935
20
-508.01785747706879
30
0
40
5.9999999999999911
210
0
220
0
230
1
100
AcDbArc
50
269.33190173247687
51
345.84059791751366
0
ARC
5
236
100
AcDbEntity
8
0
100
AcDbCircle
10
796.44900466812476
20
-533.76530618898778
30
0
40
19.749199220472438
210
0
220
-0
230
1
100
AcDbArc
50
89.331901732476581
51
90.668098267523732
0
ARC
5
237
100
AcDbEntity
8
0
100
AcDbCircle
10
796.14876256135005
20
-508.01785747706879
30
0
40
6.0000000000000275
210
0
220
0
230
1
100
AcDbArc
50
194.15940208248628
51
270.66809826752313
0
LINE
5
238
100
AcDbEntity
8
0
100
AcDbLine
10
790.33104902145112
20
-509.48557991938446
30
0
11
788.87037272870782
21
-503.69579569267734
31
0
0
SPLINE
5
239
100
AcDbEntity
8
0
100
AcDbSpline
70
4
71
5
72
81
73
75
74
0
42
0.000000001
43
0.0000000001
44
0.0000000001
40
0
40
0
40
0
40
0
40
0
40
0
40
0.014285714285714285
40
0.028571428571428571
40
0.042857142857142858
40
0.057142857142857141
40
0.071428571428571425
40
0.085714285714285715
40
0.10000000000000001
40
0.1142857142857143
40
0.12857142857142859
40
0.14285714285714288
40
0.15714285714285717
40
0.17142857142857146
40
0.18571428571428575
40
0.20000000000000004
40
0.21428571428571433
40
0.22857142857142862
40
0.24285714285714291
40
0.25714285714285717
40
0.27142857142857146
40
0.28571428571428575
40
0.30000000000000004
40
0.31428571428571433
40
0.32857142857142863
40
0.34285714285714292
40
0.35714285714285721
40
0.3714285714285715
40
0.38571428571428579
40
0.40000000000000008
40
0.41428571428571437
40
0.42857142857142866
40
0.44285714285714295
40
0.45714285714285724
40
0.47142857142857153
40
0.48571428571428582
40
0.50000000000000011
40
0.51428571428571435
40
0.52857142857142858
40
0.54285714285714282
40
0.55714285714285705
40
0.57142857142857129
40
0.58571428571428552
40
0.59999999999999976
40
0.61428571428571399
40
0.62857142857142823
40
0.64285714285714246
40
0.6571428571428567
40
0.67142857142857093
40
0.68571428571428517
40
0.6999999999999994
40
0.71428571428571364
40
0.72857142857142787
40
0.74285714285714211
40
0.75714285714285634
40
0.77142857142857058
40
0.78571428571428481
40
0.79999999999999905
40
0.81428571428571328
40
0.82857142857142752
40
0.84285714285714175
40
0.85714285714285599
40
0.87142857142857022
40
0.88571428571428445
40
0.89999999999999869
40
0.91428571428571292
40
0.92857142857142716
40
0.94285714285714139
40
0.95714285714285563
40
0.97142857142856986
40
0.9857142857142841
40
1
40
1
40
1
40
1
40
1
40
1
41
1
41
1
41
1
41
1
41
1
41
1
41
1
41
1
41
1
41
1
41
1
41
1
41
1
41
1
41
1
41
1
41
1
41
1
41
1
41
1
41
1
41
1
41
1
41
1
41
1
41
1
41
1
41
1
41
1
41
1
41
1
41
1
41
1
41
1
41
1
41
1
41
1
41
1
41
1
41
1
41
1
41
1
41
1
41
1
41
1
41
1
41
1
41
1
41
1
41
1
41
1
41
1
41
1
41
1
41
1
41
1
41
1
41
1
41
1
41
1
41
1
41
1
41
1
41
1
41
1
41
1
41
1
41
1
41
1
41
1
41
1
41
1
41
1
41
1
41
1
10
788.87037272870771
20
-503.69579569267739
30
0
10
788.86042341776465
20
-503.65635891681444
30
0
10
788.83884961569549
20
-503.57808931991019
30
0
10
788.80146356502428
20
-503.46249671669574
30
0
10
788.74210443900461
20
-503.3117997851565
30
0
10
788.65514972628807
20
-503.12801373463009
30
0
10
788.5592852342088
20
-502.94742296578198
30
0
10
788.45820026713614
20
-502.76870899792016
30
0
10
788.35431566047851
20
-502.591036952389
30
0
10
788.24832805810956
20
-502.41422188779717
30
0
10
788.13991224273093
20
-502.23846121110063
30
0
10
788.02818328150443
20
-502.06415685640252
30
0
10
787.91221299912172
20
-501.89171768607127
30
0
10
787.79162603323346
20
-501.72133057705679
30
0
10
787.66662222895229
20
-501.55295354670039
30
0
10
787.5377081503309
20
-501.38642123758973
30
0
10
787.40551910219119
20
-501.22151546434782
30
0
10
787.2706099954122
20
-501.05804772954633
30
0
10
787.1332429224816
20
-500.89594316148828
30
0
10
786.99345366815692
20
-500.73521450338183
30
0
10
786.85114666861648
20
-500.57592491636859
30
0
10
786.70617767549243
20
-500.41815561017762
30
0
10
786.55844533421384
20
-500.26196996834483
30
0
10
786.40796805484752
20
-500.1073834470692
30
0
10
786.25484158840914
20
-499.95438032556171
30
0
10
786.09920544809495
20
-499.802926979539
30
0
10
785.94120765586558
20
-499.65298580745912
30
0
10
785.78096650960606
20
-499.50453032688745
30
0
10
785.61854519498388
20
-499.35755521193778
30
0
10
785.45397245221909
20
-499.21206820296004
30
0
10
785.28725603827547
20
-499.068084847855
30
0
10
785.1183981250341
20
-498.92562247730842
30
0
10
784.94741196410951
20
-498.78469367878404
30
0
10
784.77433118986141
20
-498.64530266038162
30
0
10
784.59920097700558
20
-498.50744874472662
30
0
10
784.42207274334362
20
-498.37112846416494
30
0
10
784.24299784822369
20
-498.23633804871213
30
0
10
784.06202081867161
20
-498.10307609048328
30
0
10
783.87917584769127
20
-497.97134493318651
30
0
10
783.69449061771559
20
-497.84114920916812
30
0
10
783.50798863128284
20
-497.71249495298468
30
0
10
783.31969199340233
20
-497.58538853369714
30
0
10
783.12962437599072
20
-497.45983551454606
30
0
10
782.93781273290631
20
-497.33583998548903
30
0
10
782.74428569938937
20
-497.21340516226473
30
0
10
782.54907264468238
20
-497.09253372815567
30
0
10
782.35220252555121
20
-496.9732282520182
30
0
10
782.15370272553412
20
-496.85549159501755
30
0
10
781.95359825397315
20
-496.73932720882368
30
0
10
781.75191250363343
20
-496.62473896186276
30
0
10
781.54866777632094
20
-496.51173103049643
30
0
10
781.34388589945513
20
-496.40030775505102
30
0
10
781.13758883785249
20
-496.29047349628775
30
0
10
780.92979925222369
20
-496.18223248880747
30
0
10
780.72054001537811
20
-496.07558881790487
30
0
10
780.50983381264246
20
-495.9705463808192
30
0
10
780.29770270785571
20
-495.86710883806569
30
0
10
780.08416776358649
20
-495.76527956640598
30
0
10
779.86924856932762
20
-495.66506157339694
30
0
10
779.65296377898665
20
-495.56645772491294
30
0
10
779.43533174786762
20
-495.46947099206221
30
0
10
779.21637119015475
20
-495.37410469951391
30
0
10
778.99610173207134
20
-495.28036271716701
30
0
10
778.77454478727918
20
-495.18824977664673
30
0
10
778.55172298921752
20
-495.09777117288166
30
0
10
778.32765886265167
20
-495.00893214388009
30
0
10
778.10237370550499
20
-494.92173731267485
30
0
10
777.87588646739084
20
-494.83619014938188
30
0
10
777.64821245283417
20
-494.75229226983566
30
0
10
777.4193627214355
20
-494.6700432660125
30
0
10
777.1893448850135
20
-494.58944159913585
30
0
10
777.00439986067954
20
-494.52627652036188
30
0
10
776.86516859239646
20
-494.47964231148768
30
0
10
776.77211560143701
20
-494.44888144065379
30
0
10
776.72553106961686
20
-494.43358315569026
30
0
0
ARC
5
240
100
AcDbEntity
8
0
100
AcDbCircle
10
796.44900466812476
20
-533.76530618898778
30
0
40
43.99999826771662
210
0
220
0
230
1
100
AcDbArc
50
116.63215212182948
51
123.36784787817045
0
SPLINE
5
241
100
AcDbEntity
8
0
100
AcDbSpline
70
4
71
5
72
81
73
75
74
0
42
0.000000001
43
0.0000000001
44
0.0000000001
40
-1
40
-1
40
-1
40
-1
40
-1
40
-1
40
-0.9857142857142841
40
-0.97142857142856986
40
-0.95714285714285563
40
-0.94285714285714139
40
-0.92857142857142716
40
-0.91428571428571292
40
-0.89999999999999869
40
-0.88571428571428445
40
-0.87142857142857022
40
-0.85714285714285599
40
-0.84285714285714175
40
-0.82857142857142752
40
-0.81428571428571328
40
-0.79999999999999905
40
-0.78571428571428481
40
-0.77142857142857058
40
-0.75714285714285634
40
-0.74285714285714211
40
-0.72857142857142787
40
-0.71428571428571364
40
-0.6999999999999994
40
-0.68571428571428517
40
-0.67142857142857093
40
-0.6571428571428567
40
-0.64285714285714246
40
-0.62857142857142823
40
-0.61428571428571399
40
-0.59999999999999976
40
-0.58571428571428552
40
-0.57142857142857129
40
-0.55714285714285705
40
-0.54285714285714282
40
-0.52857142857142858
40
-0.51428571428571435
40
-0.50000000000000011
40
-0.48571428571428582
40
-0.47142857142857153
40
-0.45714285714285724
40
-0.44285714285714295
40
-0.42857142857142866
40
-0.41428571428571437
40
-0.40000000000000008
40
-0.38571428571428579
40
-0.3714285714285715
40
-0.35714285714285721
40
-0.34285714285714292
40
-0.32857142857142863
40
-0.31428571428571433
40
-0.30000000000000004
40
-0.28571428571428575
40
-0.27142857142857146
40
-0.25714285714285717
40
-0.24285714285714291
40
-0.22857142857142862
40
-0.21428571428571433
40
-0.20000000000000004
40
-0.18571428571428575
40
-0.17142857142857146
40
-0.15714285714285717
40
-0.14285714285714288
40
-0.12857142857142859
40
-0.1142857142857143
40
-0.10000000000000001
40
-0.085714285714285715
40
-0.071428571428571425
40
-0.057142857142857141
40
-0.042857142857142858
40
-0.028571428571428571
40
-0.014285714285714285
40
0
40
0
40
0
40
0
40
0
40
0
41
1
41
1
41
1
41
1
41
1
41
1
41
1
41
1
41
1
41
1
41
1
41
1
41
1
41
1
41
1
41
1
41
1
41
1
41
1
41
1
41
1
41
1
41
1
41
1
41
1
41
1
41
1
41
1
41
1
41
1
41
1
41
1
41
1
41
1
41
1
41
1
41
1
41
1
41
1
41
1
41
1
41
1
41
1
41
1
41
1
41
1
41
1
41
1
41
1
41
1
41
1
41
1
41
1
41
1
41
1
41
1
41
1
41
1
41
1
41
1
41
1
41
1
41
1
41
1
41
1
41
1
41
1
41
1
41
1
41
1
41
1
41
1
41
1
41
1
41
1
10
772.24847014592956
20
-497.01841548515949
30
0
10
772.2384265834321
20
-497.06640801562094
30
0
10
772.21853978353715
20
-497.16237470510686
30
0
10
772.1893105589661
20
-497.30626962487815
30
0
10
772.15154060964937
20
-497.49801925364193
30
0
10
772.1063347825409
20
-497.73752137674529
30
0
10
772.06313964358844
20
-497.97683555969735
30
0
10
772.02196033132077
20
-498.21595597985805
30
0
10
771.98280272889724
20
-498.45487326334433
30
0
10
771.94567308922615
20
-498.69357334813168
30
0
10
771.91057788190619
20
-498.93203808831521
30
0
10
771.87752375223477
20
-499.170246727836
30
0
10
771.84651742634651
20
-499.40817714067117
30
0
10
771.81756563541842
20
-499.64580707822256
30
0
10
771.79067498857353
20
-499.88311562990293
30
0
10
771.76585194749282
20
-500.12008386395456
30
0
10
771.74310299002047
20
-500.35669391108405
30
0
10
771.72243472075309
20
-500.59292838957754
30
0
10
771.70385398472467
20
-500.82876971174039
30
0
10
771.68736797206077
20
-501.06419940879533
30
0
10
771.67298428968468
20
-501.29919755164212
30
0
10
771.66071079941628
20
-501.5337432021783
30
0
10
771.65055546881104
20
-501.76781476571477
30
0
10
771.64252619630463
20
-502.00139039117039
30
0
10
771.63663064498019
20
-502.23444833649359
30
0
10
771.63287602071648
20
-502.46696739921452
30
0
10
771.63126947838975
20
-502.69892650607056
30
0
10
771.63181855206813
20
-502.93030425495022
30
0
10
771.63453158797893
20
-503.1610784529114
30
0
10
771.63941810155893
20
-503.39122571539383
30
0
10
771.64648930673582
20
-503.62072089697494
30
0
10
771.6557574571973
20
-503.84953763593182
30
0
10
771.66723491377434
20
-504.07764915611301
30
0
10
771.68093320917524
20
-504.3050290508038
30
0
10
771.69686227832199
20
-504.53165193229938
30
0
10
771.71502913926543
20
-504.75749451849799
30
0
10
771.73543932874168
20
-504.98253448137001
30
0
10
771.75809937194049
20
-505.2067484498416
30
0
10
771.78301909834863
20
-505.43011013404941
30
0
10
771.81021357475743
20
-505.65258875012978
30
0
10
771.83970628394388
20
-505.87414644048943
30
0
10
771.87152617048446
20
-506.09474061162018
30
0
10
771.9057019463562
20
-506.31432846822696
30
0
10
771.94225678554085
20
-506.53287122654541
30
0
10
771.98120386089681
20
-506.75033765431579
30
0
10
772.02253889716815
20
-506.96670998157128
30
0
10
772.06624797148106
20
-507.18197766206487
30
0
10
772.11232149744046
20
-507.39612620411862
30
0
10
772.16076714181679
20
-507.60912684779674
30
0
10
772.21162110979662
20
-507.82092753564916
30
0
10
772.26496548478326
20
-508.03143905991959
30
0
10
772.32090684164791
20
-508.24055203060078
30
0
10
772.37954405647213
20
-508.44816243786215
30
0
10
772.44093861936631
20
-508.65419521928635
30
0
10
772.50508634990308
20
-508.85862670318835
30
0
10
772.57188167904474
20
-509.06151297343337
30
0
10
772.64118215291887
20
-509.26293834790778
30
0
10
772.71288529046114
20
-509.4629540067383
30
0
10
772.78699794810893
20
-509.66152258781153
30
0
10
772.86371601289727
20
-509.85845454822339
30
0
10
772.94348018382732
20
-510.0533635697704
30
0
10
773.02679706738923
20
-510.24580855502569
30
0
10
773.11406314932901
20
-510.43543348535741
30
0
10
773.20541471025194
20
-510.62208628115064
30
0
10
773.30050222879765
20
-510.80599857726037
30
0
10
773.39850753211385
20
-510.98776976589841
30
0
10
773.49864006863754
20
-511.16796525433199
30
0
10
773.60056627028121
20
-511.34676798552528
30
0
10
773.70479462292428
20
-511.52366711888197
30
0
10
773.81325857039599
20
-511.69698358876752
30
0
10
773.92894460265484
20
-511.86418160422198
30
0
10
774.02977241063036
20
-511.99093658107103
30
0
10
774.11118551616812
20
-512.08111015230668
30
0
10
774.16818207439644
20
-512.13892841140694
30
0
10
774.19736066866562
20
-512.16726315536539
30
0
0
LINE
5
242
100
AcDbEntity
8
0
100
AcDbLine
10
774.19736066866551
20
-512.16726315536539
30
0
11
778.48112274505252
21
-516.32713804494028
31
0
0
ARC
5
243
100
AcDbEntity
8
0
100
AcDbCircle
10
774.30118105435326
20
-520.63156454127568
30
0
40
5.9999999999999964
210
-0
220
0
230
1
100
AcDbArc
50
-30.668098267523767
51
45.840597917515005
0
CIRCLE
5
244
100
AcDbEntity
8
0
100
AcDbCircle
10
796.44900466812476
20
-533.76530618898778
30
0
40
5.9999999999999973
210
0
220
-0
230
1
0
LWPOLYLINE
5
245
100
AcDbEntity
8
0
100
AcDbPolyline
90
8
70
1
43
0.0
10
1079.2950945004868
20
-507.76066525336171
42
-0.99999999999999989
10
1075.0165327888888
20
-512.03922696497091
10
1059.5736562120869
20
-512.03922696497409
42
-0.99999999999999989
10
1055.2950945004957
20
-507.76066525335858
10
1055.2950945004868
20
-492.31778867656914
42
-0.99999999999999989
10
1059.573656212096
20
-488.03922696497114
10
1075.0165327888799
20
-488.0392269649746
42
-0.99999999999999989
10
1079.2950945004957
20
-492.31778867656578
0
ARC
5
246
100
AcDbEntity
8
0
100
AcDbCircle
10
1067.2950945004955
20
-500.03922696497176
30
0
40
85.749199999999504
210
0
220
0
230
1
100
AcDbArc
50
169.60365839939007
51
170.39634160060996
0
ARC
5
247
100
AcDbEntity
8
0
100
AcDbCircle
10
976.83172405997936
20
-484.73255165052541
30
0
40
5.9999999999999689
210
0
220
0
230
1
100
AcDbArc
50
264.15401577178272
51
350.39634160061053
0
LINE
5
248
100
AcDbEntity
8
0
100
AcDbLine
10
976.22059566728456
20
-490.70134734879167
30
0
11
974.75066513853699
21
-490.55084524973887
31
0
0
SPLINE
5
249
100
AcDbEntity
8
0
100
AcDbSpline
70
4
71
5
72
81
73
75
74
0
42
0.000000001
43
0.0000000001
44
0.0000000001
40
0
40
0
40
0
40
0
40
0
40
0
40
0.014285714285714285
40
0.028571428571428571
40
0.042857142857142858
40
0.057142857142857141
40
0.071428571428571425
40
0.085714285714285715
40
0.10000000000000001
40
0.1142857142857143
40
0.12857142857142859
40
0.14285714285714288
40
0.15714285714285717
40
0.17142857142857146
40
0.18571428571428575
40
0.20000000000000004
40
0.21428571428571433
40
0.22857142857142862
40
0.24285714285714291
40
0.25714285714285717
40
0.27142857142857146
40
0.28571428571428575
40
0.30000000000000004
40
0.31428571428571433
40
0.32857142857142863
40
0.34285714285714292
40
0.35714285714285721
40
0.3714285714285715
40
0.38571428571428579
40
0.40000000000000008
40
0.41428571428571437
40
0.42857142857142866
40
0.44285714285714295
40
0.45714285714285724
40
0.47142857142857153
40
0.48571428571428582
40
0.50000000000000011
40
0.51428571428571435
40
0.52857142857142858
40
0.54285714285714282
40
0.55714285714285705
40
0.57142857142857129
40
0.58571428571428552
40
0.59999999999999976
40
0.61428571428571399
40
0.62857142857142823
40
0.64285714285714246
40
0.6571428571428567
40
0.67142857142857093
40
0.68571428571428517
40
0.6999999999999994
40
0.71428571428571364
40
0.72857142857142787
40
0.74285714285714211
40
0.75714285714285634
40
0.77142857142857058
40
0.78571428571428481
40
0.79999999999999905
40
0.81428571428571328
40
0.82857142857142752
40
0.84285714285714175
40
0.85714285714285599
40
0.87142857142857022
40
0.88571428571428445
40
0.89999999999999869
40
0.91428571428571292
40
0.92857142857142716
40
0.94285714285714139
40
0.95714285714285563
40
0.97142857142856986
40
0.9857142857142841
40
1
40
1
40
1
40
1
40
1
40
1
41
1
41
1
41
1
41
1
41
1
41
1
41
1
41
1
41
1
41
1
41
1
41
1
41
1
41
1
41
1
41
1
41
1
41
1
41
1
41
1
41
1
41
1
41
1
41
1
41
1
41
1
41
1
41
1
41
1
41
1
41
1
41
1
41
1
41
1
41
1
41
1
41
1
41
1
41
1
41
1
41
1
41
1
41
1
41
1
41
1
41
1
41
1
41
1
41
1
41
1
41
1
41
1
41
1
41
1
41
1
41
1
41
1
41
1
41
1
41
1
41
1
41
1
41
1
41
1
41
1
41
1
41
1
41
1
41
1
41
1
41
1
41
1
41
1
41
1
41
1
10
974.75066513853699
20
-490.55084524973887
30
0
10
974.70031374482926
20
-490.54568991056124
30
0
10
974.59955933814115
20
-490.53678274916058
30
0
10
974.44827287243822
20
-490.52763248403181
30
0
10
974.24626228008924
20
-490.52343023324448
30
0
10
973.9933420768499
20
-490.52906054714958
30
0
10
973.74012601482991
20
-490.54247778205365
30
0
10
973.48672878764421
20
-490.56064299742849
30
0
10
973.23324417852814
20
-490.58135711004104
30
0
10
972.97972683717819
20
-490.60382671474383
30
0
10
972.72620492577403
20
-490.62816691366692
30
0
10
972.47268897536924
20
-490.65503207335337
30
0
10
972.21918165140437
20
-490.68522148328202
30
0
10
971.96568838450548
20
-490.71923984655001
30
0
10
971.71222344218495
20
-490.75706248527274
30
0
10
971.45880553992947
20
-490.79836188590036
30
0
10
971.20545553532861
20
-490.84264353488788
30
0
10
970.95219352072922
20
-490.88940540576903
30
0
10
970.69903562208253
20
-490.93831694077448
30
0
10
970.44599295269313
20
-490.98928007414293
30
0
10
970.19307351677617
20
-491.04233163036048
30
0
10
969.94028339987585
20
-491.0975839420604
30
0
10
969.68762813557817
20
-491.15515575836207
30
0
10
969.43511426433372
20
-491.21509327426389
30
0
10
969.18274968925607
20
-491.27735366346394
30
0
10
968.93054294864157
20
-491.3418449804758
30
0
10
968.67850277751131
20
-491.40845095827501
30
0
10
968.42663759493121
20
-491.47705953596119
30
0
10
968.17495490905435
20
-491.54759578272433
30
0
10
967.92346127427027
20
-491.62002522628768
30
0
10
967.67216262159889
20
-491.69433717945248
30
0
10
967.42106448225957
20
-491.77053370456031
30
0
10
967.17017223396567
20
-491.84861727379666
30
0
10
966.91949138431835
20
-491.92857642249407
30
0
10
966.6690275954893
20
-492.01038492983309
30
0
10
966.41878656287781
20
-492.0940086186028
30
0
10
966.16877393416507
20
-492.17940993471444
30
0
10
965.91899521863843
20
-492.2665530059532
30
0
10
965.66945567695939
20
-492.35540954440245
30
0
10
965.42016032859397
20
-492.44595897759206
30
0
10
965.1711140206437
20
-492.53818551284411
30
0
10
964.922321477335
20
-492.63207608115999
30
0
10
964.67378735120576
20
-492.72761809549831
30
0
10
964.42551628239005
20
-492.82479680726351
30
0
10
964.17751289925832
20
-492.92359514454967
30
0
10
963.9297817861974
20
-493.02399495030846
30
0
10
963.68232745769978
20
-493.12597780651629
30
0
10
963.43515433233347
20
-493.22952593833207
30
0
10
963.18826669318821
20
-493.33462327005748
30
0
10
962.94166870365973
20
-493.44125550453413
30
0
10
962.69536445795188
20
-493.54940953609298
30
0
10
962.44935802196346
20
-493.65907303658275
30
0
10
962.20365346960693
20
-493.77023400287413
30
0
10
961.95825493444261
20
-493.88288020438472
30
0
10
961.71316658915089
20
-493.99699909752593
30
0
10
961.46839256465319
20
-494.11257815969412
30
0
10
961.22393687799695
20
-494.22960510649148
30
0
10
960.97980336762203
20
-494.34806812050135
30
0
10
960.73599559035404
20
-494.46795612771558
30
0
10
960.49251685072022
20
-494.58925881409095
30
0
10
960.24937039770418
20
-494.71196630118675
30
0
10
960.00655958699565
20
-494.83606888507069
30
0
10
959.76408803375011
20
-494.961556770333
30
0
10
959.5219598178046
20
-495.08841972220529
30
0
10
959.28017949829859
20
-495.21664698509494
30
0
10
959.03875170364461
20
-495.34622781603866
30
0
10
958.79768079888254
20
-495.47715188884411
30
0
10
958.55697053457334
20
-495.60940973003392
30
0
10
958.31662366442879
20
-495.74299315652235
30
0
10
958.07664167950315
20
-495.87789563156326
30
0
10
957.83702519043857
20
-496.01411217114867
30
0
10
957.64562441654016
20
-496.12413387658586
30
0
10
957.50223821603288
20
-496.20723900876999
30
0
10
957.40672044907501
20
-496.26290405584439
30
0
10
957.35897982394658
20
-496.29080198578333
30
0
0
ARC
5
250
100
AcDbEntity
8
0
100
AcDbCircle
10
1067.2950945004955
20
-500.03922696497176
30
0
40
109.99999999999943
210
0
220
0
230
1
100
AcDbArc
50
178.04717710624266
51
181.95282289375734
0
SPLINE
5
251
100
AcDbEntity
8
0
100
AcDbSpline
70
4
71
5
72
81
73
75
74
0
42
0.000000001
43
0.0000000001
44
0.0000000001
40
-1
40
-1
40
-1
40
-1
40
-1
40
-1
40
-0.9857142857142841
40
-0.97142857142856986
40
-0.95714285714285563
40
-0.94285714285714139
40
-0.92857142857142716
40
-0.91428571428571292
40
-0.89999999999999869
40
-0.88571428571428445
40
-0.87142857142857022
40
-0.85714285714285599
40
-0.84285714285714175
40
-0.82857142857142752
40
-0.81428571428571328
40
-0.79999999999999905
40
-0.78571428571428481
40
-0.77142857142857058
40
-0.75714285714285634
40
-0.74285714285714211
40
-0.72857142857142787
40
-0.71428571428571364
40
-0.6999999999999994
40
-0.68571428571428517
40
-0.67142857142857093
40
-0.6571428571428567
40
-0.64285714285714246
40
-0.62857142857142823
40
-0.61428571428571399
40
-0.59999999999999976
40
-0.58571428571428552
40
-0.57142857142857129
40
-0.55714285714285705
40
-0.54285714285714282
40
-0.52857142857142858
40
-0.51428571428571435
40
-0.50000000000000011
40
-0.48571428571428582
40
-0.47142857142857153
40
-0.45714285714285724
40
-0.44285714285714295
40
-0.42857142857142866
40
-0.41428571428571437
40
-0.40000000000000008
40
-0.38571428571428579
40
-0.3714285714285715
40
-0.35714285714285721
40
-0.34285714285714292
40
-0.32857142857142863
40
-0.31428571428571433
40
-0.30000000000000004
40
-0.28571428571428575
40
-0.27142857142857146
40
-0.25714285714285717
40
-0.24285714285714291
40
-0.22857142857142862
40
-0.21428571428571433
40
-0.20000000000000004
40
-0.18571428571428575
40
-0.17142857142857146
40
-0.15714285714285717
40
-0.14285714285714288
40
-0.12857142857142859
40
-0.1142857142857143
40
-0.10000000000000001
40
-0.085714285714285715
40
-0.071428571428571425
40
-0.057142857142857141
40
-0.042857142857142858
40
-0.028571428571428571
40
-0.014285714285714285
40
0
40
0
40
0
40
0
40
0
40
0
41
1
41
1
41
1
41
1
41
1
41
1
41
1
41
1
41
1
41
1
41
1
41
1
41
1
41
1
41
1
41
1
41
1
41
1
41
1
41
1
41
1
41
1
41
1
41
1
41
1
41
1
41
1
41
1
41
1
41
1
41
1
41
1
41
1
41
1
41
1
41
1
41
1
41
1
41
1
41
1
41
1
41
1
41
1
41
1
41
1
41
1
41
1
41
1
41
1
41
1
41
1
41
1
41
1
41
1
41
1
41
1
41
1
41
1
41
1
41
1
41
1
41
1
41
1
41
1
41
1
41
1
41
1
41
1
41
1
41
1
41
1
41
1
41
1
41
1
41
1
10
957.35897982394658
20
-503.78765194416013
30
0
10
957.40672044907501
20
-503.81554987409913
30
0
10
957.50223821603288
20
-503.87121492117353
30
0
10
957.64562441654016
20
-503.95432005335761
30
0
10
957.83702519043857
20
-504.06434175879485
30
0
10
958.07664167950315
20
-504.2005582983802
30
0
10
958.31662366442879
20
-504.33546077342112
30
0
10
958.55697053457334
20
-504.4690441999096
30
0
10
958.79768079888254
20
-504.60130204109936
30
0
10
959.03875170364461
20
-504.73222611390486
30
0
10
959.28017949829859
20
-504.86180694484858
30
0
10
959.5219598178046
20
-504.99003420773818
30
0
10
959.76408803375011
20
-505.11689715961046
30
0
10
960.00655958699565
20
-505.24238504487278
30
0
10
960.24937039770418
20
-505.36648762875672
30
0
10
960.49251685072022
20
-505.48919511585257
30
0
10
960.73599559035404
20
-505.61049780222794
30
0
10
960.97980336762203
20
-505.73038580944217
30
0
10
961.22393687799695
20
-505.84884882345199
30
0
10
961.46839256465319
20
-505.96587577024934
30
0
10
961.71316658915089
20
-506.08145483241753
30
0
10
961.95825493444261
20
-506.19557372555875
30
0
10
962.20365346960693
20
-506.30821992706944
30
0
10
962.44935802196346
20
-506.41938089336077
30
0
10
962.69536445795188
20
-506.52904439385048
30
0
10
962.94166870365973
20
-506.63719842540934
30
0
10
963.18826669318821
20
-506.74383065988604
30
0
10
963.43515433233347
20
-506.84892799161139
30
0
10
963.68232745769978
20
-506.95247612342718
30
0
10
963.9297817861974
20
-507.05445897963506
30
0
10
964.17751289925832
20
-507.1548587853938
30
0
10
964.42551628239005
20
-507.25365712267995
30
0
10
964.67378735120576
20
-507.35083583444515
30
0
10
964.922321477335
20
-507.44637784878353
30
0
10
965.1711140206437
20
-507.54026841709936
30
0
10
965.42016032859397
20
-507.63249495235141
30
0
10
965.66945567695939
20
-507.72304438554102
30
0
10
965.91899521863843
20
-507.81190092399027
30
0
10
966.16877393416507
20
-507.89904399522902
30
0
10
966.41878656287781
20
-507.98444531134066
30
0
10
966.6690275954893
20
-508.06806900011048
30
0
10
966.91949138431835
20
-508.14987750744939
30
0
10
967.17017223396567
20
-508.2298366561468
30
0
10
967.42106448225957
20
-508.30792022538321
30
0
10
967.67216262159889
20
-508.38411675049099
30
0
10
967.92346127427027
20
-508.45842870365578
30
0
10
968.17495490905435
20
-508.53085814721913
30
0
10
968.42663759493121
20
-508.60139439398233
30
0
10
968.67850277751131
20
-508.67000297166845
30
0
10
968.93054294864157
20
-508.73660894946767
30
0
10
969.18274968925607
20
-508.80110026647958
30
0
10
969.43511426433372
20
-508.86336065567968
30
0
10
969.68762813557817
20
-508.92329817158151
30
0
10
969.94028339987585
20
-508.98086998788307
30
0
10
970.19307351677617
20
-509.03612229958298
30
0
10
970.44599295269313
20
-509.08917385580054
30
0
10
970.69903562208253
20
-509.14013698916898
30
0
10
970.95219352072922
20
-509.18904852417455
30
0
10
971.20545553532861
20
-509.23581039505558
30
0
10
971.45880553992947
20
-509.2800920440431
30
0
10
971.71222344218495
20
-509.32139144467078
30
0
10
971.96568838450548
20
-509.35921408339345
30
0
10
972.21918165140437
20
-509.39323244666156
30
0
10
972.47268897536924
20
-509.4234218565901
30
0
10
972.72620492577403
20
-509.45028701627655
30
0
10
972.97972683717819
20
-509.47462721519963
30
0
10
973.23324417852814
20
-509.49709681990242
30
0
10
973.48672878764421
20
-509.51781093251498
30
0
10
973.74012601482991
20
-509.53597614788981
30
0
10
973.9933420768499
20
-509.54939338279388
30
0
10
974.24626228008924
20
-509.55502369669898
30
0
10
974.44827287243822
20
-509.55082144591165
30
0
10
974.59955933814115
20
-509.54167118078288
30
0
10
974.70031374482926
20
-509.53276401938234
30
0
10
974.75066513853699
20
-509.52760868020471
30
0
0
LINE
5
252
100
AcDbEntity
8
0
100
AcDbLine
10
974.75066513853699
20
-509.52760868020459
30
0
11
976.22059566728444
21
-509.37710658115185
31
0
0
ARC
5
253
100
AcDbEntity
8
0
100
AcDbCircle
10
976.83172405997936
20
-515.34590227941817
30
0
40
5.9999999999999032
210
0
220
-0
230
1
100
AcDbArc
50
9.6036583993910369
51
95.845984228218342
0
ARC
5
254
100
AcDbEntity
8
0
100
AcDbCircle
10
1067.2950945004955
20
-500.03922696497176
30
0
40
85.749199999999547
210
0
220
0
230
1
100
AcDbArc
50
189.60365839938996
51
190.39634160060993
0
ARC
5
255
100
AcDbEntity
8
0
100
AcDbCircle
10
977.05214156123384
20
-516.59595204700906
30
0
40
5.9999999999999512
210
-0
220
0
230
1
100
AcDbArc
50
-75.845984228218299
51
10.396341600609711
0
LINE
5
256
100
AcDbEntity
8
0
100
AcDbLine
10
978.51931708046834
20
-522.41380354010846
30
0
11
977.08655946004785
21
-522.77512367833663
31
0
0
SPLINE
5
257
100
AcDbEntity
8
0
100
AcDbSpline
70
4
71
5
72
81
73
75
74
0
42
0.000000001
43
0.0000000001
44
0.0000000001
40
0
40
0
40
0
40
0
40
0
40
0
40
0.014285714285714285
40
0.028571428571428571
40
0.042857142857142858
40
0.057142857142857141
40
0.071428571428571425
40
0.085714285714285715
40
0.10000000000000001
40
0.1142857142857143
40
0.12857142857142859
40
0.14285714285714288
40
0.15714285714285717
40
0.17142857142857146
40
0.18571428571428575
40
0.20000000000000004
40
0.21428571428571433
40
0.22857142857142862
40
0.24285714285714291
40
0.25714285714285717
40
0.27142857142857146
40
0.28571428571428575
40
0.30000000000000004
40
0.31428571428571433
40
0.32857142857142863
40
0.34285714285714292
40
0.35714285714285721
40
0.3714285714285715
40
0.38571428571428579
40
0.40000000000000008
40
0.41428571428571437
40
0.42857142857142866
40
0.44285714285714295
40
0.45714285714285724
40
0.47142857142857153
40
0.48571428571428582
40
0.50000000000000011
40
0.51428571428571435
40
0.52857142857142858
40
0.54285714285714282
40
0.55714285714285705
40
0.57142857142857129
40
0.58571428571428552
40
0.59999999999999976
40
0.61428571428571399
40
0.62857142857142823
40
0.64285714285714246
40
0.6571428571428567
40
0.67142857142857093
40
0.68571428571428517
40
0.6999999999999994
40
0.71428571428571364
40
0.72857142857142787
40
0.74285714285714211
40
0.75714285714285634
40
0.77142857142857058
40
0.78571428571428481
40
0.79999999999999905
40
0.81428571428571328
40
0.82857142857142752
40
0.84285714285714175
40
0.85714285714285599
40
0.87142857142857022
40
0.88571428571428445
40
0.89999999999999869
40
0.91428571428571292
40
0.92857142857142716
40
0.94285714285714139
40
0.95714285714285563
40
0.97142857142856986
40
0.9857142857142841
40
1
40
1
40
1
40
1
40
1
40
1
41
1
41
1
41
1
41
1
41
1
41
1
41
1
41
1
41
1
41
1
41
1
41
1
41
1
41
1
41
1
41
1
41
1
41
1
41
1
41
1
41
1
41
1
41
1
41
1
41
1
41
1
41
1
41
1
41
1
41
1
41
1
41
1
41
1
41
1
41
1
41
1
41
1
41
1
41
1
41
1
41
1
41
1
41
1
41
1
41
1
41
1
41
1
41
1
41
1
41
1
41
1
41
1
41
1
41
1
41
1
41
1
41
1
41
1
41
1
41
1
41
1
41
1
41
1
41
1
41
1
41
1
41
1
41
1
41
1
41
1
41
1
41
1
41
1
41
1
41
1
10
977.08655946004774
20
-522.77512367833663
30
0
10
977.03748139708978
20
-522.78750043504635
30
0
10
976.93975679599453
20
-522.81359047782223
30
0
10
976.79446444555788
20
-522.85673505988541
30
0
10
976.60319932819039
20
-522.92187792757841
30
0
10
976.36745776032751
20
-523.01367249616965
30
0
10
976.13410145998773
20
-523.11288556662464
30
0
10
975.90219882503993
20
-523.21662224142779
30
0
10
975.67108585213532
20
-523.32278398253675
30
0
10
975.44054253464822
20
-523.43060654169199
30
0
10
975.21063470361855
20
-523.54018844748316
30
0
10
974.98159606153808
20
-523.65214100148944
30
0
10
974.75370248620379
20
-523.76721437850176
30
0
10
974.52713169936055
20
-523.88588098691287
30
0
10
974.30188866775097
20
-524.00811275731974
30
0
10
974.0778789619485
20
-524.13359552658312
30
0
10
973.85495304808228
20
-524.26185747025806
30
0
10
973.63295810361876
20
-524.39241996579142
30
0
10
973.4117962245798
20
-524.52496687508653
30
0
10
973.1914443135895
20
-524.65940224549718
30
0
10
972.97192248686611
20
-524.79575794311813
30
0
10
972.7532748829741
20
-524.93413744471741
30
0
10
972.53554731637382
20
-525.07465044536843
30
0
10
972.3187617326987
20
-525.21733811720435
30
0
10
972.10291091098816
20
-525.36215751364136
30
0
10
971.88797142740793
20
-525.50901931391479
30
0
10
971.67391172452835
20
-525.65781127520677
30
0
10
971.46070138659866
20
-525.80842521522572
30
0
10
971.24832184112802
20
-525.96078815410328
30
0
10
971.03676745701534
20
-526.11486545676166
30
0
10
970.82604015235904
20
-526.27064505199098
30
0
10
970.61614583016694
20
-526.42812698597015
30
0
10
970.4070903893745
20
-526.58731174250693
30
0
10
970.19887508428621
20
-526.74818666462761
30
0
10
969.99149626755479
20
-526.91072517624468
30
0
10
969.78494760181036
20
-527.07489321334424
30
0
10
969.57922154988239
20
-527.24065355500545
30
0
10
969.37431101978746
20
-527.40797060808518
30
0
10
969.17021127989324
20
-527.57681599138505
30
0
10
968.96692001075564
20
-527.74716865634798
30
0
10
968.76443636574606
20
-527.91901210490482
30
0
10
968.56276031432481
20
-528.09233244043344
30
0
10
968.36189192342522
20
-528.26711624372228
30
0
10
968.16183050903055
20
-528.44334806860547
30
0
10
967.96257458145078
20
-528.62101028974314
30
0
10
967.7641222385239
20
-528.80008427713835
30
0
10
967.56647142314989
20
-528.98055117946285
30
0
10
967.36962020807141
20
-529.16239278259036
30
0
10
967.17356711986326
20
-529.3455925154027
30
0
10
966.97831118092154
20
-529.53013551900074
30
0
10
966.78385175613653
20
-529.71600807778361
30
0
10
966.59018844972763
20
-529.90319721645915
30
0
10
966.39732098460786
20
-530.09169026241534
30
0
10
966.20524906194805
20
-530.28147430890328
30
0
10
966.01397231262513
20
-530.47253614166436
30
0
10
965.82349033545268
20
-530.66486258044233
30
0
10
965.63380270370931
20
-530.85844070776784
30
0
10
965.4449089825539
20
-531.05325810607792
30
0
10
965.25680872677526
20
-531.24930315270308
30
0
10
965.06950151400315
20
-531.44656502539783
30
0
10
964.88298701865733
20
-531.64503333024652
30
0
10
964.6972650751145
20
-531.84469780082236
30
0
10
964.51233573028219
20
-532.04554799599475
30
0
10
964.32819931745621
20
-532.24757290284117
30
0
10
964.14485644219712
20
-532.45076085509288
30
0
10
963.96230777947949
20
-532.65510017465635
30
0
10
963.78055389933422
20
-532.8605796651533
30
0
10
963.59959508601514
20
-533.06718914165936
30
0
10
963.41943112838499
20
-533.27491997276456
30
0
10
963.2400611918772
20
-533.48376550596618
30
0
10
963.0614841456769
20
-533.69372084897668
30
0
10
962.91925589029449
20
-533.86257035382346
30
0
10
962.81294056497586
20
-533.98970460213491
30
0
10
962.74222179159005
20
-534.07468163645149
30
0
10
962.70690193244161
20
-534.11722537079913
30
0
0
ARC
5
258
100
AcDbEntity
8
0
100
AcDbCircle
10
1067.2950945004955
20
-500.03922696497176
30
0
40
109.99999999999959
210
0
220
0
230
1
100
AcDbArc
50
198.04717710624237
51
201.95282289375743
0
SPLINE
5
259
100
AcDbEntity
8
0
100
AcDbSpline
70
4
71
5
72
81
73
75
74
0
42
0.000000001
43
0.0000000001
44
0.0000000001
40
-1
40
-1
40
-1
40
-1
40
-1
40
-1
40
-0.9857142857142841
40
-0.97142857142856986
40
-0.95714285714285563
40
-0.94285714285714139
40
-0.92857142857142716
40
-0.91428571428571292
40
-0.89999999999999869
40
-0.88571428571428445
40
-0.87142857142857022
40
-0.85714285714285599
40
-0.84285714285714175
40
-0.82857142857142752
40
-0.81428571428571328
40
-0.79999999999999905
40
-0.78571428571428481
40
-0.77142857142857058
40
-0.75714285714285634
40
-0.74285714285714211
40
-0.72857142857142787
40
-0.71428571428571364
40
-0.6999999999999994
40
-0.68571428571428517
40
-0.67142857142857093
40
-0.6571428571428567
40
-0.64285714285714246
40
-0.62857142857142823
40
-0.61428571428571399
40
-0.59999999999999976
40
-0.58571428571428552
40
-0.57142857142857129
40
-0.55714285714285705
40
-0.54285714285714282
40
-0.52857142857142858
40
-0.51428571428571435
40
-0.50000000000000011
40
-0.48571428571428582
40
-0.47142857142857153
40
-0.45714285714285724
40
-0.44285714285714295
40
-0.42857142857142866
40
-0.41428571428571437
40
-0.40000000000000008
40
-0.38571428571428579
40
-0.3714285714285715
40
-0.35714285714285721
40
-0.34285714285714292
40
-0.32857142857142863
40
-0.31428571428571433
40
-0.30000000000000004
40
-0.28571428571428575
40
-0.27142857142857146
40
-0.25714285714285717
40
-0.24285714285714291
40
-0.22857142857142862
40
-0.21428571428571433
40
-0.20000000000000004
40
-0.18571428571428575
40
-0.17142857142857146
40
-0.15714285714285717
40
-0.14285714285714288
40
-0.12857142857142859
40
-0.1142857142857143
40
-0.10000000000000001
40
-0.085714285714285715
40
-0.071428571428571425
40
-0.057142857142857141
40
-0.042857142857142858
40
-0.028571428571428571
40
-0.014285714285714285
40
0
40
0
40
0
40
0
40
0
40
0
41
1
41
1
41
1
41
1
41
1
41
1
41
1
41
1
41
1
41
1
41
1
41
1
41
1
41
1
41
1
41
1
41
1
41
1
41
1
41
1
41
1
41
1
41
1
41
1
41
1
41
1
41
1
41
1
41
1
41
1
41
1
41
1
41
1
41
1
41
1
41
1
41
1
41
1
41
1
41
1
41
1
41
1
41
1
41
1
41
1
41
1
41
1
41
1
41
1
41
1
41
1
41
1
41
1
41
1
41
1
41
1
41
1
41
1
41
1
41
1
41
1
41
1
41
1
41
1
41
1
41
1
41
1
41
1
41
1
41
1
41
1
41
1
41
1
41
1
41
1
10
965.27097562969652
20
-541.16195995582495
30
0
10
965.32537879683775
20
-541.17184717927501
30
0
10
965.43417470498059
20
-541.1914862129014
30
0
10
965.5973372887405
20
-541.22053852351587
30
0
10
965.81482482304807
20
-541.25846218812012
30
0
10
966.08657947003303
20
-541.30451019926443
30
0
10
966.35822813423772
20
-541.34919838670623
30
0
10
966.629768537215
20
-541.39252227586201
30
0
10
966.90119704213339
20
-541.43447623417023
30
0
10
967.17250826257032
20
-541.47505351387042
30
0
10
967.44369543403093
20
-541.51424649557305
30
0
10
967.71475092295373
20
-541.55204696876331
30
0
10
967.98566670574382
20
-541.58844642136796
30
0
10
968.25643481958218
20
-541.62343630575356
30
0
10
968.52704793017915
20
-541.65700839977012
30
0
10
968.79749929017225
20
-541.68915473519962
30
0
10
969.06778242730422
20
-541.71986734104178
30
0
10
969.33789090990376
20
-541.74913804581661
30
0
10
969.60781810512003
20
-541.77695828770868
30
0
10
969.87755688309664
20
-541.80331887706029
30
0
10
970.14709959508536
20
-541.82821002195601
30
0
10
970.41643826478492
20
-541.85162155274884
30
0
10
970.68556472741636
20
-541.87354311489923
30
0
10
970.95447077178255
20
-541.89396434842979
30
0
10
971.22314833050154
20
-541.91287517411388
30
0
10
971.49158947003662
20
-541.93026570605923
30
0
10
971.75978615321594
20
-541.94612575021256
30
0
10
972.02773005034385
20
-541.96044439157345
30
0
10
972.29541235919191
20
-541.97320961917274
30
0
10
972.56282355675978
20
-541.98440779169869
30
0
10
972.82995341159767
20
-541.99402371750318
30
0
10
973.09679138213528
20
-542.00204163335297
30
0
10
973.3633269503822
20
-542.00844604515623
30
0
10
973.62954992815708
20
-542.01322249356485
30
0
10
973.89545091084301
20
-542.01635870645202
30
0
10
974.16102122146322
20
-542.01784444712905
30
0
10
974.4262519508361
20
-542.01766905053535
30
0
10
974.69113314276206
20
-542.01581933421426
30
0
10
974.95565304428646
20
-542.01227768312583
30
0
10
975.21979703696798
20
-542.0070193145757
30
0
10
975.48354767474939
20
-542.00001240399581
30
0
10
975.74688680629151
20
-541.99122359370654
30
0
10
976.00979739037507
20
-541.98062271557637
30
0
10
976.27226513825065
20
-541.9681870666717
30
0
10
976.53428095331935
20
-541.95390775743942
30
0
10
976.79584062772028
20
-541.93778895026037
30
0
10
977.05693966916999
20
-541.91983447489019
30
0
10
977.31756884909578
20
-541.90003631717514
30
0
10
977.57771021817257
20
-541.87836432550466
30
0
10
977.83733109319871
20
-541.85475065588901
30
0
10
978.09638523575416
20
-541.82909288501719
30
0
10
978.35482467194026
20
-541.80128474517733
30
0
10
978.61260993117401
20
-541.77124275614381
30
0
10
978.86971893950033
20
-541.7389293773806
30
0
10
979.12616135052576
20
-541.70439025495284
30
0
10
979.3819725789715
20
-541.66773886912961
30
0
10
979.6371853263197
20
-541.62908285943581
30
0
10
979.89180466578443
20
-541.58845956717278
30
0
10
980.14578661380983
20
-541.54578064164161
30
0
10
980.39900295954283
20
-541.50074097554625
30
0
10
980.65126311918914
20
-541.45287569030825
30
0
10
980.90237835943253
20
-541.40172722891407
30
0
10
981.15221907723708
20
-541.34699423037137
30
0
10
981.40076342519262
20
-541.28865838483068
30
0
10
981.64817891880602
20
-541.22719581545152
30
0
10
981.8947364264842
20
-541.16335852029329
30
0
10
982.14064985881305
20
-541.09776500460043
30
0
10
982.38593211924683
20
-541.03053306102777
30
0
10
982.63026049332677
20
-540.96093582391018
30
0
10
982.87279472287651
20
-540.88693890671641
30
0
10
983.11238765227699
20
-540.80572586698395
30
0
10
983.3007782608114
20
-540.73268535117984
30
0
10
983.43981146126623
20
-540.67234389587713
30
0
10
983.53144320512388
20
-540.62951386542079
30
0
10
983.57699480839301
20
-540.60744824034532
30
0
0
LINE
5
260
100
AcDbEntity
8
0
100
AcDbLine
10
983.57699480839301
20
-540.60744824034521
30
0
11
984.90680292983598
21
-539.96327667833157
31
0
0
ARC
5
261
100
AcDbEntity
8
0
100
AcDbCircle
10
987.52252413100678
20
-545.3630917305112
30
0
40
5.999999999999984
210
0
220
-0
230
1
100
AcDbArc
50
29.60365839939136
51
115.84598422821787
0
ARC
5
262
100
AcDbEntity
8
0
100
AcDbCircle
10
1067.2950945004955
20
-500.03922696497176
30
0
40
85.749199999999504
210
0
220
0
230
1
100
AcDbArc
50
209.6036583993899
51
210.3963416006099
0
ARC
5
263
100
AcDbEntity
8
0
100
AcDbCircle
10
988.15719103110359
20
-546.46236704736089
30
0
40
5.9999999999999805
210
-0
220
0
230
1
100
AcDbArc
50
-55.845984228218576
51
30.396341600610395
0
LINE
5
264
100
AcDbEntity
8
0
100
AcDbLine
10
991.52570744144327
20
-551.42755558288218
30
0
11
990.30293444362223
21
-552.25711741720386
31
0
0
SPLINE
5
265
100
AcDbEntity
8
0
100
AcDbSpline
70
4
71
5
72
81
73
75
74
0
42
0.000000001
43
0.0000000001
44
0.0000000001
40
0
40
0
40
0
40
0
40
0
40
0
40
0.014285714285714285
40
0.028571428571428571
40
0.042857142857142858
40
0.057142857142857141
40
0.071428571428571425
40
0.085714285714285715
40
0.10000000000000001
40
0.1142857142857143
40
0.12857142857142859
40
0.14285714285714288
40
0.15714285714285717
40
0.17142857142857146
40
0.18571428571428575
40
0.20000000000000004
40
0.21428571428571433
40
0.22857142857142862
40
0.24285714285714291
40
0.25714285714285717
40
0.27142857142857146
40
0.28571428571428575
40
0.30000000000000004
40
0.31428571428571433
40
0.32857142857142863
40
0.34285714285714292
40
0.35714285714285721
40
0.3714285714285715
40
0.38571428571428579
40
0.40000000000000008
40
0.41428571428571437
40
0.42857142857142866
40
0.44285714285714295
40
0.45714285714285724
40
0.47142857142857153
40
0.48571428571428582
40
0.50000000000000011
40
0.51428571428571435
40
0.52857142857142858
40
0.54285714285714282
40
0.55714285714285705
40
0.57142857142857129
40
0.58571428571428552
40
0.59999999999999976
40
0.61428571428571399
40
0.62857142857142823
40
0.64285714285714246
40
0.6571428571428567
40
0.67142857142857093
40
0.68571428571428517
40
0.6999999999999994
40
0.71428571428571364
40
0.72857142857142787
40
0.74285714285714211
40
0.75714285714285634
40
0.77142857142857058
40
0.78571428571428481
40
0.79999999999999905
40
0.81428571428571328
40
0.82857142857142752
40
0.84285714285714175
40
0.85714285714285599
40
0.87142857142857022
40
0.88571428571428445
40
0.89999999999999869
40
0.91428571428571292
40
0.92857142857142716
40
0.94285714285714139
40
0.95714285714285563
40
0.97142857142856986
40
0.9857142857142841
40
1
40
1
40
1
40
1
40
1
40
1
41
1
41
1
41
1
41
1
41
1
41
1
41
1
41
1
41
1
41
1
41
1
41
1
41
1
41
1
41
1
41
1
41
1
41
1
41
1
41
1
41
1
41
1
41
1
41
1
41
1
41
1
41
1
41
1
41
1
41
1
41
1
41
1
41
1
41
1
41
1
41
1
41
1
41
1
41
1
41
1
41
1
41
1
41
1
41
1
41
1
41
1
41
1
41
1
41
1
41
1
41
1
41
1
41
1
41
1
41
1
41
1
41
1
41
1
41
1
41
1
41
1
41
1
41
1
41
1
41
1
41
1
41
1
41
1
41
1
41
1
41
1
41
1
41
1
41
1
41
1
10
990.30293444362223
20
-552.25711741720386
30
0
10
990.26104925012203
20
-552.28553345028013
30
0
10
990.17814148377306
20
-552.34347385302578
30
0
10
990.05636765035217
20
-552.43370940893783
30
0
10
989.89891740389317
20
-552.56034020386107
30
0
10
989.70878838366605
20
-552.72722724742277
30
0
10
989.52343805879968
20
-552.9002695929031
30
0
10
989.34100089638264
20
-553.07706555316292
30
0
10
989.16013519508613
20
-553.25587025000993
30
0
10
988.98037282800806
20
-553.43604077169209
30
0
10
988.80180935485316
20
-553.6176471892561
30
0
10
988.62487346158218
20
-553.80118400732545
30
0
10
988.45008096341473
20
-553.98726180385177
30
0
10
988.27776043734934
20
-554.17626371309882
30
0
10
988.10790695029584
20
-554.36816165973005
30
0
10
987.94032431749713
20
-554.56269272372742
30
0
10
987.77471064961424
20
-554.75946467873803
30
0
10
987.61075864188524
20
-554.958080035065
30
0
10
987.44826816906766
20
-555.15827520520486
30
0
10
987.2871847089898
20
-555.35996792293122
30
0
10
987.12753806356
20
-555.56318125242672
30
0
10
986.9694051006004
20
-555.76799733376868
30
0
10
986.81286638954612
20
-555.97450357713944
30
0
10
986.65795663424603
20
-556.18273116584032
30
0
10
986.50465436061972
20
-556.3926422129972
30
0
10
986.35290700796259
20
-556.60416079596996
30
0
10
986.20264653268578
20
-556.8171922342874
30
0
10
986.05380735281017
20
-557.03164527264801
30
0
10
985.90634705531795
20
-557.24745768457376
30
0
10
985.7602485028109
20
-557.46459884968795
30
0
10
985.61550936911476
20
-557.68305676873513
30
0
10
985.47213521703668
20
-557.90282946616162
30
0
10
985.33013175523479
20
-558.12391537904375
30
0
10
985.18949583342999
20
-558.34630218471898
30
0
10
985.05021493467939
20
-558.56996615730031
30
0
10
984.91227145322443
20
-558.79487745459335
30
0
10
984.77564557613687
20
-559.02100367823755
30
0
10
984.64031846556065
20
-559.24831380722014
30
0
10
984.50627596827371
20
-559.47678279025217
30
0
10
984.3735087056815
20
-559.70639164145632
30
0
10
984.24201023954129
20
-559.93712514728293
30
0
10
984.11177578823015
20
-560.16897025962373
30
0
10
983.98280082500446
20
-560.40191434565224
30
0
10
983.85507942419895
20
-560.63594312466785
30
0
10
983.72860415774142
20
-560.87104054377266
30
0
10
983.60336686635014
20
-561.10718974707379
30
0
10
983.47935916944948
20
-561.34437372368689
30
0
10
983.35657302641164
20
-561.58257601709261
30
0
10
983.2350013850139
20
-561.82178155947474
30
0
10
983.11463824456609
20
-562.06197672239546
30
0
10
982.99547831724851
20
-562.30314883462643
30
0
10
982.87751679333792
20
-562.54528583874583
30
0
10
982.76074907816906
20
-562.78837592116349
30
0
10
982.64517047656614
20
-563.03240705570806
30
0
10
982.53077612212451
20
-563.27736695128579
30
0
10
982.41756112993903
20
-563.52324335972094
30
0
10
982.30552068098802
20
-563.77002428851029
30
0
10
982.19465011959778
20
-564.01769821768585
30
0
10
982.08494505221984
20
-564.26625437778216
30
0
10
981.97640138052952
20
-564.51568274367401
30
0
10
981.86901524365339
20
-564.76597365963084
30
0
10
981.7627829746317
20
-565.0171175350132
30
0
10
981.65770104646583
20
-565.26910454232484
30
0
10
981.55376600571014
20
-565.52192421880954
30
0
10
981.45097443130669
20
-565.77556539464706
30
0
10
981.34932296338093
20
-566.03001686516382
30
0
10
981.24880830819939
20
-566.28526791424383
30
0
10
981.14942724942443
20
-566.54130887396855
30
0
10
981.05117663653527
20
-566.79813170567866
30
0
10
980.95405341000674
20
-567.0557304435049
30
0
10
980.85805483395893
20
-567.31410087696258
30
0
10
980.78215392375694
20
-567.52141243898132
30
0
10
980.72573267090775
20
-567.67724153677193
30
0
10
980.68834261886252
20
-567.78128107386465
30
0
10
980.66970362197264
20
-567.83333921038013
30
0
0
ARC
5
266
100
AcDbEntity
8
0
100
AcDbCircle
10
1067.2950945004955
20
-500.03922696497176
30
0
40
109.9999999999994
210
0
220
0
230
1
100
AcDbArc
50
218.0471771062424
51
221.95282289375746
0
SPLINE
5
267
100
AcDbEntity
8
0
100
AcDbSpline
70
4
71
5
72
81
73
75
74
0
42
0.000000001
43
0.0000000001
44
0.0000000001
40
-1
40
-1
40
-1
40
-1
40
-1
40
-1
40
-0.9857142857142841
40
-0.97142857142856986
40
-0.95714285714285563
40
-0.94285714285714139
40
-0.92857142857142716
40
-0.91428571428571292
40
-0.89999999999999869
40
-0.88571428571428445
40
-0.87142857142857022
40
-0.85714285714285599
40
-0.84285714285714175
40
-0.82857142857142752
40
-0.81428571428571328
40
-0.79999999999999905
40
-0.78571428571428481
40
-0.77142857142857058
40
-0.75714285714285634
40
-0.74285714285714211
40
-0.72857142857142787
40
-0.71428571428571364
40
-0.6999999999999994
40
-0.68571428571428517
40
-0.67142857142857093
40
-0.6571428571428567
40
-0.64285714285714246
40
-0.62857142857142823
40
-0.61428571428571399
40
-0.59999999999999976
40
-0.58571428571428552
40
-0.57142857142857129
40
-0.55714285714285705
40
-0.54285714285714282
40
-0.52857142857142858
40
-0.51428571428571435
40
-0.50000000000000011
40
-0.48571428571428582
40
-0.47142857142857153
40
-0.45714285714285724
40
-0.44285714285714295
40
-0.42857142857142866
40
-0.41428571428571437
40
-0.40000000000000008
40
-0.38571428571428579
40
-0.3714285714285715
40
-0.35714285714285721
40
-0.34285714285714292
40
-0.32857142857142863
40
-0.31428571428571433
40
-0.30000000000000004
40
-0.28571428571428575
40
-0.27142857142857146
40
-0.25714285714285717
40
-0.24285714285714291
40
-0.22857142857142862
40
-0.21428571428571433
40
-0.20000000000000004
40
-0.18571428571428575
40
-0.17142857142857146
40
-0.15714285714285717
40
-0.14285714285714288
40
-0.12857142857142859
40
-0.1142857142857143
40
-0.10000000000000001
40
-0.085714285714285715
40
-0.071428571428571425
40
-0.057142857142857141
40
-0.042857142857142858
40
-0.028571428571428571
40
-0.014285714285714285
40
0
40
0
40
0
40
0
40
0
40
0
41
1
41
1
41
1
41
1
41
1
41
1
41
1
41
1
41
1
41
1
41
1
41
1
41
1
41
1
41
1
41
1
41
1
41
1
41
1
41
1
41
1
41
1
41
1
41
1
41
1
41
1
41
1
41
1
41
1
41
1
41
1
41
1
41
1
41
1
41
1
41
1
41
1
41
1
41
1
41
1
41
1
41
1
41
1
41
1
41
1
41
1
41
1
41
1
41
1
41
1
41
1
41
1
41
1
41
1
41
1
41
1
41
1
41
1
41
1
41
1
41
1
41
1
41
1
41
1
41
1
41
1
41
1
41
1
41
1
41
1
41
1
41
1
41
1
41
1
41
1
10
985.48858588689632
20
-573.57625946189137
30
0
10
985.54308977118751
20
-573.56694343378445
30
0
10
985.65204142833682
20
-573.54818769666633
30
0
10
985.81530057972475
20
-573.51968304828449
30
0
10
986.03264266802978
20
-573.48093451841089
30
0
10
986.3037578518373
20
-573.4312599313738
30
0
10
986.57430835731066
20
-573.38034377628367
30
0
10
986.84429051301208
20
-573.32818262768205
30
0
10
987.11369897498855
20
-573.27477243656222
30
0
10
987.38252637378821
20
-573.22010870436839
30
0
10
987.65076374688101
20
-573.16418658480995
30
0
10
987.91840111290355
20
-573.10700097335837
30
0
10
988.18542802084266
20
-573.04854661551258
30
0
10
988.4518340646332
20
-572.98881820256884
30
0
10
988.71760954015645
20
-572.9278105167084
30
0
10
988.98274538167448
20
-572.86551837798936
30
0
10
989.24723278101214
20
-572.80193650976389
30
0
10
989.51106289956499
20
-572.73705943311381
30
0
10
989.77422657617831
20
-572.67088137113296
30
0
10
990.03671396793095
20
-572.60339612692223
30
0
10
990.29851453831839
20
-572.53459711511687
30
0
10
990.55961731384446
20
-572.4644775074305
30
0
10
990.82001108066595
20
-572.39303036629724
30
0
10
991.07968457946072
20
-572.32024876491812
30
0
10
991.33862678207049
20
-572.24612599112493
30
0
10
991.59682685223538
20
-572.17065546864728
30
0
10
991.85427375091297
20
-572.09383036708289
30
0
10
992.11095591759897
20
-572.01564327861047
30
0
10
992.36686097291158
20
-571.93608592715032
30
0
10
992.62197530255389
20
-571.85514875112017
30
0
10
992.87628409625859
20
-571.77282097440252
30
0
10
993.12977205684638
20
-571.68909138983258
30
0
10
993.38242400134789
20
-571.60394903509132
30
0
10
993.63422541061595
20
-571.51738380739937
30
0
10
993.88516324988677
20
-571.42938739129795
30
0
10
994.13522586431566
20
-571.3399531351472
30
0
10
994.38440123434475
20
-571.24907406418788
30
0
10
994.63267549554132
20
-571.15674119618359
30
0
10
994.88003157904222
20
-571.06294199815852
30
0
10
995.12644727182465
20
-570.96765818179904
30
0
10
995.37189529531463
20
-570.87086580869641
30
0
10
995.61634718383402
20
-570.77253974100881
30
0
10
995.85977660576646
20
-570.67265745840598
30
0
10
996.10216236921883
20
-570.57120251414881
30
0
10
996.34349288577778
20
-570.46816966600989
30
0
10
996.58376562496585
20
-570.36356426452107
30
0
10
996.82297767527098
20
-570.25739144492672
30
0
10
997.06111762366947
20
-570.14964683274366
30
0
10
997.29815829085499
20
-570.0403082337566
30
0
10
997.53404576065236
20
-569.92932307378237
30
0
10
997.76870155232484
20
-569.81661092086244
30
0
10
998.00204423945524
20
-569.70208832405183
30
0
10
998.23400817990955
20
-569.58569033733295
30
0
10
998.46455979133555
20
-569.46738923387829
30
0
10
998.69372375702949
20
-569.34722460523085
30
0
10
998.92157216848182
20
-569.22529097541383
30
0
10
999.14817256991967
20
-569.10167830792898
30
0
10
999.37354250008184
20
-568.97641995698007
30
0
10
999.59761041022693
20
-568.84944794332955
30
0
10
999.82015146872129
20
-568.72051941059715
30
0
10
1000.0408275875418
20
-568.58926269930964
30
0
10
1000.2593049216684
20
-568.45531239711363
30
0
10
1000.4753586125551
20
-568.3184296441575
30
0
10
1000.6889618680141
20
-568.17860470706501
30
0
10
1000.9004349448425
20
-568.03622770157824
30
0
10
1001.1102895745676
20
-567.89191263227303
30
0
10
1001.3189383086406
20
-567.74616754223428
30
0
10
1001.5264335598031
20
-567.59909870710908
30
0
10
1001.7322234729608
20
-567.45013347144129
30
0
10
1001.9348226625322
20
-567.29764752244148
30
0
10
1002.1321898747931
20
-567.13938662023986
30
0
10
1002.2842378117742
20
-567.00631760358829
30
0
10
1002.394248291095
20
-566.90206302816614
30
0
10
1002.4657052314724
20
-566.83047606243088
30
0
10
1002.5009628486783
20
-566.79416159149559
30
0
0
LINE
5
268
100
AcDbEntity
8
0
100
AcDbLine
10
1002.5009628486783
20
-566.79416159149559
30
0
11
1003.5302540774933
21
-565.73401716385968
31
0
0
ARC
5
269
100
AcDbEntity
8
0
100
AcDbCircle
10
1007.8350735063453
20
-569.91355418187698
30
0
40
5.9999999999999174
210
0
220
-0
230
1
100
AcDbArc
50
49.603658399389168
51
135.84598422821907
0
ARC
5
270
100
AcDbEntity
8
0
100
AcDbCircle
10
1067.2950945004955
20
-500.03922696497176
30
0
40
85.749199999999547
210
0
220
0
230
1
100
AcDbArc
50
229.60365839938999
51
230.39634160060979
0
ARC
5
271
100
AcDbEntity
8
0
100
AcDbCircle
10
1008.8074396104466
20
-570.72946622119775
30
0
40
5.9999999999999698
210
-0
220
0
230
1
100
AcDbArc
50
-35.845984228216714
51
50.396341600610874
0
LINE
5
272
100
AcDbEntity
8
0
100
AcDbLine
10
1013.6710041187971
20
-574.24311678337847
30
0
11
1012.8057002133207
21
-575.44086291354574
31
0
0
SPLINE
5
273
100
AcDbEntity
8
0
100
AcDbSpline
70
4
71
5
72
81
73
75
74
0
42
0.000000001
43
0.0000000001
44
0.0000000001
40
0
40
0
40
0
40
0
40
0
40
0
40
0.014285714285714285
40
0.028571428571428571
40
0.042857142857142858
40
0.057142857142857141
40
0.071428571428571425
40
0.085714285714285715
40
0.10000000000000001
40
0.1142857142857143
40
0.12857142857142859
40
0.14285714285714288
40
0.15714285714285717
40
0.17142857142857146
40
0.18571428571428575
40
0.20000000000000004
40
0.21428571428571433
40
0.22857142857142862
40
0.24285714285714291
40
0.25714285714285717
40
0.27142857142857146
40
0.28571428571428575
40
0.30000000000000004
40
0.31428571428571433
40
0.32857142857142863
40
0.34285714285714292
40
0.35714285714285721
40
0.3714285714285715
40
0.38571428571428579
40
0.40000000000000008
40
0.41428571428571437
40
0.42857142857142866
40
0.44285714285714295
40
0.45714285714285724
40
0.47142857142857153
40
0.48571428571428582
40
0.50000000000000011
40
0.51428571428571435
40
0.52857142857142858
40
0.54285714285714282
40
0.55714285714285705
40
0.57142857142857129
40
0.58571428571428552
40
0.59999999999999976
40
0.61428571428571399
40
0.62857142857142823
40
0.64285714285714246
40
0.6571428571428567
40
0.67142857142857093
40
0.68571428571428517
40
0.6999999999999994
40
0.71428571428571364
40
0.72857142857142787
40
0.74285714285714211
40
0.75714285714285634
40
0.77142857142857058
40
0.78571428571428481
40
0.79999999999999905
40
0.81428571428571328
40
0.82857142857142752
40
0.84285714285714175
40
0.85714285714285599
40
0.87142857142857022
40
0.88571428571428445
40
0.89999999999999869
40
0.91428571428571292
40
0.92857142857142716
40
0.94285714285714139
40
0.95714285714285563
40
0.97142857142856986
40
0.9857142857142841
40
1
40
1
40
1
40
1
40
1
40
1
41
1
41
1
41
1
41
1
41
1
41
1
41
1
41
1
41
1
41
1
41
1
41
1
41
1
41
1
41
1
41
1
41
1
41
1
41
1
41
1
41
1
41
1
41
1
41
1
41
1
41
1
41
1
41
1
41
1
41
1
41
1
41
1
41
1
41
1
41
1
41
1
41
1
41
1
41
1
41
1
41
1
41
1
41
1
41
1
41
1
41
1
41
1
41
1
41
1
41
1
41
1
41
1
41
1
41
1
41
1
41
1
41
1
41
1
41
1
41
1
41
1
41
1
41
1
41
1
41
1
41
1
41
1
41
1
41
1
41
1
41
1
41
1
41
1
41
1
41
1
10
1012.8057002133207
20
-575.44086291354563
30
0
10
1012.7760598617738
20
-575.48189083002376
30
0
10
1012.7179688303812
20
-575.56469312505862
30
0
10
1012.634401235477
20
-575.69113591504174
30
0
10
1012.5297566833674
20
-575.86398109445577
30
0
10
1012.408172576621
20
-576.08583157254395
30
0
10
1012.2931842118863
20
-576.31183173235161
30
0
10
1012.1822171362735
20
-576.54036277603029
30
0
10
1012.0734137794547
20
-576.77024394329942
30
0
10
1011.9661143572653
20
-577.00103120355993
30
0
10
1011.8604326321638
20
-577.2327577187134
30
0
10
1011.7569405677266
20
-577.4657415518717
30
0
10
1011.6563317016676
20
-577.70038003943489
30
0
10
1011.5590458350034
20
-577.93692082989173
30
0
10
1011.4650687298151
20
-578.17533922827147
30
0
10
1011.3741261087921
20
-578.4154552697122
30
0
10
1011.2858001394363
20
-578.65700363423935
30
0
10
1011.199666100248
20
-578.8997159081365
30
0
10
1011.1154457827777
20
-579.14341284703596
30
0
10
1011.0330598162365
20
-579.38803579365288
30
0
10
1010.9525440936727
20
-579.63359622837652
30
0
10
1010.8739989407725
20
-579.88014504728778
30
0
10
1010.7975299640827
20
-580.12773683272042
30
0
10
1010.7231804398714
20
-580.37638901797686
30
0
10
1010.6509172310292
20
-580.62607334560948
30
0
10
1010.5806649795778
20
-580.87673644849315
30
0
10
1010.5123273628307
20
-581.12831262836585
30
0
10
1010.4458115427344
20
-581.3807385636519
30
0
10
1010.3810563813805
20
-581.63397028669567
30
0
10
1010.3180353020963
20
-581.88798488509042
30
0
10
1010.256742015006
20
-582.14277187882294
30
0
10
1010.1971810717599
20
-582.39832750888786
30
0
10
1010.1393573021899
20
-582.65464835414105
30
0
10
1010.0832635314032
20
-582.91172391252655
30
0
10
1010.0288798825899
20
-583.16953617005015
30
0
10
1009.9761796051168
20
-583.42806310574588
30
0
10
1009.9251330000297
20
-583.687281051534
30
0
10
1009.8757117557229
20
-583.94716730012397
30
0
10
1009.8278940044729
20
-584.20770315169136
30
0
10
1009.7816644397307
20
-584.46887397301589
30
0
10
1009.7370118081868
20
-584.73066767004559
30
0
10
1009.6939271538699
20
-584.99307361698095
30
0
10
1009.6524019023509
20
-585.25608149108541
30
0
10
1009.6124256010387
20
-585.51967989958723
30
0
10
1009.5739857794143
20
-585.78385629824675
30
0
10
1009.537069005206
20
-586.04859763834475
30
0
10
1009.5016615851837
20
-586.31389080120402
30
0
10
1009.4677503351675
20
-586.57972307281193
30
0
10
1009.4353234747389
20
-586.84608270605486
30
0
10
1009.4043707038938
20
-587.11295894674697
30
0
10
1009.3748827198915
20
-587.38034169636944
30
0
10
1009.3468508791896
20
-587.64822126967465
30
0
10
1009.3202668237286
20
-587.91658813698655
30
0
10
1009.2951220282946
20
-588.18543260324577
30
0
10
1009.2714077161609
20
-588.45474478301037
30
0
10
1009.2491151078951
20
-588.72451483749603
30
0
10
1009.2282355734209
20
-588.99473314563852
30
0
10
1009.2087607977749
20
-589.26539047454321
30
0
10
1009.1906829689974
20
-589.5364782069048
30
0
10
1009.1739948071289
20
-589.80798832389678
30
0
10
1009.1586893816805
20
-590.07991307259647
30
0
10
1009.1447599666449
20
-590.35224469492562
30
0
10
1009.1321998865265
20
-590.62497516236249
30
0
10
1009.1210023176743
20
-590.89809582428052
30
0
10
1009.1111602250414
20
-591.17159735455255
30
0
10
1009.1026666191551
20
-591.44547037337452
30
0
10
1009.0955147397905
20
-591.71970593741446
30
0
10
1009.0896982579561
20
-591.99429606185265
30
0
10
1009.0852114637472
20
-592.26923427036218
30
0
10
1009.0820494417034
20
-592.54451600327889
30
0
10
1009.0802081808675
20
-592.82013823976718
30
0
10
1009.0797893857946
20
-593.04090702498581
30
0
10
1009.0800674411973
20
-593.20663568326938
30
0
10
1009.0805159025876
20
-593.31718901950478
30
0
10
1009.0808059060637
20
-593.37248257862802
30
0
0
ARC
5
274
100
AcDbEntity
8
0
100
AcDbCircle
10
1067.2950945004955
20
-500.03922696497176
30
0
40
109.9999999999993
210
0
220
0
230
1
100
AcDbArc
50
238.0471771062426
51
241.9528228937574
0
SPLINE
5
275
100
AcDbEntity
8
0
100
AcDbSpline
70
4
71
5
72
81
73
75
74
0
42
0.000000001
43
0.0000000001
44
0.0000000001
40
-1
40
-1
40
-1
40
-1
40
-1
40
-1
40
-0.9857142857142841
40
-0.97142857142856986
40
-0.95714285714285563
40
-0.94285714285714139
40
-0.92857142857142716
40
-0.91428571428571292
40
-0.89999999999999869
40
-0.88571428571428445
40
-0.87142857142857022
40
-0.85714285714285599
40
-0.84285714285714175
40
-0.82857142857142752
40
-0.81428571428571328
40
-0.79999999999999905
40
-0.78571428571428481
40
-0.77142857142857058
40
-0.75714285714285634
40
-0.74285714285714211
40
-0.72857142857142787
40
-0.71428571428571364
40
-0.6999999999999994
40
-0.68571428571428517
40
-0.67142857142857093
40
-0.6571428571428567
40
-0.64285714285714246
40
-0.62857142857142823
40
-0.61428571428571399
40
-0.59999999999999976
40
-0.58571428571428552
40
-0.57142857142857129
40
-0.55714285714285705
40
-0.54285714285714282
40
-0.52857142857142858
40
-0.51428571428571435
40
-0.50000000000000011
40
-0.48571428571428582
40
-0.47142857142857153
40
-0.45714285714285724
40
-0.44285714285714295
40
-0.42857142857142866
40
-0.41428571428571437
40
-0.40000000000000008
40
-0.38571428571428579
40
-0.3714285714285715
40
-0.35714285714285721
40
-0.34285714285714292
40
-0.32857142857142863
40
-0.31428571428571433
40
-0.30000000000000004
40
-0.28571428571428575
40
-0.27142857142857146
40
-0.25714285714285717
40
-0.24285714285714291
40
-0.22857142857142862
40
-0.21428571428571433
40
-0.20000000000000004
40
-0.18571428571428575
40
-0.17142857142857146
40
-0.15714285714285717
40
-0.14285714285714288
40
-0.12857142857142859
40
-0.1142857142857143
40
-0.10000000000000001
40
-0.085714285714285715
40
-0.071428571428571425
40
-0.057142857142857141
40
-0.042857142857142858
40
-0.028571428571428571
40
-0.014285714285714285
40
0
40
0
40
0
40
0
40
0
40
0
41
1
41
1
41
1
41
1
41
1
41
1
41
1
41
1
41
1
41
1
41
1
41
1
41
1
41
1
41
1
41
1
41
1
41
1
41
1
41
1
41
1
41
1
41
1
41
1
41
1
41
1
41
1
41
1
41
1
41
1
41
1
41
1
41
1
41
1
41
1
41
1
41
1
41
1
41
1
41
1
41
1
41
1
41
1
41
1
41
1
41
1
41
1
41
1
41
1
41
1
41
1
41
1
41
1
41
1
41
1
41
1
41
1
41
1
41
1
41
1
41
1
41
1
41
1
41
1
41
1
41
1
41
1
41
1
41
1
41
1
41
1
41
1
41
1
41
1
41
1
10
1015.5732684183782
20
-597.12090755781639
30
0
10
1015.6212990469826
20
-597.09351192863221
30
0
10
1015.7172652753308
20
-597.0386236394711
30
0
10
1015.8609295312408
20
-596.9560001133716
30
0
10
1016.0519115100662
20
-596.84525303359032
30
0
10
1016.2896867382951
20
-596.70584733668738
30
0
10
1016.5265067011768
20
-596.56546807881159
30
0
10
1016.7623667771126
20
-596.42411329679055
30
0
10
1016.9972605595872
20
-596.28178101354206
30
0
10
1017.2311795849848
20
-596.13846952230756
30
0
10
1017.4641137737525
20
-595.99417733442931
30
0
10
1017.6960520006257
20
-595.84890306704688
30
0
10
1017.9269826477189
20
-595.7026453570013
30
0
10
1018.1568941208461
20
-595.55540277482669
30
0
10
1018.3857755165191
20
-595.40717373638154
30
0
10
1018.6136165440865
20
-595.25795647477742
30
0
10
1018.8404071218519
20
-595.10774904416098
30
0
10
1019.0661370703425
20
-594.95654931901367
30
0
10
1019.2907958050714
20
-594.80435500411875
30
0
10
1019.5143719572534
20
-594.65116364277367
30
0
10
1019.7368533734855
20
-594.4969726504562
30
0
10
1019.9582274066432
20
-594.34177936383276
30
0
10
1020.1784811463734
20
-594.18558109908429
30
0
10
1020.3976016432694
20
-594.0283751980636
30
0
10
1020.6155762385555
20
-593.87015912524828
30
0
10
1020.8323925002612
20
-593.71093040718461
30
0
10
1021.0480377189446
20
-593.55068640096908
30
0
10
1021.2624984976612
20
-593.38942409945162
30
0
10
1021.4757603730112
20
-593.22713995965955
30
0
10
1021.6878072814868
20
-593.06382965300804
30
0
10
1021.8986216203392
20
-592.89948811866884
30
0
10
1022.1081851818465
20
-592.73411005729542
30
0
10
1022.3164799493502
20
-592.5676903605588
30
0
10
1022.5234888239605
20
-592.40022450079266
30
0
10
1022.7291967129521
20
-592.23170912217324
30
0
10
1022.9335903893586
20
-592.06214196039559
30
0
10
1023.1366561729817
20
-591.89152057226056
30
0
10
1023.3383779634107
20
-591.71984125914253
30
0
10
1023.5387354346306
20
-591.54709808179121
30
0
10
1023.7377014582562
20
-591.37328145211472
30
0
10
1023.9352422133948
20
-591.19837820518887
30
0
10
1024.1313223534105
20
-591.0223744550043
30
0
10
1024.3259094322711
20
-590.8452580453162
30
0
10
1024.5189779109949
20
-590.66702076929937
30
0
10
1024.710515107088
20
-590.48766166434223
30
0
10
1024.9005204726693
20
-590.30718662377456
30
0
10
1025.0889930281692
20
-590.12560146894305
30
0
10
1025.275920552692
20
-589.94290599266253
30
0
10
1025.4612699151758
20
-589.75908863506254
30
0
10
1025.644972469559
20
-589.57411843298905
30
0
10
1025.826926958722
20
-589.38794664711725
30
0
10
1026.0070283249577
20
-589.20052270868473
30
0
10
1026.1851926719905
20
-589.01180803933005
30
0
10
1026.3613789595986
20
-588.82178807019909
30
0
10
1026.5356239235987
20
-588.6304915629878
30
0
10
1026.708027636952
20
-588.43798268448177
30
0
10
1026.8786843398002
20
-588.24432287123318
30
0
10
1027.0476219209763
20
-588.04953746733929
30
0
10
1027.2147498963875
20
-587.85358706432316
30
0
10
1027.3797739316328
20
-587.65632034878354
30
0
10
1027.542249212865
20
-587.45750370797043
30
0
10
1027.7017370499973
20
-587.25690794831348
30
0
10
1027.857944450232
20
-587.0543855211248
30
0
10
1028.0108429081379
20
-586.84993644349004
30
0
10
1028.1608667941055
20
-586.64381777001813
30
0
10
1028.308706980408
20
-586.4364314537878
30
0
10
1028.4549248995688
20
-586.22811379823008
30
0
10
1028.5996061518661
20
-586.01894674357357
30
0
10
1028.7420363034387
20
-585.80858091526966
30
0
10
1028.8802640007243
20
-585.59599799036607
30
0
10
1029.0116000972171
20
-585.37977782618304
30
0
10
1029.1089661374567
20
-585.20273039598158
30
0
10
1029.1766850082552
20
-585.06713734086975
30
0
10
1029.2193483835508
20
-584.97542788443434
30
0
10
1029.2400594257115
20
-584.92924462877863
30
0
0
LINE
5
276
100
AcDbEntity
8
0
100
AcDbLine
10
1029.2400594257117
20
-584.92924462877852
30
0
11
1029.8446860489826
21
-583.58099639955867
31
0
0
ARC
5
277
100
AcDbEntity
8
0
100
AcDbCircle
10
1035.3193789500281
20
-586.03614153564411
30
0
40
5.9999999999999751
210
0
220
-0
230
1
100
AcDbArc
50
69.603658399391591
51
155.84598422821861
0
ARC
5
278
100
AcDbEntity
8
0
100
AcDbCircle
10
1067.2950945004955
20
-500.03922696497176
30
0
40
85.749199999999519
210
0
220
0
230
1
100
AcDbArc
50
249.6036583993899
51
250.39634160060999
0
ARC
5
279
100
AcDbEntity
8
0
100
AcDbCircle
10
1036.5121625553838
20
-586.47027926391434
30
0
40
5.9999999999999716
210
-0
220
0
230
1
100
AcDbArc
50
-15.845984228219228
51
70.396341600607869
0
LINE
5
280
100
AcDbEntity
8
0
100
AcDbLine
10
1042.2841575034704
20
-588.10859373899643
30
0
11
1041.8806911118647
21
-589.53005830486052
31
0
0
SPLINE
5
281
100
AcDbEntity
8
0
100
AcDbSpline
70
4
71
5
72
81
73
75
74
0
42
0.000000001
43
0.0000000001
44
0.0000000001
40
0
40
0
40
0
40
0
40
0
40
0
40
0.014285714285714285
40
0.028571428571428571
40
0.042857142857142858
40
0.057142857142857141
40
0.071428571428571425
40
0.085714285714285715
40
0.10000000000000001
40
0.1142857142857143
40
0.12857142857142859
40
0.14285714285714288
40
0.15714285714285717
40
0.17142857142857146
40
0.18571428571428575
40
0.20000000000000004
40
0.21428571428571433
40
0.22857142857142862
40
0.24285714285714291
40
0.25714285714285717
40
0.27142857142857146
40
0.28571428571428575
40
0.30000000000000004
40
0.31428571428571433
40
0.32857142857142863
40
0.34285714285714292
40
0.35714285714285721
40
0.3714285714285715
40
0.38571428571428579
40
0.40000000000000008
40
0.41428571428571437
40
0.42857142857142866
40
0.44285714285714295
40
0.45714285714285724
40
0.47142857142857153
40
0.48571428571428582
40
0.50000000000000011
40
0.51428571428571435
40
0.52857142857142858
40
0.54285714285714282
40
0.55714285714285705
40
0.57142857142857129
40
0.58571428571428552
40
0.59999999999999976
40
0.61428571428571399
40
0.62857142857142823
40
0.64285714285714246
40
0.6571428571428567
40
0.67142857142857093
40
0.68571428571428517
40
0.6999999999999994
40
0.71428571428571364
40
0.72857142857142787
40
0.74285714285714211
40
0.75714285714285634
40
0.77142857142857058
40
0.78571428571428481
40
0.79999999999999905
40
0.81428571428571328
40
0.82857142857142752
40
0.84285714285714175
40
0.85714285714285599
40
0.87142857142857022
40
0.88571428571428445
40
0.89999999999999869
40
0.91428571428571292
40
0.92857142857142716
40
0.94285714285714139
40
0.95714285714285563
40
0.97142857142856986
40
0.9857142857142841
40
1
40
1
40
1
40
1
40
1
40
1
41
1
41
1
41
1
41
1
41
1
41
1
41
1
41
1
41
1
41
1
41
1
41
1
41
1
41
1
41
1
41
1
41
1
41
1
41
1
41
1
41
1
41
1
41
1
41
1
41
1
41
1
41
1
41
1
41
1
41
1
41
1
41
1
41
1
41
1
41
1
41
1
41
1
41
1
41
1
41
1
41
1
41
1
41
1
41
1
41
1
41
1
41
1
41
1
41
1
41
1
41
1
41
1
41
1
41
1
41
1
41
1
41
1
41
1
41
1
41
1
41
1
41
1
41
1
41
1
41
1
41
1
41
1
41
1
41
1
41
1
41
1
41
1
41
1
41
1
41
1
10
1041.8806911118647
20
-589.53005830486052
30
0
10
1041.8668706661126
20
-589.57874953250541
30
0
10
1041.8406030053948
20
-589.67642654101678
30
0
10
1041.805321134279
20
-589.82382569850188
30
0
10
1041.7661039538925
20
-590.02203758284645
30
0
10
1041.7277295982906
20
-590.27209305363931
30
0
10
1041.6969724875223
20
-590.52379207309423
30
0
10
1041.6708597657318
20
-590.77649398356539
30
0
10
1041.64724204399
20
-591.02972455979921
30
0
10
1041.625347460576
20
-591.28329220899332
30
0
10
1041.6052942592714
20
-591.53718918408958
30
0
10
1041.5877286940192
20
-591.79151874358274
30
0
10
1041.573438374144
20
-592.04641705768768
30
0
10
1041.5629212781873
20
-592.30196641905479
30
0
10
1041.5561555807044
20
-592.55814849165768
30
0
10
1041.5528219937223
20
-592.81488797220857
30
0
10
1041.5524371383506
20
-593.07207844861603
30
0
10
1041.5545101040323
20
-593.32961295779978
30
0
10
1041.5587181551555
20
-593.58741821804392
30
0
10
1041.5649666456031
20
-593.84546625593919
30
0
10
1041.573293230332
20
-594.10375558337728
30
0
10
1041.583809592134
20
-594.362299713624
30
0
10
1041.5966336369595
20
-594.62111381772957
30
0
10
1041.6118119937387
20
-594.88019947628436
30
0
10
1041.6293038591587
20
-595.13954146953199
30
0
10
1041.6490201672509
20
-595.39911542272546
30
0
10
1041.6708479341687
20
-595.65889254399167
30
0
10
1041.6946782634245
20
-595.91884508299779
30
0
10
1041.7204386663523
20
-596.17895263405831
30
0
10
1041.7480963325447
20
-596.43920275631103
30
0
10
1041.7776417670764
20
-596.69958775302916
30
0
10
1041.8090779614433
20
-596.96010253514714
30
0
10
1041.8424082841032
20
-597.22074223594109
30
0
10
1041.8776224009475
20
-597.48149944066461
30
0
10
1041.9146954727355
20
-597.74236401996939
30
0
10
1041.9535948304811
20
-598.00332443017157
30
0
10
1041.9942844713355
20
-598.26436858819216
30
0
10
1042.0367300247415
20
-598.52548483929706
30
0
10
1042.0809045460437
20
-598.78666309060111
30
0
10
1042.1267886469352
20
-599.04789482652347
30
0
10
1042.1743676163546
20
-599.30917253123096
30
0
10
1042.2236294042043
20
-599.5704892828611
30
0
10
1042.2745624225727
20
-599.8318383138419
30
0
10
1042.3271529526794
20
-600.09321249346635
30
0
10
1042.3813849856874
20
-600.35460429917384
30
0
10
1042.4372414364652
20
-600.6160060632867
30
0
10
1042.4947049507336
20
-600.87741014164146
30
0
10
1042.5537587909675
20
-601.13880909622901
30
0
10
1042.6143878694456
20
-601.40019591751388
30
0
10
1042.6765788291814
20
-601.6615640226762
30
0
10
1042.7403194745611
20
-601.92290710393672
30
0
10
1042.8055983707623
20
-602.18421901640545
30
0
10
1042.872404404437
20
-602.44549366374088
30
0
10
1042.9407262485988
20
-602.70672485136197
30
0
10
1043.010552274802
20
-602.96790629180941
30
0
10
1043.0818708680169
20
-603.22903174239286
30
0
10
1043.1546706280262
20
-603.4900951139291
30
0
10
1043.2289405834842
20
-603.75109057422014
30
0
10
1043.3046704462583
20
-604.01201269749527
30
0
10
1043.3818506328241
20
-604.27285643841537
30
0
10
1043.4604719789963
20
-604.53361688198333
30
0
10
1043.5405255109767
20
-604.79428903841938
30
0
10
1043.6220022099349
20
-605.05486764653563
30
0
10
1043.704892705048
20
-605.31534691122783
30
0
10
1043.7891871958113
20
-605.57572047493113
30
0
10
1043.8748759061866
20
-605.83598191405304
30
0
10
1043.9619494248409
20
-606.09612513674381
30
0
10
1044.0503990734983
20
-606.35614480436982
30
0
10
1044.1402172715696
20
-606.61603678407664
30
0
10
1044.2313978405352
20
-606.87579847236816
30
0
10
1044.3239359781423
20
-607.13542840241576
30
0
10
1044.399049811065
20
-607.34302643713636
30
0
10
1044.4559936371343
20
-607.49866533382954
30
0
10
1044.4942265208979
20
-607.60239810526423
30
0
10
1044.5134105460406
20
-607.6542578677188
30
0
0
ARC
5
282
100
AcDbEntity
8
0
100
AcDbCircle
10
1067.2950945004955
20
-500.03922696497176
30
0
40
109.9999999999993
210
0
220
0
230
1
100
AcDbArc
50
258.04717710624243
51
261.9528228937574
0
SPLINE
5
283
100
AcDbEntity
8
0
100
AcDbSpline
70
4
71
5
72
81
73
75
74
0
42
0.000000001
43
0.0000000001
44
0.0000000001
40
-1
40
-1
40
-1
40
-1
40
-1
40
-1
40
-0.9857142857142841
40
-0.97142857142856986
40
-0.95714285714285563
40
-0.94285714285714139
40
-0.92857142857142716
40
-0.91428571428571292
40
-0.89999999999999869
40
-0.88571428571428445
40
-0.87142857142857022
40
-0.85714285714285599
40
-0.84285714285714175
40
-0.82857142857142752
40
-0.81428571428571328
40
-0.79999999999999905
40
-0.78571428571428481
40
-0.77142857142857058
40
-0.75714285714285634
40
-0.74285714285714211
40
-0.72857142857142787
40
-0.71428571428571364
40
-0.6999999999999994
40
-0.68571428571428517
40
-0.67142857142857093
40
-0.6571428571428567
40
-0.64285714285714246
40
-0.62857142857142823
40
-0.61428571428571399
40
-0.59999999999999976
40
-0.58571428571428552
40
-0.57142857142857129
40
-0.55714285714285705
40
-0.54285714285714282
40
-0.52857142857142858
40
-0.51428571428571435
40
-0.50000000000000011
40
-0.48571428571428582
40
-0.47142857142857153
40
-0.45714285714285724
40
-0.44285714285714295
40
-0.42857142857142866
40
-0.41428571428571437
40
-0.40000000000000008
40
-0.38571428571428579
40
-0.3714285714285715
40
-0.35714285714285721
40
-0.34285714285714292
40
-0.32857142857142863
40
-0.31428571428571433
40
-0.30000000000000004
40
-0.28571428571428575
40
-0.27142857142857146
40
-0.25714285714285717
40
-0.24285714285714291
40
-0.22857142857142862
40
-0.21428571428571433
40
-0.20000000000000004
40
-0.18571428571428575
40
-0.17142857142857146
40
-0.15714285714285717
40
-0.14285714285714288
40
-0.12857142857142859
40
-0.1142857142857143
40
-0.10000000000000001
40
-0.085714285714285715
40
-0.071428571428571425
40
-0.057142857142857141
40
-0.042857142857142858
40
-0.028571428571428571
40
-0.014285714285714285
40
0
40
0
40
0
40
0
40
0
40
0
41
1
41
1
41
1
41
1
41
1
41
1
41
1
41
1
41
1
41
1
41
1
41
1
41
1
41
1
41
1
41
1
41
1
41
1
41
1
41
1
41
1
41
1
41
1
41
1
41
1
41
1
41
1
41
1
41
1
41
1
41
1
41
1
41
1
41
1
41
1
41
1
41
1
41
1
41
1
41
1
41
1
41
1
41
1
41
1
41
1
41
1
41
1
41
1
41
1
41
1
41
1
41
1
41
1
41
1
41
1
41
1
41
1
41
1
41
1
41
1
41
1
41
1
41
1
41
1
41
1
41
1
41
1
41
1
41
1
41
1
41
1
41
1
41
1
41
1
41
1
10
1051.8963665082192
20
-608.95607220123338
30
0
10
1051.9321306784705
20
-608.91390128816795
30
0
10
1052.0035365345682
20
-608.82950078470162
30
0
10
1052.1102778654788
20
-608.70272399752548
30
0
10
1052.2518644895845
20
-608.53333610011089
30
0
10
1052.4276205605217
20
-608.32101367779751
30
0
10
1052.6021459981978
20
-608.10810312741319
30
0
10
1052.7754357882859
20
-607.89460418485885
30
0
10
1052.9474832344295
20
-607.68051718344236
30
0
10
1053.1182797996846
20
-607.46584341406242
30
0
10
1053.2878155032197
20
-607.25058492524829
30
0
10
1053.4560794177387
20
-607.03474422260115
30
0
10
1053.6230601597733
20
-606.8183239987211
30
0
10
1053.7887463454458
20
-606.60132687579494
30
0
10
1053.953127187021
20
-606.38375509442926
30
0
10
1054.116192410138
20
-606.16561051390192
30
0
10
1054.2779318755797
20
-605.94689475385212
30
0
10
1054.4383352908012
20
-605.72760929853075
30
0
10
1054.5973919246271
20
-605.50775561124715
30
0
10
1054.7550902536527
20
-605.28733527180952
30
0
10
1054.9114179734561
20
-605.06635000827009
30
0
10
1055.0663622887141
20
-604.84480164348531
30
0
10
1055.2199101497426
20
-604.62269207109102
30
0
10
1055.3720484789399
20
-604.40002322220403
30
0
10
1055.5227645137481
20
-604.1767970437686
30
0
10
1055.6720457259657
20
-603.9530154634831
30
0
10
1055.8198792686974
20
-603.7286803447156
30
0
10
1055.9662515244277
20
-603.50379344369424
30
0
10
1056.1111476902377
20
-603.27835637788792
30
0
10
1056.254551190905
20
-603.05237057380066
30
0
10
1056.3964437543516
20
-602.82583729630414
30
0
10
1056.5368064584318
20
-602.59875779304912
30
0
10
1056.6756206258731
20
-602.37113342583666
30
0
10
1056.8128686404223
20
-602.142965788217
30
0
10
1056.9485351717972
20
-601.91425688876313
30
0
10
1057.0826070162771
20
-601.68500912361378
30
0
10
1057.2150704830576
20
-601.4552248758157
30
0
10
1057.3459091776967
20
-601.22490617646258
30
0
10
1057.475101968645
20
-600.99405439639145
30
0
10
1057.6026200842389
20
-600.76266980419734
30
0
10
1057.7284272405652
20
-600.53075159632431
30
0
10
1057.8524854733569
20
-600.2982988134537
30
0
10
1057.9747601356355
20
-600.06531112964842
30
0
10
1058.0952244217092
20
-599.83178956786173
30
0
10
1058.2138660846999
20
-599.59773756120273
30
0
10
1058.3306866254047
20
-599.3631608349765
30
0
10
1058.4456871143473
20
-599.12806519449214
30
0
10
1058.5588559967809
20
-598.89245462485155
30
0
10
1058.6701581859822
20
-598.65632959482036
30
0
10
1058.7795185857315
20
-598.41968448688726
30
0
10
1058.8868253756295
20
-598.18250813304269
30
0
10
1058.9919625381895
20
-597.94478894604606
30
0
10
1059.094838042123
20
-597.70651936831166
30
0
10
1059.195408339395
20
-597.46769974617757
30
0
10
1059.293717787461
20
-597.22834454240785
30
0
10
1059.3898823704769
20
-596.98847982708901
30
0
10
1059.4840116577475
20
-596.74813109966897
30
0
10
1059.5761405243945
20
-596.50731263726607
30
0
10
1059.666170464691
20
-596.26601835540794
30
0
10
1059.7537731425409
20
-596.02420673430197
30
0
10
1059.8384506693887
20
-595.78181038506659
30
0
10
1059.9197124225784
20
-595.53876397704119
30
0
10
1059.9972326143175
20
-595.29502906925143
30
0
10
1060.0709844641058
20
-595.05061542718443
30
0
10
1060.1414640644482
20
-594.80561603973581
30
0
10
1060.2094580989715
20
-594.56017232701367
30
0
10
1060.2756091642223
20
-594.31440828963866
30
0
10
1060.3400257233595
20
-594.06837164921899
30
0
10
1060.4019169350224
20
-593.82197845184157
30
0
10
1060.4591008397056
20
-593.57493918916737
30
0
10
1060.5085647488791
20
-593.32683910587332
30
0
10
1060.5395051109545
20
-593.12716779514597
30
0
10
1060.5567644779885
20
-592.97659078393121
30
0
10
1060.5654884554972
20
-592.87582035072921
30
0
10
1060.569154865266
20
-592.82533869257736
30
0
0
LINE
5
284
100
AcDbEntity
8
0
100
AcDbLine
10
1060.569154865266
20
-592.82533869257747
30
0
11
1060.6761899888879
21
-591.35160529624204
31
0
0
ARC
5
285
100
AcDbEntity
8
0
100
AcDbCircle
10
1066.6604276003986
20
-591.78623181290038
30
0
40
5.9999999999999707
210
0
220
-0
230
1
100
AcDbArc
50
89.603658399389261
51
175.84598422821819
0
ARC
5
286
100
AcDbEntity
8
0
100
AcDbCircle
10
1067.2950945004955
20
-500.03922696497176
30
0
40
85.749199999999519
210
0
220
0
230
1
100
AcDbArc
50
269.60365839939004
51
270.39634160060979
0
ARC
5
287
100
AcDbEntity
8
0
100
AcDbCircle
10
1067.929761400592
20
-591.78623181290038
30
0
40
5.9999999999999867
210
0
220
-0
230
1
100
AcDbArc
50
4.1540157717820012
51
90.396341600610739
0
LINE
5
288
100
AcDbEntity
8
0
100
AcDbLine
10
1073.9139990121025
20
-591.35160529624204
30
0
11
1074.0210341357247
21
-592.82533869257736
31
0
0
SPLINE
5
289
100
AcDbEntity
8
0
100
AcDbSpline
70
4
71
5
72
81
73
75
74
0
42
0.000000001
43
0.0000000001
44
0.0000000001
40
0
40
0
40
0
40
0
40
0
40
0
40
0.014285714285714285
40
0.028571428571428571
40
0.042857142857142858
40
0.057142857142857141
40
0.071428571428571425
40
0.085714285714285715
40
0.10000000000000001
40
0.1142857142857143
40
0.12857142857142859
40
0.14285714285714288
40
0.15714285714285717
40
0.17142857142857146
40
0.18571428571428575
40
0.20000000000000004
40
0.21428571428571433
40
0.22857142857142862
40
0.24285714285714291
40
0.25714285714285717
40
0.27142857142857146
40
0.28571428571428575
40
0.30000000000000004
40
0.31428571428571433
40
0.32857142857142863
40
0.34285714285714292
40
0.35714285714285721
40
0.3714285714285715
40
0.38571428571428579
40
0.40000000000000008
40
0.41428571428571437
40
0.42857142857142866
40
0.44285714285714295
40
0.45714285714285724
40
0.47142857142857153
40
0.48571428571428582
40
0.50000000000000011
40
0.51428571428571435
40
0.52857142857142858
40
0.54285714285714282
40
0.55714285714285705
40
0.57142857142857129
40
0.58571428571428552
40
0.59999999999999976
40
0.61428571428571399
40
0.62857142857142823
40
0.64285714285714246
40
0.6571428571428567
40
0.67142857142857093
40
0.68571428571428517
40
0.6999999999999994
40
0.71428571428571364
40
0.72857142857142787
40
0.74285714285714211
40
0.75714285714285634
40
0.77142857142857058
40
0.78571428571428481
40
0.79999999999999905
40
0.81428571428571328
40
0.82857142857142752
40
0.84285714285714175
40
0.85714285714285599
40
0.87142857142857022
40
0.88571428571428445
40
0.89999999999999869
40
0.91428571428571292
40
0.92857142857142716
40
0.94285714285714139
40
0.95714285714285563
40
0.97142857142856986
40
0.9857142857142841
40
1
40
1
40
1
40
1
40
1
40
1
41
1
41
1
41
1
41
1
41
1
41
1
41
1
41
1
41
1
41
1
41
1
41
1
41
1
41
1
41
1
41
1
41
1
41
1
41
1
41
1
41
1
41
1
41
1
41
1
41
1
41
1
41
1
41
1
41
1
41
1
41
1
41
1
41
1
41
1
41
1
41
1
41
1
41
1
41
1
41
1
41
1
41
1
41
1
41
1
41
1
41
1
41
1
41
1
41
1
41
1
41
1
41
1
41
1
41
1
41
1
41
1
41
1
41
1
41
1
41
1
41
1
41
1
41
1
41
1
41
1
41
1
41
1
41
1
41
1
41
1
41
1
41
1
41
1
41
1
41
1
10
1074.0210341357247
20
-592.82533869257736
30
0
10
1074.0247005454935
20
-592.87582035072921
30
0
10
1074.0334245230022
20
-592.97659078393121
30
0
10
1074.0506838900362
20
-593.12716779514597
30
0
10
1074.0816242521116
20
-593.32683910587332
30
0
10
1074.1310881612849
20
-593.57493918916737
30
0
10
1074.1882720659682
20
-593.82197845184157
30
0
10
1074.2501632776311
20
-594.06837164921899
30
0
10
1074.3145798367682
20
-594.31440828963866
30
0
10
1074.3807309020192
20
-594.56017232701367
30
0
10
1074.4487249365425
20
-594.80561603973581
30
0
10
1074.5192045368849
20
-595.05061542718443
30
0
10
1074.592956386673
20
-595.29502906925143
30
0
10
1074.670476578412
20
-595.53876397704119
30
0
10
1074.7517383316019
20
-595.78181038506659
30
0
10
1074.8364158584495
20
-596.02420673430197
30
0
10
1074.9240185362996
20
-596.26601835540794
30
0
10
1075.0140484765961
20
-596.50731263726607
30
0
10
1075.1061773432432
20
-596.74813109966897
30
0
10
1075.2003066305138
20
-596.98847982708901
30
0
10
1075.2964712135297
20
-597.22834454240785
30
0
10
1075.3947806615954
20
-597.46769974617757
30
0
10
1075.4953509588677
20
-597.70651936831166
30
0
10
1075.5982264628012
20
-597.94478894604606
30
0
10
1075.7033636253609
20
-598.18250813304269
30
0
10
1075.8106704152592
20
-598.41968448688726
30
0
10
1075.9200308150084
20
-598.65632959482036
30
0
10
1076.0313330042097
20
-598.89245462485155
30
0
10
1076.1445018866434
20
-599.12806519449214
30
0
10
1076.259502375586
20
-599.3631608349765
30
0
10
1076.3763229162905
20
-599.59773756120273
30
0
10
1076.4949645792813
20
-599.83178956786173
30
0
10
1076.6154288653552
20
-600.06531112964842
30
0
10
1076.7377035276338
20
-600.2982988134537
30
0
10
1076.8617617604255
20
-600.53075159632431
30
0
10
1076.9875689167518
20
-600.76266980419734
30
0
10
1077.1150870323456
20
-600.99405439639145
30
0
10
1077.2442798232939
20
-601.22490617646258
30
0
10
1077.3751185179331
20
-601.4552248758157
30
0
10
1077.5075819847136
20
-601.68500912361378
30
0
10
1077.6416538291935
20
-601.91425688876313
30
0
10
1077.7773203605684
20
-602.142965788217
30
0
10
1077.9145683751174
20
-602.37113342583666
30
0
10
1078.0533825425589
20
-602.59875779304912
30
0
10
1078.1937452466391
20
-602.82583729630414
30
0
10
1078.3356378100857
20
-603.05237057380066
30
0
10
1078.479041310753
20
-603.27835637788792
30
0
10
1078.6239374765632
20
-603.50379344369424
30
0
10
1078.7703097322933
20
-603.7286803447156
30
0
10
1078.9181432750247
20
-603.9530154634831
30
0
10
1079.0674244872423
20
-604.1767970437686
30
0
10
1079.2181405220508
20
-604.40002322220403
30
0
10
1079.370278851248
20
-604.62269207109102
30
0
10
1079.5238267122766
20
-604.84480164348531
30
0
10
1079.6787710275344
20
-605.06635000827009
30
0
10
1079.8350987473377
20
-605.28733527180952
30
0
10
1079.9927970763633
20
-605.50775561124715
30
0
10
1080.1518537101895
20
-605.72760929853064
30
0
10
1080.312257125411
20
-605.94689475385212
30
0
10
1080.4739965908525
20
-606.16561051390192
30
0
10
1080.6370618139695
20
-606.38375509442926
30
0
10
1080.8014426555446
20
-606.60132687579494
30
0
10
1080.9671288412173
20
-606.8183239987211
30
0
10
1081.1341095832518
20
-607.03474422260115
30
0
10
1081.302373497771
20
-607.25058492524829
30
0
10
1081.4719092013061
20
-607.46584341406242
30
0
10
1081.642705766561
20
-607.68051718344236
30
0
10
1081.8147532127045
20
-607.89460418485885
30
0
10
1081.9880430027929
20
-608.10810312741319
30
0
10
1082.1625684404689
20
-608.32101367779751
30
0
10
1082.3383245114062
20
-608.53333610011089
30
0
10
1082.4799111355119
20
-608.70272399752548
30
0
10
1082.5866524664225
20
-608.82950078470162
30
0
10
1082.6580583225202
20
-608.91390128816795
30
0
10
1082.6938224927712
20
-608.95607220123338
30
0
0
ARC
5
290
100
AcDbEntity
8
0
100
AcDbCircle
10
1067.2950945004955
20
-500.03922696497176
30
0
40
109.99999999999942
210
-0
220
0
230
1
100
AcDbArc
50
278.04717710624249
51
281.95282289375746
0
SPLINE
5
291
100
AcDbEntity
8
0
100
AcDbSpline
70
4
71
5
72
81
73
75
74
0
42
0.000000001
43
0.0000000001
44
0.0000000001
40
-1
40
-1
40
-1
40
-1
40
-1
40
-1
40
-0.9857142857142841
40
-0.97142857142856986
40
-0.95714285714285563
40
-0.94285714285714139
40
-0.92857142857142716
40
-0.91428571428571292
40
-0.89999999999999869
40
-0.88571428571428445
40
-0.87142857142857022
40
-0.85714285714285599
40
-0.84285714285714175
40
-0.82857142857142752
40
-0.81428571428571328
40
-0.79999999999999905
40
-0.78571428571428481
40
-0.77142857142857058
40
-0.75714285714285634
40
-0.74285714285714211
40
-0.72857142857142787
40
-0.71428571428571364
40
-0.6999999999999994
40
-0.68571428571428517
40
-0.67142857142857093
40
-0.6571428571428567
40
-0.64285714285714246
40
-0.62857142857142823
40
-0.61428571428571399
40
-0.59999999999999976
40
-0.58571428571428552
40
-0.57142857142857129
40
-0.55714285714285705
40
-0.54285714285714282
40
-0.52857142857142858
40
-0.51428571428571435
40
-0.50000000000000011
40
-0.48571428571428582
40
-0.47142857142857153
40
-0.45714285714285724
40
-0.44285714285714295
40
-0.42857142857142866
40
-0.41428571428571437
40
-0.40000000000000008
40
-0.38571428571428579
40
-0.3714285714285715
40
-0.35714285714285721
40
-0.34285714285714292
40
-0.32857142857142863
40
-0.31428571428571433
40
-0.30000000000000004
40
-0.28571428571428575
40
-0.27142857142857146
40
-0.25714285714285717
40
-0.24285714285714291
40
-0.22857142857142862
40
-0.21428571428571433
40
-0.20000000000000004
40
-0.18571428571428575
40
-0.17142857142857146
40
-0.15714285714285717
40
-0.14285714285714288
40
-0.12857142857142859
40
-0.1142857142857143
40
-0.10000000000000001
40
-0.085714285714285715
40
-0.071428571428571425
40
-0.057142857142857141
40
-0.042857142857142858
40
-0.028571428571428571
40
-0.014285714285714285
40
0
40
0
40
0
40
0
40
0
40
0
41
1
41
1
41
1
41
1
41
1
41
1
41
1
41
1
41
1
41
1
41
1
41
1
41
1
41
1
41
1
41
1
41
1
41
1
41
1
41
1
41
1
41
1
41
1
41
1
41
1
41
1
41
1
41
1
41
1
41
1
41
1
41
1
41
1
41
1
41
1
41
1
41
1
41
1
41
1
41
1
41
1
41
1
41
1
41
1
41
1
41
1
41
1
41
1
41
1
41
1
41
1
41
1
41
1
41
1
41
1
41
1
41
1
41
1
41
1
41
1
41
1
41
1
41
1
41
1
41
1
41
1
41
1
41
1
41
1
41
1
41
1
41
1
41
1
41
1
41
1
10
1090.07677845495
20
-607.6542578677188
30
0
10
1090.0959624800928
20
-607.60239810526423
30
0
10
1090.1341953638562
20
-607.49866533382954
30
0
10
1090.1911391899257
20
-607.34302643713636
30
0
10
1090.2662530228483
20
-607.13542840241576
30
0
10
1090.3587911604554
20
-606.87579847236816
30
0
10
1090.4499717294211
20
-606.61603678407664
30
0
10
1090.5397899274922
20
-606.35614480436982
30
0
10
1090.6282395761496
20
-606.09612513674381
30
0
10
1090.7153130948041
20
-605.83598191405304
30
0
10
1090.8010018051793
20
-605.57572047493113
30
0
10
1090.8852962959427
20
-605.31534691122783
30
0
10
1090.9681867910556
20
-605.05486764653563
30
0
10
1091.0496634900139
20
-604.79428903841938
30
0
10
1091.1297170219946
20
-604.53361688198333
30
0
10
1091.2083383681666
20
-604.27285643841537
30
0
10
1091.2855185547321
20
-604.01201269749527
30
0
10
1091.3612484175064
20
-603.75109057422014
30
0
10
1091.4355183729645
20
-603.4900951139291
30
0
10
1091.5083181329737
20
-603.22903174239286
30
0
10
1091.5796367261887
20
-602.96790629180941
30
0
10
1091.6494627523919
20
-602.70672485136197
30
0
10
1091.7177845965534
20
-602.44549366374088
30
0
10
1091.7845906302284
20
-602.18421901640545
30
0
10
1091.8498695264295
20
-601.92290710393672
30
0
10
1091.9136101718093
20
-601.6615640226762
30
0
10
1091.975801131545
20
-601.40019591751388
30
0
10
1092.0364302100229
20
-601.13880909622901
30
0
10
1092.095484050257
20
-600.87741014164146
30
0
10
1092.1529475645254
20
-600.6160060632867
30
0
10
1092.208804015303
20
-600.35460429917384
30
0
10
1092.2630360483113
20
-600.09321249346635
30
0
10
1092.315626578418
20
-599.8318383138419
30
0
10
1092.3665595967864
20
-599.5704892828611
30
0
10
1092.415821384636
20
-599.30917253123096
30
0
10
1092.4634003540555
20
-599.04789482652347
30
0
10
1092.5092844549467
20
-598.78666309060111
30
0
10
1092.5534589762492
20
-598.52548483929706
30
0
10
1092.5959045296552
20
-598.26436858819216
30
0
10
1092.6365941705096
20
-598.00332443017157
30
0
10
1092.6754935282552
20
-597.74236401996939
30
0
10
1092.7125666000431
20
-597.48149944066461
30
0
10
1092.7477807168875
20
-597.22074223594109
30
0
10
1092.7811110395473
20
-596.96010253514714
30
0
10
1092.8125472339141
20
-596.69958775302916
30
0
10
1092.8420926684457
20
-596.43920275631103
30
0
10
1092.8697503346384
20
-596.17895263405831
30
0
10
1092.8955107375662
20
-595.91884508299779
30
0
10
1092.919341066822
20
-595.65889254399167
30
0
10
1092.94116883374
20
-595.39911542272546
30
0
10
1092.960885141832
20
-595.13954146953199
30
0
10
1092.978377007252
20
-594.88019947628436
30
0
10
1092.9935553640312
20
-594.62111381772957
30
0
10
1093.0063794088569
20
-594.362299713624
30
0
10
1093.0168957706587
20
-594.10375558337728
30
0
10
1093.0252223553875
20
-593.84546625593919
30
0
10
1093.0314708458352
20
-593.58741821804392
30
0
10
1093.0356788969584
20
-593.32961295779978
30
0
10
1093.0377518626399
20
-593.07207844861603
30
0
10
1093.0373670072681
20
-592.81488797220857
30
0
10
1093.0340334202861
20
-592.55814849165768
30
0
10
1093.0272677228031
20
-592.30196641905479
30
0
10
1093.0167506268467
20
-592.04641705768768
30
0
10
1093.0024603069714
20
-591.79151874358274
30
0
10
1092.9848947417192
20
-591.53718918408958
30
0
10
1092.9648415404147
20
-591.28329220899332
30
0
10
1092.9429469570007
20
-591.02972455979921
30
0
10
1092.9193292352586
20
-590.77649398356539
30
0
10
1092.8932165134684
20
-590.52379207309423
30
0
10
1092.8624594026999
20
-590.27209305363931
30
0
10
1092.8240850470982
20
-590.02203758284645
30
0
10
1092.7848678667117
20
-589.82382569850188
30
0
10
1092.7495859955959
20
-589.67642654101678
30
0
10
1092.7233183348778
20
-589.57874953250541
30
0
10
1092.7094978891259
20
-589.53005830486052
30
0
0
LINE
5
292
100
AcDbEntity
8
0
100
AcDbLine
10
1092.7094978891259
20
-589.53005830486063
30
0
11
1092.3060314975203
21
-588.10859373899643
31
0
0
ARC
5
293
100
AcDbEntity
8
0
100
AcDbCircle
10
1098.0780264456066
20
-586.47027926391434
30
0
40
5.9999999999999378
210
0
220
0
230
1
100
AcDbArc
50
109.60365839939007
51
195.84598422821983
0
ARC
5
294
100
AcDbEntity
8
0
100
AcDbCircle
10
1067.2950945004955
20
-500.03922696497176
30
0
40
85.749199999999547
210
-0
220
0
230
1
100
AcDbArc
50
289.60365839938987
51
290.39634160060984
0
ARC
5
295
100
AcDbEntity
8
0
100
AcDbCircle
10
1099.2708100509626
20
-586.03614153564411
30
0
40
5.9999999999999698
210
0
220
-0
230
1
100
AcDbArc
50
24.154015771782294
51
110.39634160061044
0
LINE
5
296
100
AcDbEntity
8
0
100
AcDbLine
10
1104.7455029520079
20
-583.58099639955867
30
0
11
1105.350129575279
21
-584.92924462877863
31
0
0
SPLINE
5
297
100
AcDbEntity
8
0
100
AcDbSpline
70
4
71
5
72
81
73
75
74
0
42
0.000000001
43
0.0000000001
44
0.0000000001
40
0
40
0
40
0
40
0
40
0
40
0
40
0.014285714285714285
40
0.028571428571428571
40
0.042857142857142858
40
0.057142857142857141
40
0.071428571428571425
40
0.085714285714285715
40
0.10000000000000001
40
0.1142857142857143
40
0.12857142857142859
40
0.14285714285714288
40
0.15714285714285717
40
0.17142857142857146
40
0.18571428571428575
40
0.20000000000000004
40
0.21428571428571433
40
0.22857142857142862
40
0.24285714285714291
40
0.25714285714285717
40
0.27142857142857146
40
0.28571428571428575
40
0.30000000000000004
40
0.31428571428571433
40
0.32857142857142863
40
0.34285714285714292
40
0.35714285714285721
40
0.3714285714285715
40
0.38571428571428579
40
0.40000000000000008
40
0.41428571428571437
40
0.42857142857142866
40
0.44285714285714295
40
0.45714285714285724
40
0.47142857142857153
40
0.48571428571428582
40
0.50000000000000011
40
0.51428571428571435
40
0.52857142857142858
40
0.54285714285714282
40
0.55714285714285705
40
0.57142857142857129
40
0.58571428571428552
40
0.59999999999999976
40
0.61428571428571399
40
0.62857142857142823
40
0.64285714285714246
40
0.6571428571428567
40
0.67142857142857093
40
0.68571428571428517
40
0.6999999999999994
40
0.71428571428571364
40
0.72857142857142787
40
0.74285714285714211
40
0.75714285714285634
40
0.77142857142857058
40
0.78571428571428481
40
0.79999999999999905
40
0.81428571428571328
40
0.82857142857142752
40
0.84285714285714175
40
0.85714285714285599
40
0.87142857142857022
40
0.88571428571428445
40
0.89999999999999869
40
0.91428571428571292
40
0.92857142857142716
40
0.94285714285714139
40
0.95714285714285563
40
0.97142857142856986
40
0.9857142857142841
40
1
40
1
40
1
40
1
40
1
40
1
41
1
41
1
41
1
41
1
41
1
41
1
41
1
41
1
41
1
41
1
41
1
41
1
41
1
41
1
41
1
41
1
41
1
41
1
41
1
41
1
41
1
41
1
41
1
41
1
41
1
41
1
41
1
41
1
41
1
41
1
41
1
41
1
41
1
41
1
41
1
41
1
41
1
41
1
41
1
41
1
41
1
41
1
41
1
41
1
41
1
41
1
41
1
41
1
41
1
41
1
41
1
41
1
41
1
41
1
41
1
41
1
41
1
41
1
41
1
41
1
41
1
41
1
41
1
41
1
41
1
41
1
41
1
41
1
41
1
41
1
41
1
41
1
41
1
41
1
41
1
10
1105.350129575279
20
-584.92924462877863
30
0
10
1105.3708406174401
20
-584.97542788443434
30
0
10
1105.4135039927355
20
-585.06713734086986
30
0
10
1105.481222863534
20
-585.20273039598158
30
0
10
1105.5785889037736
20
-585.37977782618316
30
0
10
1105.7099250002664
20
-585.59599799036607
30
0
10
1105.8481526975518
20
-585.80858091526966
30
0
10
1105.9905828491246
20
-586.01894674357357
30
0
10
1106.1352641014219
20
-586.2281137982302
30
0
10
1106.2814820205826
20
-586.4364314537878
30
0
10
1106.429322206885
20
-586.64381777001825
30
0
10
1106.5793460928528
20
-586.84993644349015
30
0
10
1106.7322445507584
20
-587.0543855211248
30
0
10
1106.8884519509934
20
-587.25690794831348
30
0
10
1107.0479397881256
20
-587.45750370797055
30
0
10
1107.2104150693579
20
-587.65632034878365
30
0
10
1107.3754391046029
20
-587.85358706432316
30
0
10
1107.5425670800141
20
-588.04953746733941
30
0
10
1107.7115046611905
20
-588.24432287123318
30
0
10
1107.8821613640387
20
-588.43798268448177
30
0
10
1108.054565077392
20
-588.6304915629878
30
0
10
1108.2288100413919
20
-588.8217880701992
30
0
10
1108.4049963290001
20
-589.01180803933005
30
0
10
1108.583160676033
20
-589.20052270868484
30
0
10
1108.7632620422685
20
-589.38794664711725
30
0
10
1108.9452165314315
20
-589.57411843298917
30
0
10
1109.1289190858147
20
-589.75908863506254
30
0
10
1109.3142684482984
20
-589.94290599266253
30
0
10
1109.5011959728213
20
-590.12560146894316
30
0
10
1109.6896685283214
20
-590.30718662377456
30
0
10
1109.8796738939025
20
-590.48766166434234
30
0
10
1110.0712110899958
20
-590.66702076929937
30
0
10
1110.2642795687193
20
-590.8452580453162
30
0
10
1110.45886664758
20
-591.0223744550043
30
0
10
1110.6549467875957
20
-591.19837820518887
30
0
10
1110.8524875427343
20
-591.37328145211484
30
0
10
1111.0514535663601
20
-591.54709808179132
30
0
10
1111.25181103758
20
-591.71984125914253
30
0
10
1111.4535328280087
20
-591.89152057226079
30
0
10
1111.656598611632
20
-592.06214196039559
30
0
10
1111.8609922880385
20
-592.23170912217324
30
0
10
1112.06670017703
20
-592.40022450079277
30
0
10
1112.2737090516405
20
-592.56769036055891
30
0
10
1112.4820038191442
20
-592.73411005729554
30
0
10
1112.6915673806513
20
-592.89948811866896
30
0
10
1112.9023817195039
20
-593.06382965300804
30
0
10
1113.1144286279794
20
-593.22713995965967
30
0
10
1113.3276905033292
20
-593.38942409945173
30
0
10
1113.542151282046
20
-593.55068640096908
30
0
10
1113.7577965007295
20
-593.71093040718461
30
0
10
1113.9746127624351
20
-593.87015912524828
30
0
10
1114.1925873577211
20
-594.0283751980636
30
0
10
1114.4117078546171
20
-594.18558109908429
30
0
10
1114.6319615943473
20
-594.34177936383276
30
0
10
1114.8533356275052
20
-594.4969726504562
30
0
10
1115.0758170437373
20
-594.65116364277378
30
0
10
1115.2993931959193
20
-594.80435500411897
30
0
10
1115.5240519306481
20
-594.95654931901367
30
0
10
1115.7497818791387
20
-595.10774904416098
30
0
10
1115.976572456904
20
-595.25795647477753
30
0
10
1116.2044134844714
20
-595.40717373638154
30
0
10
1116.4332948801446
20
-595.55540277482669
30
0
10
1116.6632063532716
20
-595.7026453570013
30
0
10
1116.8941370003649
20
-595.84890306704699
30
0
10
1117.1260752272381
20
-595.99417733442942
30
0
10
1117.3590094160058
20
-596.13846952230767
30
0
10
1117.5929284414033
20
-596.28178101354217
30
0
10
1117.827822223878
20
-596.42411329679055
30
0
10
1118.0636822998138
20
-596.56546807881159
30
0
10
1118.3005022626955
20
-596.70584733668738
30
0
10
1118.5382774909244
20
-596.84525303359032
30
0
10
1118.7292594697496
20
-596.95600011337172
30
0
10
1118.8729237256598
20
-597.03862363947121
30
0
10
1118.9688899540081
20
-597.09351192863221
30
0
10
1119.0169205826123
20
-597.12090755781651
30
0
0
ARC
5
298
100
AcDbEntity
8
0
100
AcDbCircle
10
1067.2950945004955
20
-500.03922696497176
30
0
40
109.99999999999936
210
-0
220
0
230
1
100
AcDbArc
50
298.04717710624254
51
301.95282289375746
0
SPLINE
5
299
100
AcDbEntity
8
0
100
AcDbSpline
70
4
71
5
72
81
73
75
74
0
42
0.000000001
43
0.0000000001
44
0.0000000001
40
-1
40
-1
40
-1
40
-1
40
-1
40
-1
40
-0.9857142857142841
40
-0.97142857142856986
40
-0.95714285714285563
40
-0.94285714285714139
40
-0.92857142857142716
40
-0.91428571428571292
40
-0.89999999999999869
40
-0.88571428571428445
40
-0.87142857142857022
40
-0.85714285714285599
40
-0.84285714285714175
40
-0.82857142857142752
40
-0.81428571428571328
40
-0.79999999999999905
40
-0.78571428571428481
40
-0.77142857142857058
40
-0.75714285714285634
40
-0.74285714285714211
40
-0.72857142857142787
40
-0.71428571428571364
40
-0.6999999999999994
40
-0.68571428571428517
40
-0.67142857142857093
40
-0.6571428571428567
40
-0.64285714285714246
40
-0.62857142857142823
40
-0.61428571428571399
40
-0.59999999999999976
40
-0.58571428571428552
40
-0.57142857142857129
40
-0.55714285714285705
40
-0.54285714285714282
40
-0.52857142857142858
40
-0.51428571428571435
40
-0.50000000000000011
40
-0.48571428571428582
40
-0.47142857142857153
40
-0.45714285714285724
40
-0.44285714285714295
40
-0.42857142857142866
40
-0.41428571428571437
40
-0.40000000000000008
40
-0.38571428571428579
40
-0.3714285714285715
40
-0.35714285714285721
40
-0.34285714285714292
40
-0.32857142857142863
40
-0.31428571428571433
40
-0.30000000000000004
40
-0.28571428571428575
40
-0.27142857142857146
40
-0.25714285714285717
40
-0.24285714285714291
40
-0.22857142857142862
40
-0.21428571428571433
40
-0.20000000000000004
40
-0.18571428571428575
40
-0.17142857142857146
40
-0.15714285714285717
40
-0.14285714285714288
40
-0.12857142857142859
40
-0.1142857142857143
40
-0.10000000000000001
40
-0.085714285714285715
40
-0.071428571428571425
40
-0.057142857142857141
40
-0.042857142857142858
40
-0.028571428571428571
40
-0.014285714285714285
40
0
40
0
40
0
40
0
40
0
40
0
41
1
41
1
41
1
41
1
41
1
41
1
41
1
41
1
41
1
41
1
41
1
41
1
41
1
41
1
41
1
41
1
41
1
41
1
41
1
41
1
41
1
41
1
41
1
41
1
41
1
41
1
41
1
41
1
41
1
41
1
41
1
41
1
41
1
41
1
41
1
41
1
41
1
41
1
41
1
41
1
41
1
41
1
41
1
41
1
41
1
41
1
41
1
41
1
41
1
41
1
41
1
41
1
41
1
41
1
41
1
41
1
41
1
41
1
41
1
41
1
41
1
41
1
41
1
41
1
41
1
41
1
41
1
41
1
41
1
41
1
41
1
41
1
41
1
41
1
41
1
10
1125.509383094927
20
-593.37248257862802
30
0
10
1125.5096730984028
20
-593.31718901950489
30
0
10
1125.5101215597933
20
-593.20663568326938
30
0
10
1125.5103996151959
20
-593.04090702498581
30
0
10
1125.509980820123
20
-592.82013823976729
30
0
10
1125.5081395592874
20
-592.54451600327889
30
0
10
1125.5049775372433
20
-592.26923427036229
30
0
10
1125.5004907430346
20
-591.99429606185276
30
0
10
1125.4946742612001
20
-591.71970593741457
30
0
10
1125.4875223818356
20
-591.44547037337452
30
0
10
1125.4790287759492
20
-591.17159735455266
30
0
10
1125.4691866833164
20
-590.89809582428052
30
0
10
1125.457989114464
20
-590.6249751623626
30
0
10
1125.4454290343456
20
-590.35224469492573
30
0
10
1125.4314996193102
20
-590.07991307259658
30
0
10
1125.4161941938617
20
-589.80798832389678
30
0
10
1125.399506031993
20
-589.5364782069048
30
0
10
1125.3814282032158
20
-589.26539047454332
30
0
10
1125.3619534275697
20
-588.99473314563875
30
0
10
1125.3410738930957
20
-588.72451483749614
30
0
10
1125.3187812848298
20
-588.45474478301048
30
0
10
1125.2950669726961
20
-588.18543260324577
30
0
10
1125.2699221772618
20
-587.91658813698666
30
0
10
1125.2433381218011
20
-587.64822126967465
30
0
10
1125.2153062810989
20
-587.38034169636956
30
0
10
1125.1858182970968
20
-587.11295894674697
30
0
10
1125.1548655262516
20
-586.84608270605486
30
0
10
1125.1224386658232
20
-586.57972307281193
30
0
10
1125.088527415807
20
-586.31389080120425
30
0
10
1125.0531199957845
20
-586.04859763834475
30
0
10
1125.0162032215762
20
-585.78385629824675
30
0
10
1124.9777633999518
20
-585.51967989958735
30
0
10
1124.9377870986395
20
-585.25608149108552
30
0
10
1124.8962618471207
20
-584.99307361698095
30
0
10
1124.8531771928037
20
-584.7306676700457
30
0
10
1124.8085245612599
20
-584.468873973016
30
0
10
1124.7622949965175
20
-584.20770315169148
30
0
10
1124.7144772452675
20
-583.94716730012408
30
0
10
1124.6650560009609
20
-583.687281051534
30
0
10
1124.6140093958738
20
-583.42806310574599
30
0
10
1124.5613091184007
20
-583.16953617005015
30
0
10
1124.5069254695875
20
-582.91172391252667
30
0
10
1124.4508316988008
20
-582.65464835414116
30
0
10
1124.3930079292309
20
-582.39832750888786
30
0
10
1124.3334469859844
20
-582.14277187882305
30
0
10
1124.2721536988943
20
-581.88798488509053
30
0
10
1124.2091326196103
20
-581.63397028669567
30
0
10
1124.144377458256
20
-581.38073856365202
30
0
10
1124.0778616381599
20
-581.12831262836585
30
0
10
1124.0095240214127
20
-580.87673644849326
30
0
10
1123.9392717699614
20
-580.62607334560948
30
0
10
1123.8670085611193
20
-580.37638901797686
30
0
10
1123.7926590369077
20
-580.12773683272042
30
0
10
1123.7161900602182
20
-579.8801450472879
30
0
10
1123.637644907318
20
-579.63359622837663
30
0
10
1123.5571291847541
20
-579.38803579365299
30
0
10
1123.474743218213
20
-579.14341284703607
30
0
10
1123.3905229007426
20
-578.89971590813661
30
0
10
1123.3043888615543
20
-578.65700363423935
30
0
10
1123.2160628921986
20
-578.4154552697122
30
0
10
1123.1251202711755
20
-578.17533922827147
30
0
10
1123.031143165987
20
-577.93692082989185
30
0
10
1122.9338572993229
20
-577.700380039435
30
0
10
1122.8332484332641
20
-577.46574155187182
30
0
10
1122.7297563688267
20
-577.2327577187134
30
0
10
1122.6240746437252
20
-577.00103120355993
30
0
10
1122.5167752215359
20
-576.77024394329942
30
0
10
1122.4079718647172
20
-576.54036277603041
30
0
10
1122.2970047891042
20
-576.31183173235161
30
0
10
1122.1820164243697
20
-576.08583157254407
30
0
10
1122.0604323176231
20
-575.86398109445588
30
0
10
1121.9557877655138
20
-575.69113591504174
30
0
10
1121.8722201706096
20
-575.56469312505874
30
0
10
1121.8141291392167
20
-575.48189083002376
30
0
10
1121.7844887876699
20
-575.44086291354574
30
0
0
LINE
5
300
100
AcDbEntity
8
0
100
AcDbLine
10
1121.7844887876702
20
-575.44086291354574
30
0
11
1120.9191848821936
21
-574.24311678337858
31
0
0
ARC
5
301
100
AcDbEntity
8
0
100
AcDbCircle
10
1125.782749390544
20
-570.72946622119775
30
0
40
5.9999999999999751
210
0
220
0
230
1
100
AcDbArc
50
129.60365839939081
51
215.84598422821759
0
ARC
5
302
100
AcDbEntity
8
0
100
AcDbCircle
10
1067.2950945004955
20
-500.03922696497176
30
0
40
85.749199999999462
210
-0
220
0
230
1
100
AcDbArc
50
309.60365839938993
51
310.39634160060984
0
ARC
5
303
100
AcDbEntity
8
0
100
AcDbCircle
10
1126.7551154946452
20
-569.91355418187709
30
0
40
5.999999999999984
210
0
220
-0
230
1
100
AcDbArc
50
44.154015771780195
51
130.39634160061004
0
LINE
5
304
100
AcDbEntity
8
0
100
AcDbLine
10
1131.0599349234974
20
-565.73401716385979
30
0
11
1132.0892261523122
21
-566.79416159149571
31
0
0
SPLINE
5
305
100
AcDbEntity
8
0
100
AcDbSpline
70
4
71
5
72
81
73
75
74
0
42
0.000000001
43
0.0000000001
44
0.0000000001
40
0
40
0
40
0
40
0
40
0
40
0
40
0.014285714285714285
40
0.028571428571428571
40
0.042857142857142858
40
0.057142857142857141
40
0.071428571428571425
40
0.085714285714285715
40
0.10000000000000001
40
0.1142857142857143
40
0.12857142857142859
40
0.14285714285714288
40
0.15714285714285717
40
0.17142857142857146
40
0.18571428571428575
40
0.20000000000000004
40
0.21428571428571433
40
0.22857142857142862
40
0.24285714285714291
40
0.25714285714285717
40
0.27142857142857146
40
0.28571428571428575
40
0.30000000000000004
40
0.31428571428571433
40
0.32857142857142863
40
0.34285714285714292
40
0.35714285714285721
40
0.3714285714285715
40
0.38571428571428579
40
0.40000000000000008
40
0.41428571428571437
40
0.42857142857142866
40
0.44285714285714295
40
0.45714285714285724
40
0.47142857142857153
40
0.48571428571428582
40
0.50000000000000011
40
0.51428571428571435
40
0.52857142857142858
40
0.54285714285714282
40
0.55714285714285705
40
0.57142857142857129
40
0.58571428571428552
40
0.59999999999999976
40
0.61428571428571399
40
0.62857142857142823
40
0.64285714285714246
40
0.6571428571428567
40
0.67142857142857093
40
0.68571428571428517
40
0.6999999999999994
40
0.71428571428571364
40
0.72857142857142787
40
0.74285714285714211
40
0.75714285714285634
40
0.77142857142857058
40
0.78571428571428481
40
0.79999999999999905
40
0.81428571428571328
40
0.82857142857142752
40
0.84285714285714175
40
0.85714285714285599
40
0.87142857142857022
40
0.88571428571428445
40
0.89999999999999869
40
0.91428571428571292
40
0.92857142857142716
40
0.94285714285714139
40
0.95714285714285563
40
0.97142857142856986
40
0.9857142857142841
40
1
40
1
40
1
40
1
40
1
40
1
41
1
41
1
41
1
41
1
41
1
41
1
41
1
41
1
41
1
41
1
41
1
41
1
41
1
41
1
41
1
41
1
41
1
41
1
41
1
41
1
41
1
41
1
41
1
41
1
41
1
41
1
41
1
41
1
41
1
41
1
41
1
41
1
41
1
41
1
41
1
41
1
41
1
41
1
41
1
41
1
41
1
41
1
41
1
41
1
41
1
41
1
41
1
41
1
41
1
41
1
41
1
41
1
41
1
41
1
41
1
41
1
41
1
41
1
41
1
41
1
41
1
41
1
41
1
41
1
41
1
41
1
41
1
41
1
41
1
41
1
41
1
41
1
41
1
41
1
41
1
10
1132.0892261523122
20
-566.79416159149571
30
0
10
1132.1244837695183
20
-566.83047606243088
30
0
10
1132.1959407098957
20
-566.90206302816625
30
0
10
1132.3059511892163
20
-567.00631760358829
30
0
10
1132.4579991261976
20
-567.13938662023997
30
0
10
1132.6553663384584
20
-567.29764752244148
30
0
10
1132.85796552803
20
-567.45013347144129
30
0
10
1133.0637554411876
20
-567.59909870710919
30
0
10
1133.2712506923499
20
-567.74616754223428
30
0
10
1133.4798994264229
20
-567.89191263227303
30
0
10
1133.6897540561481
20
-568.03622770157824
30
0
10
1133.9012271329764
20
-568.17860470706501
30
0
10
1134.1148303884356
20
-568.31842964415762
30
0
10
1134.330884079322
20
-568.45531239711374
30
0
10
1134.5493614134487
20
-568.58926269930964
30
0
10
1134.7700375322693
20
-568.72051941059726
30
0
10
1134.9925785907637
20
-568.84944794332966
30
0
10
1135.2166465009088
20
-568.97641995698018
30
0
10
1135.4420164310709
20
-569.10167830792909
30
0
10
1135.6686168325089
20
-569.22529097541383
30
0
10
1135.8964652439611
20
-569.34722460523085
30
0
10
1136.1256292096552
20
-569.46738923387841
30
0
10
1136.3561808210811
20
-569.58569033733295
30
0
10
1136.5881447615354
20
-569.70208832405183
30
0
10
1136.8214874486657
20
-569.81661092086244
30
0
10
1137.0561432403381
20
-569.92932307378248
30
0
10
1137.2920307101358
20
-570.04030823375672
30
0
10
1137.5290713773213
20
-570.14964683274377
30
0
10
1137.7672113257197
20
-570.25739144492672
30
0
10
1138.0064233760249
20
-570.36356426452107
30
0
10
1138.2466961152127
20
-570.46816966600989
30
0
10
1138.4880266317718
20
-570.57120251414881
30
0
10
1138.730412395224
20
-570.67265745840609
30
0
10
1138.9738418171564
20
-570.77253974100881
30
0
10
1139.2182937056762
20
-570.87086580869641
30
0
10
1139.463741729166
20
-570.96765818179915
30
0
10
1139.7101574219485
20
-571.06294199815852
30
0
10
1139.9575135054492
20
-571.1567411961837
30
0
10
1140.2057877666457
20
-571.24907406418788
30
0
10
1140.4549631366749
20
-571.3399531351472
30
0
10
1140.7050257511039
20
-571.42938739129795
30
0
10
1140.9559635903747
20
-571.51738380739948
30
0
10
1141.2077649996427
20
-571.60394903509132
30
0
10
1141.4604169441443
20
-571.68909138983258
30
0
10
1141.7139049047321
20
-571.77282097440252
30
0
10
1141.9682136984368
20
-571.85514875112017
30
0
10
1142.2233280280789
20
-571.93608592715032
30
0
10
1142.4792330833916
20
-572.01564327861047
30
0
10
1142.7359152500778
20
-572.093830367083
30
0
10
1142.9933621487551
20
-572.17065546864728
30
0
10
1143.2515622189201
20
-572.24612599112493
30
0
10
1143.51050442153
20
-572.32024876491823
30
0
10
1143.7701779203246
20
-572.39303036629735
30
0
10
1144.0305716871462
20
-572.4644775074305
30
0
10
1144.2916744626723
20
-572.53459711511687
30
0
10
1144.5534750330596
20
-572.60339612692235
30
0
10
1144.8159624248121
20
-572.67088137113296
30
0
10
1145.0791261014256
20
-572.73705943311393
30
0
10
1145.3429562199785
20
-572.801936509764
30
0
10
1145.6074436193162
20
-572.86551837798936
30
0
10
1145.8725794608342
20
-572.9278105167084
30
0
10
1146.1383549363572
20
-572.98881820256884
30
0
10
1146.404760980148
20
-573.04854661551258
30
0
10
1146.6717878880872
20
-573.10700097335848
30
0
10
1146.9394252541097
20
-573.16418658480995
30
0
10
1147.2076626272024
20
-573.22010870436839
30
0
10
1147.476490026002
20
-573.27477243656222
30
0
10
1147.7458984879784
20
-573.32818262768217
30
0
10
1148.0158806436798
20
-573.38034377628378
30
0
10
1148.2864311491533
20
-573.4312599313738
30
0
10
1148.5575463329608
20
-573.48093451841089
30
0
10
1148.7748884212658
20
-573.51968304828449
30
0
10
1148.9381475726539
20
-573.54818769666645
30
0
10
1149.0470992298031
20
-573.56694343378456
30
0
10
1149.1016031140944
20
-573.57625946189148
30
0
0
ARC
5
306
100
AcDbEntity
8
0
100
AcDbCircle
10
1067.2950945004955
20
-500.03922696497176
30
0
40
109.99999999999936
210
-0
220
0
230
1
100
AcDbArc
50
318.04717710624237
51
321.9528228937574
0
SPLINE
5
307
100
AcDbEntity
8
0
100
AcDbSpline
70
4
71
5
72
81
73
75
74
0
42
0.000000001
43
0.0000000001
44
0.0000000001
40
-1
40
-1
40
-1
40
-1
40
-1
40
-1
40
-0.9857142857142841
40
-0.97142857142856986
40
-0.95714285714285563
40
-0.94285714285714139
40
-0.92857142857142716
40
-0.91428571428571292
40
-0.89999999999999869
40
-0.88571428571428445
40
-0.87142857142857022
40
-0.85714285714285599
40
-0.84285714285714175
40
-0.82857142857142752
40
-0.81428571428571328
40
-0.79999999999999905
40
-0.78571428571428481
40
-0.77142857142857058
40
-0.75714285714285634
40
-0.74285714285714211
40
-0.72857142857142787
40
-0.71428571428571364
40
-0.6999999999999994
40
-0.68571428571428517
40
-0.67142857142857093
40
-0.6571428571428567
40
-0.64285714285714246
40
-0.62857142857142823
40
-0.61428571428571399
40
-0.59999999999999976
40
-0.58571428571428552
40
-0.57142857142857129
40
-0.55714285714285705
40
-0.54285714285714282
40
-0.52857142857142858
40
-0.51428571428571435
40
-0.50000000000000011
40
-0.48571428571428582
40
-0.47142857142857153
40
-0.45714285714285724
40
-0.44285714285714295
40
-0.42857142857142866
40
-0.41428571428571437
40
-0.40000000000000008
40
-0.38571428571428579
40
-0.3714285714285715
40
-0.35714285714285721
40
-0.34285714285714292
40
-0.32857142857142863
40
-0.31428571428571433
40
-0.30000000000000004
40
-0.28571428571428575
40
-0.27142857142857146
40
-0.25714285714285717
40
-0.24285714285714291
40
-0.22857142857142862
40
-0.21428571428571433
40
-0.20000000000000004
40
-0.18571428571428575
40
-0.17142857142857146
40
-0.15714285714285717
40
-0.14285714285714288
40
-0.12857142857142859
40
-0.1142857142857143
40
-0.10000000000000001
40
-0.085714285714285715
40
-0.071428571428571425
40
-0.057142857142857141
40
-0.042857142857142858
40
-0.028571428571428571
40
-0.014285714285714285
40
0
40
0
40
0
40
0
40
0
40
0
41
1
41
1
41
1
41
1
41
1
41
1
41
1
41
1
41
1
41
1
41
1
41
1
41
1
41
1
41
1
41
1
41
1
41
1
41
1
41
1
41
1
41
1
41
1
41
1
41
1
41
1
41
1
41
1
41
1
41
1
41
1
41
1
41
1
41
1
41
1
41
1
41
1
41
1
41
1
41
1
41
1
41
1
41
1
41
1
41
1
41
1
41
1
41
1
41
1
41
1
41
1
41
1
41
1
41
1
41
1
41
1
41
1
41
1
41
1
41
1
41
1
41
1
41
1
41
1
41
1
41
1
41
1
41
1
41
1
41
1
41
1
41
1
41
1
41
1
41
1
10
1153.9204853790179
20
-567.83333921038025
30
0
10
1153.901846382128
20
-567.78128107386476
30
0
10
1153.8644563300829
20
-567.67724153677204
30
0
10
1153.8080350772336
20
-567.52141243898143
30
0
10
1153.7321341670317
20
-567.31410087696258
30
0
10
1153.6361355909839
20
-567.0557304435049
30
0
10
1153.5390123644554
20
-566.79813170567866
30
0
10
1153.4407617515662
20
-566.54130887396855
30
0
10
1153.3413806927913
20
-566.28526791424395
30
0
10
1153.2408660376097
20
-566.03001686516382
30
0
10
1153.1392145696841
20
-565.77556539464706
30
0
10
1153.0364229952804
20
-565.52192421880966
30
0
10
1152.9324879545247
20
-565.26910454232495
30
0
10
1152.8274060263589
20
-565.01711753501331
30
0
10
1152.7211737573371
20
-564.76597365963084
30
0
10
1152.6137876204612
20
-564.51568274367412
30
0
10
1152.5052439487708
20
-564.26625437778216
30
0
10
1152.3955388813927
20
-564.01769821768596
30
0
10
1152.2846683200028
20
-563.7700242885104
30
0
10
1152.1726278710516
20
-563.52324335972094
30
0
10
1152.0594128788662
20
-563.2773669512859
30
0
10
1151.9450185244245
20
-563.03240705570818
30
0
10
1151.8294399228216
20
-562.78837592116361
30
0
10
1151.7126722076525
20
-562.54528583874594
30
0
10
1151.5947106837421
20
-562.30314883462643
30
0
10
1151.4755507564246
20
-562.06197672239557
30
0
10
1151.3551876159768
20
-561.82178155947486
30
0
10
1151.2336159745789
20
-561.58257601709261
30
0
10
1151.1108298315412
20
-561.34437372368689
30
0
10
1150.9868221346405
20
-561.10718974707379
30
0
10
1150.8615848432491
20
-560.87104054377266
30
0
10
1150.7351095767917
20
-560.63594312466785
30
0
10
1150.6073881759862
20
-560.40191434565236
30
0
10
1150.4784132127606
20
-560.16897025962385
30
0
10
1150.3481787614494
20
-559.93712514728304
30
0
10
1150.2166802953091
20
-559.70639164145643
30
0
10
1150.0839130327167
20
-559.47678279025217
30
0
10
1149.9498705354299
20
-559.24831380722014
30
0
10
1149.8145434248538
20
-559.02100367823755
30
0
10
1149.6779175477661
20
-558.79487745459346
30
0
10
1149.5399740663111
20
-558.56996615730031
30
0
10
1149.4006931675606
20
-558.34630218471898
30
0
10
1149.2600572457557
20
-558.12391537904386
30
0
10
1149.1180537839541
20
-557.90282946616185
30
0
10
1148.9746796318759
20
-557.68305676873513
30
0
10
1148.8299404981799
20
-557.46459884968795
30
0
10
1148.6838419456726
20
-557.24745768457387
30
0
10
1148.5363816481804
20
-557.03164527264812
30
0
10
1148.3875424683047
20
-556.8171922342874
30
0
10
1148.2372819930281
20
-556.60416079597007
30
0
10
1148.0855346403707
20
-556.39264221299732
30
0
10
1147.9322323667445
20
-556.18273116584044
30
0
10
1147.7773226114443
20
-555.97450357713956
30
0
10
1147.6207839003903
20
-555.76799733376879
30
0
10
1147.4626509374307
20
-555.56318125242694
30
0
10
1147.3030042920009
20
-555.35996792293122
30
0
10
1147.141920831923
20
-555.15827520520486
30
0
10
1146.9794303591054
20
-554.95808003506511
30
0
10
1146.8154783513764
20
-554.75946467873814
30
0
10
1146.6498646834934
20
-554.56269272372754
30
0
10
1146.4822820506949
20
-554.36816165973005
30
0
10
1146.3124285636413
20
-554.17626371309882
30
0
10
1146.1401080375758
20
-553.98726180385177
30
0
10
1145.9653155394085
20
-553.80118400732556
30
0
10
1145.7883796461376
20
-553.6176471892561
30
0
10
1145.6098161729826
20
-553.43604077169209
30
0
10
1145.4300538059047
20
-553.25587025000993
30
0
10
1145.249188104608
20
-553.07706555316304
30
0
10
1145.066750942191
20
-552.9002695929031
30
0
10
1144.8814006173247
20
-552.72722724742277
30
0
10
1144.6912715970975
20
-552.56034020386107
30
0
10
1144.5338213506384
20
-552.43370940893794
30
0
10
1144.4120475172176
20
-552.3434738530259
30
0
10
1144.3291397508685
20
-552.28553345028024
30
0
10
1144.2872545573682
20
-552.25711741720386
30
0
0
LINE
5
308
100
AcDbEntity
8
0
100
AcDbLine
10
1144.2872545573682
20
-552.25711741720386
30
0
11
1143.0644815595474
21
-551.42755558288218
31
0
0
ARC
5
309
100
AcDbEntity
8
0
100
AcDbCircle
10
1146.4329979698871
20
-546.462367047361
30
0
40
5.999999999999968
210
0
220
0
230
1
100
AcDbArc
50
149.6036583993907
51
235.84598422821796
0
ARC
5
310
100
AcDbEntity
8
0
100
AcDbCircle
10
1067.2950945004955
20
-500.03922696497176
30
0
40
85.749199999999519
210
-0
220
0
230
1
100
AcDbArc
50
329.60365839938981
51
330.39634160060996
0
ARC
5
311
100
AcDbEntity
8
0
100
AcDbCircle
10
1147.0676648699839
20
-545.3630917305112
30
0
40
5.9999999999999742
210
0
220
-0
230
1
100
AcDbArc
50
64.154015771781644
51
150.39634160060959
0
LINE
5
312
100
AcDbEntity
8
0
100
AcDbLine
10
1149.6833860711547
20
-539.96327667833168
30
0
11
1151.0131941925977
21
-540.60744824034532
31
0
0
SPLINE
5
313
100
AcDbEntity
8
0
100
AcDbSpline
70
4
71
5
72
81
73
75
74
0
42
0.000000001
43
0.0000000001
44
0.0000000001
40
0
40
0
40
0
40
0
40
0
40
0
40
0.014285714285714285
40
0.028571428571428571
40
0.042857142857142858
40
0.057142857142857141
40
0.071428571428571425
40
0.085714285714285715
40
0.10000000000000001
40
0.1142857142857143
40
0.12857142857142859
40
0.14285714285714288
40
0.15714285714285717
40
0.17142857142857146
40
0.18571428571428575
40
0.20000000000000004
40
0.21428571428571433
40
0.22857142857142862
40
0.24285714285714291
40
0.25714285714285717
40
0.27142857142857146
40
0.28571428571428575
40
0.30000000000000004
40
0.31428571428571433
40
0.32857142857142863
40
0.34285714285714292
40
0.35714285714285721
40
0.3714285714285715
40
0.38571428571428579
40
0.40000000000000008
40
0.41428571428571437
40
0.42857142857142866
40
0.44285714285714295
40
0.45714285714285724
40
0.47142857142857153
40
0.48571428571428582
40
0.50000000000000011
40
0.51428571428571435
40
0.52857142857142858
40
0.54285714285714282
40
0.55714285714285705
40
0.57142857142857129
40
0.58571428571428552
40
0.59999999999999976
40
0.61428571428571399
40
0.62857142857142823
40
0.64285714285714246
40
0.6571428571428567
40
0.67142857142857093
40
0.68571428571428517
40
0.6999999999999994
40
0.71428571428571364
40
0.72857142857142787
40
0.74285714285714211
40
0.75714285714285634
40
0.77142857142857058
40
0.78571428571428481
40
0.79999999999999905
40
0.81428571428571328
40
0.82857142857142752
40
0.84285714285714175
40
0.85714285714285599
40
0.87142857142857022
40
0.88571428571428445
40
0.89999999999999869
40
0.91428571428571292
40
0.92857142857142716
40
0.94285714285714139
40
0.95714285714285563
40
0.97142857142856986
40
0.9857142857142841
40
1
40
1
40
1
40
1
40
1
40
1
41
1
41
1
41
1
41
1
41
1
41
1
41
1
41
1
41
1
41
1
41
1
41
1
41
1
41
1
41
1
41
1
41
1
41
1
41
1
41
1
41
1
41
1
41
1
41
1
41
1
41
1
41
1
41
1
41
1
41
1
41
1
41
1
41
1
41
1
41
1
41
1
41
1
41
1
41
1
41
1
41
1
41
1
41
1
41
1
41
1
41
1
41
1
41
1
41
1
41
1
41
1
41
1
41
1
41
1
41
1
41
1
41
1
41
1
41
1
41
1
41
1
41
1
41
1
41
1
41
1
41
1
41
1
41
1
41
1
41
1
41
1
41
1
41
1
41
1
41
1
10
1151.0131941925977
20
-540.60744824034532
30
0
10
1151.0587457958668
20
-540.62951386542079
30
0
10
1151.1503775397246
20
-540.67234389587725
30
0
10
1151.2894107401794
20
-540.73268535117995
30
0
10
1151.4778013487137
20
-540.80572586698406
30
0
10
1151.7173942781142
20
-540.88693890671652
30
0
10
1151.9599285076638
20
-540.96093582391029
30
0
10
1152.204256881744
20
-541.03053306102788
30
0
10
1152.4495391421774
20
-541.09776500460055
30
0
10
1152.6954525745064
20
-541.1633585202934
30
0
10
1152.9420100821847
20
-541.22719581545152
30
0
10
1153.1894255757979
20
-541.28865838483068
30
0
10
1153.4379699237536
20
-541.34699423037159
30
0
10
1153.6878106415581
20
-541.40172722891418
30
0
10
1153.9389258818014
20
-541.45287569030836
30
0
10
1154.191186041448
20
-541.50074097554625
30
0
10
1154.4444023871808
20
-541.54578064164161
30
0
10
1154.6983843352061
20
-541.58845956717278
30
0
10
1154.953003674671
20
-541.62908285943593
30
0
10
1155.2082164220192
20
-541.66773886912961
30
0
10
1155.4640276504649
20
-541.70439025495295
30
0
10
1155.7204700614902
20
-541.73892937738071
30
0
10
1155.9775790698168
20
-541.77124275614392
30
0
10
1156.2353643290503
20
-541.80128474517744
30
0
10
1156.4938037652364
20
-541.8290928850173
30
0
10
1156.7528579077921
20
-541.85475065588912
30
0
10
1157.0124787828179
20
-541.87836432550478
30
0
10
1157.2726201518949
20
-541.90003631717525
30
0
10
1157.5332493318206
20
-541.91983447489019
30
0
10
1157.7943483732704
20
-541.93778895026048
30
0
10
1158.0559080476712
20
-541.95390775743942
30
0
10
1158.3179238627399
20
-541.96818706667182
30
0
10
1158.5803916106156
20
-541.98062271557649
30
0
10
1158.8433021946992
20
-541.99122359370654
30
0
10
1159.1066413262413
20
-542.00001240399592
30
0
10
1159.3703919640227
20
-542.0070193145757
30
0
10
1159.6345359567042
20
-542.01227768312583
30
0
10
1159.8990558582286
20
-542.01581933421426
30
0
10
1160.1639370501546
20
-542.01766905053535
30
0
10
1160.4291677795275
20
-542.01784444712916
30
0
10
1160.6947380901477
20
-542.01635870645202
30
0
10
1160.9606390728336
20
-542.01322249356497
30
0
10
1161.2268620506084
20
-542.00844604515635
30
0
10
1161.4933976188554
20
-542.00204163335297
30
0
10
1161.760235589393
20
-541.9940237175033
30
0
10
1162.0273654442308
20
-541.98440779169869
30
0
10
1162.2947766417988
20
-541.97320961917285
30
0
10
1162.5624589506467
20
-541.96044439157345
30
0
10
1162.8304028477746
20
-541.94612575021256
30
0
10
1163.0985995309541
20
-541.93026570605934
30
0
10
1163.3670406704891
20
-541.91287517411399
30
0
10
1163.6357182292081
20
-541.89396434843002
30
0
10
1163.9046242735744
20
-541.87354311489923
30
0
10
1164.1737507362059
20
-541.85162155274907
30
0
10
1164.4430894059051
20
-541.82821002195612
30
0
10
1164.7126321178941
20
-541.80331887706041
30
0
10
1164.9823708958706
20
-541.77695828770868
30
0
10
1165.2522980910869
20
-541.74913804581661
30
0
10
1165.5224065736863
20
-541.71986734104189
30
0
10
1165.7926897108184
20
-541.68915473519962
30
0
10
1166.0631410708115
20
-541.65700839977023
30
0
10
1166.3337541814085
20
-541.62343630575356
30
0
10
1166.6045222952469
20
-541.58844642136796
30
0
10
1166.875438078037
20
-541.55204696876342
30
0
10
1167.1464935669596
20
-541.51424649557316
30
0
10
1167.4176807384204
20
-541.47505351387042
30
0
10
1167.6889919588573
20
-541.43447623417035
30
0
10
1167.9604204637756
20
-541.39252227586201
30
0
10
1168.2319608667531
20
-541.34919838670635
30
0
10
1168.5036095309576
20
-541.30451019926443
30
0
10
1168.7753641779425
20
-541.25846218812012
30
0
10
1168.9928517122501
20
-541.22053852351587
30
0
10
1169.1560142960102
20
-541.19148621290151
30
0
10
1169.264810204153
20
-541.17184717927512
30
0
10
1169.3192133712942
20
-541.16195995582507
30
0
0
ARC
5
314
100
AcDbEntity
8
0
100
AcDbCircle
10
1067.2950945004955
20
-500.03922696497176
30
0
40
109.9999999999996
210
-0
220
0
230
1
100
AcDbArc
50
338.04717710624243
51
341.9528228937574
0
SPLINE
5
315
100
AcDbEntity
8
0
100
AcDbSpline
70
4
71
5
72
81
73
75
74
0
42
0.000000001
43
0.0000000001
44
0.0000000001
40
-1
40
-1
40
-1
40
-1
40
-1
40
-1
40
-0.9857142857142841
40
-0.97142857142856986
40
-0.95714285714285563
40
-0.94285714285714139
40
-0.92857142857142716
40
-0.91428571428571292
40
-0.89999999999999869
40
-0.88571428571428445
40
-0.87142857142857022
40
-0.85714285714285599
40
-0.84285714285714175
40
-0.82857142857142752
40
-0.81428571428571328
40
-0.79999999999999905
40
-0.78571428571428481
40
-0.77142857142857058
40
-0.75714285714285634
40
-0.74285714285714211
40
-0.72857142857142787
40
-0.71428571428571364
40
-0.6999999999999994
40
-0.68571428571428517
40
-0.67142857142857093
40
-0.6571428571428567
40
-0.64285714285714246
40
-0.62857142857142823
40
-0.61428571428571399
40
-0.59999999999999976
40
-0.58571428571428552
40
-0.57142857142857129
40
-0.55714285714285705
40
-0.54285714285714282
40
-0.52857142857142858
40
-0.51428571428571435
40
-0.50000000000000011
40
-0.48571428571428582
40
-0.47142857142857153
40
-0.45714285714285724
40
-0.44285714285714295
40
-0.42857142857142866
40
-0.41428571428571437
40
-0.40000000000000008
40
-0.38571428571428579
40
-0.3714285714285715
40
-0.35714285714285721
40
-0.34285714285714292
40
-0.32857142857142863
40
-0.31428571428571433
40
-0.30000000000000004
40
-0.28571428571428575
40
-0.27142857142857146
40
-0.25714285714285717
40
-0.24285714285714291
40
-0.22857142857142862
40
-0.21428571428571433
40
-0.20000000000000004
40
-0.18571428571428575
40
-0.17142857142857146
40
-0.15714285714285717
40
-0.14285714285714288
40
-0.12857142857142859
40
-0.1142857142857143
40
-0.10000000000000001
40
-0.085714285714285715
40
-0.071428571428571425
40
-0.057142857142857141
40
-0.042857142857142858
40
-0.028571428571428571
40
-0.014285714285714285
40
0
40
0
40
0
40
0
40
0
40
0
41
1
41
1
41
1
41
1
41
1
41
1
41
1
41
1
41
1
41
1
41
1
41
1
41
1
41
1
41
1
41
1
41
1
41
1
41
1
41
1
41
1
41
1
41
1
41
1
41
1
41
1
41
1
41
1
41
1
41
1
41
1
41
1
41
1
41
1
41
1
41
1
41
1
41
1
41
1
41
1
41
1
41
1
41
1
41
1
41
1
41
1
41
1
41
1
41
1
41
1
41
1
41
1
41
1
41
1
41
1
41
1
41
1
41
1
41
1
41
1
41
1
41
1
41
1
41
1
41
1
41
1
41
1
41
1
41
1
41
1
41
1
41
1
41
1
41
1
41
1
10
1171.883287068549
20
-534.11722537079936
30
0
10
1171.8479672094004
20
-534.0746816364516
30
0
10
1171.7772484360148
20
-533.98970460213502
30
0
10
1171.6709331106963
20
-533.86257035382368
30
0
10
1171.5287048553139
20
-533.69372084897668
30
0
10
1171.3501278091135
20
-533.48376550596618
30
0
10
1171.1707578726057
20
-533.27491997276468
30
0
10
1170.9905939149755
20
-533.06718914165947
30
0
10
1170.8096351016566
20
-532.86057966515341
30
0
10
1170.627881221511
20
-532.65510017465647
30
0
10
1170.4453325587936
20
-532.45076085509299
30
0
10
1170.2619896835345
20
-532.24757290284128
30
0
10
1170.0778532707086
20
-532.04554799599487
30
0
10
1169.8929239258762
20
-531.84469780082236
30
0
10
1169.7072019823333
20
-531.64503333024663
30
0
10
1169.5206874869875
20
-531.44656502539783
30
0
10
1169.3333802742154
20
-531.24930315270308
30
0
10
1169.1452800184368
20
-531.05325810607803
30
0
10
1168.9563862972814
20
-530.85844070776795
30
0
10
1168.7666986655379
20
-530.66486258044233
30
0
10
1168.5762166883655
20
-530.47253614166448
30
0
10
1168.3849399390426
20
-530.2814743089034
30
0
10
1168.1928680163828
20
-530.09169026241534
30
0
10
1168.0000005512629
20
-529.90319721645915
30
0
10
1167.8063372448541
20
-529.71600807778373
30
0
10
1167.6118778200691
20
-529.53013551900085
30
0
10
1167.4166218811274
20
-529.34559251540281
30
0
10
1167.2205687929193
20
-529.16239278259036
30
0
10
1167.0237175778407
20
-528.98055117946296
30
0
10
1166.8260667624668
20
-528.80008427713835
30
0
10
1166.6276144195399
20
-528.62101028974325
30
0
10
1166.4283584919601
20
-528.44334806860559
30
0
10
1166.2282970775655
20
-528.2671162437224
30
0
10
1166.0274286866659
20
-528.09233244043344
30
0
10
1165.8257526352445
20
-527.91901210490494
30
0
10
1165.6232689902349
20
-527.74716865634809
30
0
10
1165.4199777210974
20
-527.57681599138505
30
0
10
1165.2158779812032
20
-527.40797060808529
30
0
10
1165.0109674511082
20
-527.24065355500545
30
0
10
1164.8052413991804
20
-527.07489321334435
30
0
10
1164.5986927334359
20
-526.9107251762448
30
0
10
1164.3913139167043
20
-526.74818666462761
30
0
10
1164.1830986116161
20
-526.58731174250693
30
0
10
1163.9740431708237
20
-526.42812698597015
30
0
10
1163.7641488486317
20
-526.2706450519911
30
0
10
1163.5534215439752
20
-526.11486545676178
30
0
10
1163.3418671598627
20
-525.9607881541034
30
0
10
1163.129487614392
20
-525.80842521522595
30
0
10
1162.9162772764623
20
-525.65781127520677
30
0
10
1162.7022175735826
20
-525.50901931391491
30
0
10
1162.4872780900025
20
-525.36215751364136
30
0
10
1162.271427268292
20
-525.21733811720435
30
0
10
1162.0546416846169
20
-525.07465044536855
30
0
10
1161.8369141180167
20
-524.93413744471752
30
0
10
1161.6182665141246
20
-524.79575794311825
30
0
10
1161.3987446874012
20
-524.65940224549718
30
0
10
1161.1783927764109
20
-524.52496687508665
30
0
10
1160.957230897372
20
-524.39241996579153
30
0
10
1160.7352359529084
20
-524.26185747025818
30
0
10
1160.5123100390422
20
-524.13359552658312
30
0
10
1160.2883003332397
20
-524.00811275731985
30
0
10
1160.0630573016301
20
-523.88588098691298
30
0
10
1159.8364865147869
20
-523.76721437850188
30
0
10
1159.6085929394526
20
-523.65214100148955
30
0
10
1159.3795542973721
20
-523.54018844748316
30
0
10
1159.1496464663423
20
-523.4306065416921
30
0
10
1158.9191031488554
20
-523.32278398253675
30
0
10
1158.6879901759507
20
-523.2166222414279
30
0
10
1158.4560875410029
20
-523.11288556662487
30
0
10
1158.2227312406631
20
-523.01367249616965
30
0
10
1157.9869896728003
20
-522.92187792757841
30
0
10
1157.7957245554328
20
-522.85673505988552
30
0
10
1157.6504322049962
20
-522.81359047782234
30
0
10
1157.5527076039009
20
-522.78750043504647
30
0
10
1157.5036295409429
20
-522.77512367833674
30
0
0
LINE
5
316
100
AcDbEntity
8
0
100
AcDbLine
10
1157.5036295409429
20
-522.77512367833663
30
0
11
1156.0708719205222
21
-522.41380354010846
31
0
0
ARC
5
317
100
AcDbEntity
8
0
100
AcDbCircle
10
1157.5380474397568
20
-516.59595204700906
30
0
40
5.9999999999999201
210
0
220
0
230
1
100
AcDbArc
50
169.6036583993903
51
255.84598422821728
0
ARC
5
318
100
AcDbEntity
8
0
100
AcDbCircle
10
1067.2950945004955
20
-500.03922696497176
30
0
40
85.749199999999632
210
-0
220
0
230
1
100
AcDbArc
50
349.60365839938999
51
350.39634160060996
0
ARC
5
319
100
AcDbEntity
8
0
100
AcDbCircle
10
1157.7584649410114
20
-515.34590227941817
30
0
40
5.9999999999999689
210
0
220
-0
230
1
100
AcDbArc
50
84.154015771782682
51
170.39634160060913
0
LINE
5
320
100
AcDbEntity
8
0
100
AcDbLine
10
1158.3695933337062
20
-509.37710658115191
30
0
11
1159.8395238624537
21
-509.52760868020471
31
0
0
SPLINE
5
321
100
AcDbEntity
8
0
100
AcDbSpline
70
4
71
5
72
81
73
75
74
0
42
0.000000001
43
0.0000000001
44
0.0000000001
40
0
40
0
40
0
40
0
40
0
40
0
40
0.014285714285714285
40
0.028571428571428571
40
0.042857142857142858
40
0.057142857142857141
40
0.071428571428571425
40
0.085714285714285715
40
0.10000000000000001
40
0.1142857142857143
40
0.12857142857142859
40
0.14285714285714288
40
0.15714285714285717
40
0.17142857142857146
40
0.18571428571428575
40
0.20000000000000004
40
0.21428571428571433
40
0.22857142857142862
40
0.24285714285714291
40
0.25714285714285717
40
0.27142857142857146
40
0.28571428571428575
40
0.30000000000000004
40
0.31428571428571433
40
0.32857142857142863
40
0.34285714285714292
40
0.35714285714285721
40
0.3714285714285715
40
0.38571428571428579
40
0.40000000000000008
40
0.41428571428571437
40
0.42857142857142866
40
0.44285714285714295
40
0.45714285714285724
40
0.47142857142857153
40
0.48571428571428582
40
0.50000000000000011
40
0.51428571428571435
40
0.52857142857142858
40
0.54285714285714282
40
0.55714285714285705
40
0.57142857142857129
40
0.58571428571428552
40
0.59999999999999976
40
0.61428571428571399
40
0.62857142857142823
40
0.64285714285714246
40
0.6571428571428567
40
0.67142857142857093
40
0.68571428571428517
40
0.6999999999999994
40
0.71428571428571364
40
0.72857142857142787
40
0.74285714285714211
40
0.75714285714285634
40
0.77142857142857058
40
0.78571428571428481
40
0.79999999999999905
40
0.81428571428571328
40
0.82857142857142752
40
0.84285714285714175
40
0.85714285714285599
40
0.87142857142857022
40
0.88571428571428445
40
0.89999999999999869
40
0.91428571428571292
40
0.92857142857142716
40
0.94285714285714139
40
0.95714285714285563
40
0.97142857142856986
40
0.9857142857142841
40
1
40
1
40
1
40
1
40
1
40
1
41
1
41
1
41
1
41
1
41
1
41
1
41
1
41
1
41
1
41
1
41
1
41
1
41
1
41
1
41
1
41
1
41
1
41
1
41
1
41
1
41
1
41
1
41
1
41
1
41
1
41
1
41
1
41
1
41
1
41
1
41
1
41
1
41
1
41
1
41
1
41
1
41
1
41
1
41
1
41
1
41
1
41
1
41
1
41
1
41
1
41
1
41
1
41
1
41
1
41
1
41
1
41
1
41
1
41
1
41
1
41
1
41
1
41
1
41
1
41
1
41
1
41
1
41
1
41
1
41
1
41
1
41
1
41
1
41
1
41
1
41
1
41
1
41
1
41
1
41
1
10
1159.8395238624537
20
-509.52760868020476
30
0
10
1159.8898752561613
20
-509.5327640193824
30
0
10
1159.9906296628496
20
-509.54167118078294
30
0
10
1160.1419161285523
20
-509.55082144591177
30
0
10
1160.3439267209014
20
-509.5550236966991
30
0
10
1160.5968469241409
20
-509.54939338279394
30
0
10
1160.8500629861608
20
-509.53597614788987
30
0
10
1161.1034602133466
20
-509.51781093251503
30
0
10
1161.3569448224625
20
-509.49709681990248
30
0
10
1161.6104621638126
20
-509.47462721519969
30
0
10
1161.8639840752166
20
-509.45028701627666
30
0
10
1162.1175000256214
20
-509.42342185659015
30
0
10
1162.3710073495863
20
-509.39323244666156
30
0
10
1162.6245006164852
20
-509.35921408339357
30
0
10
1162.8779655588057
20
-509.32139144467089
30
0
10
1163.1313834610612
20
-509.28009204404316
30
0
10
1163.3847334656621
20
-509.23581039505564
30
0
10
1163.6379954802615
20
-509.18904852417455
30
0
10
1163.8911533789083
20
-509.14013698916904
30
0
10
1164.1441960482975
20
-509.0891738558006
30
0
10
1164.3971154842145
20
-509.03612229958304
30
0
10
1164.6499056011148
20
-508.98086998788312
30
0
10
1164.9025608654124
20
-508.92329817158151
30
0
10
1165.1550747366568
20
-508.86336065567968
30
0
10
1165.4074393117346
20
-508.80110026647964
30
0
10
1165.6596460523492
20
-508.73660894946772
30
0
10
1165.9116862234794
20
-508.67000297166851
30
0
10
1166.1635514060595
20
-508.60139439398239
30
0
10
1166.4152340919363
20
-508.53085814721919
30
0
10
1166.6667277267204
20
-508.45842870365584
30
0
10
1166.9180263793917
20
-508.3841167504911
30
0
10
1167.1691245187312
20
-508.30792022538327
30
0
10
1167.4200167670251
20
-508.22983665614686
30
0
10
1167.6706976166722
20
-508.14987750744945
30
0
10
1167.9211614055014
20
-508.06806900011054
30
0
10
1168.1714024381129
20
-507.98444531134072
30
0
10
1168.4214150668256
20
-507.89904399522914
30
0
10
1168.6711937823522
20
-507.81190092399038
30
0
10
1168.9207333240313
20
-507.72304438554107
30
0
10
1169.1700286723967
20
-507.63249495235152
30
0
10
1169.419074980347
20
-507.54026841709947
30
0
10
1169.6678675236556
20
-507.44637784878358
30
0
10
1169.9164016497848
20
-507.35083583444521
30
0
10
1170.1646727186007
20
-507.25365712268001
30
0
10
1170.4126761017324
20
-507.15485878539391
30
0
10
1170.6604072147932
20
-507.05445897963511
30
0
10
1170.9078615432909
20
-506.95247612342723
30
0
10
1171.1550346686572
20
-506.8489279916115
30
0
10
1171.4019223078024
20
-506.74383065988616
30
0
10
1171.6485202973311
20
-506.63719842540945
30
0
10
1171.8948245430388
20
-506.52904439385054
30
0
10
1172.1408309790272
20
-506.41938089336088
30
0
10
1172.3865355313837
20
-506.3082199270695
30
0
10
1172.6319340665482
20
-506.1955737255588
30
0
10
1172.8770224118398
20
-506.08145483241765
30
0
10
1173.1217964363375
20
-505.9658757702494
30
0
10
1173.3662521229937
20
-505.84884882345204
30
0
10
1173.6103856333687
20
-505.73038580944223
30
0
10
1173.8541934106368
20
-505.610497802228
30
0
10
1174.0976721502705
20
-505.48919511585262
30
0
10
1174.3408186032864
20
-505.36648762875677
30
0
10
1174.5836294139949
20
-505.24238504487289
30
0
10
1174.8261009672406
20
-505.11689715961052
30
0
10
1175.0682291831861
20
-504.99003420773823
30
0
10
1175.3100095026921
20
-504.86180694484864
30
0
10
1175.5514372973462
20
-504.73222611390491
30
0
10
1175.7925082021081
20
-504.60130204109942
30
0
10
1176.0332184664173
20
-504.46904419990966
30
0
10
1176.2735653365619
20
-504.33546077342123
30
0
10
1176.5135473214875
20
-504.20055829838026
30
0
10
1176.753163810552
20
-504.06434175879491
30
0
10
1176.9445645844505
20
-503.95432005335772
30
0
10
1177.0879507849579
20
-503.87121492117359
30
0
10
1177.1834685519157
20
-503.81554987409919
30
0
10
1177.2312091770441
20
-503.78765194416019
30
0
0
ARC
5
322
100
AcDbEntity
8
0
100
AcDbCircle
10
1067.2950945004955
20
-500.03922696497176
30
0
40
109.99999999999943
210
-0
220
0
230
1
100
AcDbArc
50
-1.9528228937573855
51
1.952822893757364
0
SPLINE
5
323
100
AcDbEntity
8
0
100
AcDbSpline
70
4
71
5
72
81
73
75
74
0
42
0.000000001
43
0.0000000001
44
0.0000000001
40
-1
40
-1
40
-1
40
-1
40
-1
40
-1
40
-0.9857142857142841
40
-0.97142857142856986
40
-0.95714285714285563
40
-0.94285714285714139
40
-0.92857142857142716
40
-0.91428571428571292
40
-0.89999999999999869
40
-0.88571428571428445
40
-0.87142857142857022
40
-0.85714285714285599
40
-0.84285714285714175
40
-0.82857142857142752
40
-0.81428571428571328
40
-0.79999999999999905
40
-0.78571428571428481
40
-0.77142857142857058
40
-0.75714285714285634
40
-0.74285714285714211
40
-0.72857142857142787
40
-0.71428571428571364
40
-0.6999999999999994
40
-0.68571428571428517
40
-0.67142857142857093
40
-0.6571428571428567
40
-0.64285714285714246
40
-0.62857142857142823
40
-0.61428571428571399
40
-0.59999999999999976
40
-0.58571428571428552
40
-0.57142857142857129
40
-0.55714285714285705
40
-0.54285714285714282
40
-0.52857142857142858
40
-0.51428571428571435
40
-0.50000000000000011
40
-0.48571428571428582
40
-0.47142857142857153
40
-0.45714285714285724
40
-0.44285714285714295
40
-0.42857142857142866
40
-0.41428571428571437
40
-0.40000000000000008
40
-0.38571428571428579
40
-0.3714285714285715
40
-0.35714285714285721
40
-0.34285714285714292
40
-0.32857142857142863
40
-0.31428571428571433
40
-0.30000000000000004
40
-0.28571428571428575
40
-0.27142857142857146
40
-0.25714285714285717
40
-0.24285714285714291
40
-0.22857142857142862
40
-0.21428571428571433
40
-0.20000000000000004
40
-0.18571428571428575
40
-0.17142857142857146
40
-0.15714285714285717
40
-0.14285714285714288
40
-0.12857142857142859
40
-0.1142857142857143
40
-0.10000000000000001
40
-0.085714285714285715
40
-0.071428571428571425
40
-0.057142857142857141
40
-0.042857142857142858
40
-0.028571428571428571
40
-0.014285714285714285
40
0
40
0
40
0
40
0
40
0
40
0
41
1
41
1
41
1
41
1
41
1
41
1
41
1
41
1
41
1
41
1
41
1
41
1
41
1
41
1
41
1
41
1
41
1
41
1
41
1
41
1
41
1
41
1
41
1
41
1
41
1
41
1
41
1
41
1
41
1
41
1
41
1
41
1
41
1
41
1
41
1
41
1
41
1
41
1
41
1
41
1
41
1
41
1
41
1
41
1
41
1
41
1
41
1
41
1
41
1
41
1
41
1
41
1
41
1
41
1
41
1
41
1
41
1
41
1
41
1
41
1
41
1
41
1
41
1
41
1
41
1
41
1
41
1
41
1
41
1
41
1
41
1
41
1
41
1
41
1
41
1
10
1177.2312091770441
20
-496.29080198578345
30
0
10
1177.1834685519157
20
-496.2629040558445
30
0
10
1177.0879507849579
20
-496.2072390087701
30
0
10
1176.9445645844505
20
-496.12413387658592
30
0
10
1176.753163810552
20
-496.01411217114872
30
0
10
1176.5135473214875
20
-495.87789563156332
30
0
10
1176.2735653365619
20
-495.7429931565224
30
0
10
1176.0332184664173
20
-495.60940973003397
30
0
10
1175.7925082021081
20
-495.47715188884416
30
0
10
1175.5514372973462
20
-495.34622781603872
30
0
10
1175.3100095026921
20
-495.21664698509505
30
0
10
1175.0682291831861
20
-495.08841972220534
30
0
10
1174.8261009672406
20
-494.96155677033306
30
0
10
1174.5836294139949
20
-494.83606888507074
30
0
10
1174.3408186032864
20
-494.71196630118686
30
0
10
1174.0976721502705
20
-494.58925881409107
30
0
10
1173.8541934106368
20
-494.46795612771564
30
0
10
1173.6103856333687
20
-494.34806812050141
30
0
10
1173.3662521229937
20
-494.22960510649153
30
0
10
1173.1217964363375
20
-494.11257815969418
30
0
10
1172.8770224118398
20
-493.99699909752599
30
0
10
1172.6319340665482
20
-493.88288020438483
30
0
10
1172.3865355313837
20
-493.77023400287419
30
0
10
1172.1408309790272
20
-493.65907303658281
30
0
10
1171.8948245430388
20
-493.54940953609309
30
0
10
1171.6485202973311
20
-493.44125550453418
30
0
10
1171.4019223078024
20
-493.33462327005753
30
0
10
1171.1550346686572
20
-493.22952593833213
30
0
10
1170.9078615432909
20
-493.12597780651635
30
0
10
1170.6604072147932
20
-493.02399495030852
30
0
10
1170.4126761017324
20
-492.92359514454972
30
0
10
1170.1646727186007
20
-492.82479680726362
30
0
10
1169.9164016497848
20
-492.72761809549843
30
0
10
1169.6678675236556
20
-492.63207608116005
30
0
10
1169.419074980347
20
-492.53818551284417
30
0
10
1169.1700286723967
20
-492.44595897759211
30
0
10
1168.9207333240313
20
-492.35540954440251
30
0
10
1168.6711937823522
20
-492.26655300595326
30
0
10
1168.4214150668256
20
-492.1794099347145
30
0
10
1168.1714024381129
20
-492.09400861860286
30
0
10
1167.9211614055014
20
-492.01038492983315
30
0
10
1167.6706976166722
20
-491.92857642249413
30
0
10
1167.4200167670251
20
-491.84861727379678
30
0
10
1167.1691245187312
20
-491.77053370456036
30
0
10
1166.9180263793917
20
-491.69433717945253
30
0
10
1166.6667277267204
20
-491.62002522628774
30
0
10
1166.4152340919363
20
-491.54759578272439
30
0
10
1166.1635514060595
20
-491.47705953596125
30
0
10
1165.9116862234794
20
-491.40845095827507
30
0
10
1165.6596460523492
20
-491.34184498047591
30
0
10
1165.4074393117346
20
-491.277353663464
30
0
10
1165.1550747366568
20
-491.21509327426395
30
0
10
1164.9025608654124
20
-491.15515575836213
30
0
10
1164.6499056011148
20
-491.09758394206045
30
0
10
1164.3971154842145
20
-491.04233163036054
30
0
10
1164.1441960482975
20
-490.98928007414304
30
0
10
1163.8911533789083
20
-490.9383169407746
30
0
10
1163.6379954802615
20
-490.88940540576908
30
0
10
1163.3847334656621
20
-490.842643534888
30
0
10
1163.1313834610612
20
-490.79836188590042
30
0
10
1162.8779655588057
20
-490.75706248527274
30
0
10
1162.6245006164852
20
-490.71923984655007
30
0
10
1162.3710073495863
20
-490.68522148328208
30
0
10
1162.1175000256214
20
-490.65503207335348
30
0
10
1161.8639840752166
20
-490.62816691366697
30
0
10
1161.6104621638126
20
-490.60382671474395
30
0
10
1161.3569448224625
20
-490.58135711004115
30
0
10
1161.1034602133466
20
-490.56064299742854
30
0
10
1160.8500629861608
20
-490.54247778205371
30
0
10
1160.5968469241409
20
-490.5290605471497
30
0
10
1160.3439267209014
20
-490.52343023324454
30
0
10
1160.1419161285523
20
-490.52763248403187
30
0
10
1159.9906296628496
20
-490.53678274916069
30
0
10
1159.8898752561613
20
-490.54568991056124
30
0
10
1159.8395238624537
20
-490.55084524973887
30
0
0
LINE
5
324
100
AcDbEntity
8
0
100
AcDbLine
10
1159.8395238624537
20
-490.55084524973893
30
0
11
1158.3695933337062
21
-490.70134734879167
31
0
0
ARC
5
325
100
AcDbEntity
8
0
100
AcDbCircle
10
1157.7584649410114
20
-484.73255165052547
30
0
40
5.9999999999999032
210
0
220
0
230
1
100
AcDbArc
50
189.60365839939033
51
275.84598422821733
0
ARC
5
326
100
AcDbEntity
8
0
100
AcDbCircle
10
1067.2950945004955
20
-500.03922696497176
30
0
40
85.749199999999547
210
0
220
-0
230
1
100
AcDbArc
50
9.6036583993899693
51
10.396341600609921
0
ARC
5
327
100
AcDbEntity
8
0
100
AcDbCircle
10
1157.5380474397568
20
-483.48250188293446
30
0
40
5.9999999999999512
210
0
220
0
230
1
100
AcDbArc
50
104.15401577178287
51
190.39634160061021
0
LINE
5
328
100
AcDbEntity
8
0
100
AcDbLine
10
1156.0708719205222
20
-477.66465038983512
30
0
11
1157.5036295409429
21
-477.30333025160689
31
0
0
SPLINE
5
329
100
AcDbEntity
8
0
100
AcDbSpline
70
4
71
5
72
81
73
75
74
0
42
0.000000001
43
0.0000000001
44
0.0000000001
40
0
40
0
40
0
40
0
40
0
40
0
40
0.014285714285714285
40
0.028571428571428571
40
0.042857142857142858
40
0.057142857142857141
40
0.071428571428571425
40
0.085714285714285715
40
0.10000000000000001
40
0.1142857142857143
40
0.12857142857142859
40
0.14285714285714288
40
0.15714285714285717
40
0.17142857142857146
40
0.18571428571428575
40
0.20000000000000004
40
0.21428571428571433
40
0.22857142857142862
40
0.24285714285714291
40
0.25714285714285717
40
0.27142857142857146
40
0.28571428571428575
40
0.30000000000000004
40
0.31428571428571433
40
0.32857142857142863
40
0.34285714285714292
40
0.35714285714285721
40
0.3714285714285715
40
0.38571428571428579
40
0.40000000000000008
40
0.41428571428571437
40
0.42857142857142866
40
0.44285714285714295
40
0.45714285714285724
40
0.47142857142857153
40
0.48571428571428582
40
0.50000000000000011
40
0.51428571428571435
40
0.52857142857142858
40
0.54285714285714282
40
0.55714285714285705
40
0.57142857142857129
40
0.58571428571428552
40
0.59999999999999976
40
0.61428571428571399
40
0.62857142857142823
40
0.64285714285714246
40
0.6571428571428567
40
0.67142857142857093
40
0.68571428571428517
40
0.6999999999999994
40
0.71428571428571364
40
0.72857142857142787
40
0.74285714285714211
40
0.75714285714285634
40
0.77142857142857058
40
0.78571428571428481
40
0.79999999999999905
40
0.81428571428571328
40
0.82857142857142752
40
0.84285714285714175
40
0.85714285714285599
40
0.87142857142857022
40
0.88571428571428445
40
0.89999999999999869
40
0.91428571428571292
40
0.92857142857142716
40
0.94285714285714139
40
0.95714285714285563
40
0.97142857142856986
40
0.9857142857142841
40
1
40
1
40
1
40
1
40
1
40
1
41
1
41
1
41
1
41
1
41
1
41
1
41
1
41
1
41
1
41
1
41
1
41
1
41
1
41
1
41
1
41
1
41
1
41
1
41
1
41
1
41
1
41
1
41
1
41
1
41
1
41
1
41
1
41
1
41
1
41
1
41
1
41
1
41
1
41
1
41
1
41
1
41
1
41
1
41
1
41
1
41
1
41
1
41
1
41
1
41
1
41
1
41
1
41
1
41
1
41
1
41
1
41
1
41
1
41
1
41
1
41
1
41
1
41
1
41
1
41
1
41
1
41
1
41
1
41
1
41
1
41
1
41
1
41
1
41
1
41
1
41
1
41
1
41
1
41
1
41
1
10
1157.5036295409429
20
-477.30333025160689
30
0
10
1157.5527076039009
20
-477.29095349489717
30
0
10
1157.6504322049962
20
-477.26486345212129
30
0
10
1157.7957245554328
20
-477.22171887005811
30
0
10
1157.9869896728003
20
-477.15657600236517
30
0
10
1158.2227312406631
20
-477.06478143377399
30
0
10
1158.4560875410029
20
-476.96556836331888
30
0
10
1158.6879901759507
20
-476.86183168851574
30
0
10
1158.9191031488554
20
-476.75566994740683
30
0
10
1159.1496464663423
20
-476.64784738825153
30
0
10
1159.3795542973721
20
-476.53826548246047
30
0
10
1159.6085929394526
20
-476.42631292845408
30
0
10
1159.8364865147869
20
-476.31123955144176
30
0
10
1160.0630573016301
20
-476.19257294303065
30
0
10
1160.2883003332397
20
-476.07034117262378
30
0
10
1160.5123100390422
20
-475.94485840336051
30
0
10
1160.7352359529084
20
-475.81659645968546
30
0
10
1160.957230897372
20
-475.6860339641521
30
0
10
1161.1783927764109
20
-475.55348705485699
30
0
10
1161.3987446874012
20
-475.41905168444646
30
0
10
1161.6182665141246
20
-475.28269598682539
30
0
10
1161.8369141180167
20
-475.14431648522611
30
0
10
1162.0546416846169
20
-475.00380348457509
30
0
10
1162.271427268292
20
-474.86111581273923
30
0
10
1162.4872780900025
20
-474.71629641630221
30
0
10
1162.7022175735826
20
-474.56943461602873
30
0
10
1162.9162772764623
20
-474.42064265473681
30
0
10
1163.129487614392
20
-474.2700287147178
30
0
10
1163.3418671598627
20
-474.11766577584024
30
0
10
1163.5534215439752
20
-473.96358847318186
30
0
10
1163.7641488486317
20
-473.80780887795254
30
0
10
1163.9740431708237
20
-473.65032694397348
30
0
10
1164.1830986116161
20
-473.49114218743665
30
0
10
1164.3913139167043
20
-473.33026726531602
30
0
10
1164.5986927334359
20
-473.16772875369884
30
0
10
1164.8052413991804
20
-473.00356071659928
30
0
10
1165.0109674511082
20
-472.83780037493813
30
0
10
1165.2158779812032
20
-472.67048332185834
30
0
10
1165.4199777210974
20
-472.50163793855853
30
0
10
1165.6232689902349
20
-472.3312852735956
30
0
10
1165.8257526352445
20
-472.1594418250387
30
0
10
1166.0274286866659
20
-471.98612148951014
30
0
10
1166.2282970775655
20
-471.81133768622135
30
0
10
1166.4283584919601
20
-471.63510586133805
30
0
10
1166.6276144195399
20
-471.45744364020049
30
0
10
1166.8260667624668
20
-471.27836965280522
30
0
10
1167.0237175778407
20
-471.09790275048067
30
0
10
1167.2205687929193
20
-470.91606114735322
30
0
10
1167.4166218811274
20
-470.73286141454082
30
0
10
1167.6118778200691
20
-470.54831841094284
30
0
10
1167.8063372448541
20
-470.36244585215991
30
0
10
1168.0000005512629
20
-470.17525671348443
30
0
10
1168.1928680163828
20
-469.98676366752824
30
0
10
1168.3849399390426
20
-469.79697962104035
30
0
10
1168.5762166883655
20
-469.60591778827916
30
0
10
1168.7666986655379
20
-469.41359134950125
30
0
10
1168.9563862972814
20
-469.22001322217574
30
0
10
1169.1452800184368
20
-469.0251958238656
30
0
10
1169.3333802742154
20
-468.8291507772405
30
0
10
1169.5206874869875
20
-468.63188890454575
30
0
10
1169.7072019823333
20
-468.433420599697
30
0
10
1169.8929239258762
20
-468.23375612912122
30
0
10
1170.0778532707086
20
-468.03290593394877
30
0
10
1170.2619896835345
20
-467.83088102710235
30
0
10
1170.4453325587936
20
-467.62769307485064
30
0
10
1170.6278812215112
20
-467.42335375528717
30
0
10
1170.8096351016566
20
-467.21787426479034
30
0
10
1170.9905939149755
20
-467.01126478828417
30
0
10
1171.1707578726057
20
-466.80353395717901
30
0
10
1171.3501278091135
20
-466.59468842397746
30
0
10
1171.5287048553139
20
-466.38473308096695
30
0
10
1171.6709331106963
20
-466.21588357612006
30
0
10
1171.7772484360148
20
-466.08874932780861
30
0
10
1171.8479672094006
20
-466.00377229349203
30
0
10
1171.883287068549
20
-465.96122855914439
30
0
0
ARC
5
330
100
AcDbEntity
8
0
100
AcDbCircle
10
1067.2950945004955
20
-500.03922696497176
30
0
40
109.99999999999959
210
0
220
-0
230
1
100
AcDbArc
50
18.047177106242366
51
21.952822893757475
0
SPLINE
5
331
100
AcDbEntity
8
0
100
AcDbSpline
70
4
71
5
72
81
73
75
74
0
42
0.000000001
43
0.0000000001
44
0.0000000001
40
-1
40
-1
40
-1
40
-1
40
-1
40
-1
40
-0.9857142857142841
40
-0.97142857142856986
40
-0.95714285714285563
40
-0.94285714285714139
40
-0.92857142857142716
40
-0.91428571428571292
40
-0.89999999999999869
40
-0.88571428571428445
40
-0.87142857142857022
40
-0.85714285714285599
40
-0.84285714285714175
40
-0.82857142857142752
40
-0.81428571428571328
40
-0.79999999999999905
40
-0.78571428571428481
40
-0.77142857142857058
40
-0.75714285714285634
40
-0.74285714285714211
40
-0.72857142857142787
40
-0.71428571428571364
40
-0.6999999999999994
40
-0.68571428571428517
40
-0.67142857142857093
40
-0.6571428571428567
40
-0.64285714285714246
40
-0.62857142857142823
40
-0.61428571428571399
40
-0.59999999999999976
40
-0.58571428571428552
40
-0.57142857142857129
40
-0.55714285714285705
40
-0.54285714285714282
40
-0.52857142857142858
40
-0.51428571428571435
40
-0.50000000000000011
40
-0.48571428571428582
40
-0.47142857142857153
40
-0.45714285714285724
40
-0.44285714285714295
40
-0.42857142857142866
40
-0.41428571428571437
40
-0.40000000000000008
40
-0.38571428571428579
40
-0.3714285714285715
40
-0.35714285714285721
40
-0.34285714285714292
40
-0.32857142857142863
40
-0.31428571428571433
40
-0.30000000000000004
40
-0.28571428571428575
40
-0.27142857142857146
40
-0.25714285714285717
40
-0.24285714285714291
40
-0.22857142857142862
40
-0.21428571428571433
40
-0.20000000000000004
40
-0.18571428571428575
40
-0.17142857142857146
40
-0.15714285714285717
40
-0.14285714285714288
40
-0.12857142857142859
40
-0.1142857142857143
40
-0.10000000000000001
40
-0.085714285714285715
40
-0.071428571428571425
40
-0.057142857142857141
40
-0.042857142857142858
40
-0.028571428571428571
40
-0.014285714285714285
40
0
40
0
40
0
40
0
40
0
40
0
41
1
41
1
41
1
41
1
41
1
41
1
41
1
41
1
41
1
41
1
41
1
41
1
41
1
41
1
41
1
41
1
41
1
41
1
41
1
41
1
41
1
41
1
41
1
41
1
41
1
41
1
41
1
41
1
41
1
41
1
41
1
41
1
41
1
41
1
41
1
41
1
41
1
41
1
41
1
41
1
41
1
41
1
41
1
41
1
41
1
41
1
41
1
41
1
41
1
41
1
41
1
41
1
41
1
41
1
41
1
41
1
41
1
41
1
41
1
41
1
41
1
41
1
41
1
41
1
41
1
41
1
41
1
41
1
41
1
41
1
41
1
41
1
41
1
41
1
41
1
10
1169.3192133712942
20
-458.91649397411862
30
0
10
1169.264810204153
20
-458.90660675066852
30
0
10
1169.1560142960102
20
-458.88696771704213
30
0
10
1168.9928517122503
20
-458.85791540642771
30
0
10
1168.7753641779427
20
-458.81999174182346
30
0
10
1168.5036095309576
20
-458.77394373067921
30
0
10
1168.2319608667531
20
-458.72925554323729
30
0
10
1167.9604204637756
20
-458.68593165408157
30
0
10
1167.6889919588573
20
-458.6439776957734
30
0
10
1167.4176807384204
20
-458.60340041607316
30
0
10
1167.1464935669596
20
-458.56420743437047
30
0
10
1166.875438078037
20
-458.52640696118033
30
0
10
1166.6045222952469
20
-458.49000750857562
30
0
10
1166.3337541814085
20
-458.45501762419008
30
0
10
1166.0631410708115
20
-458.4214455301734
30
0
10
1165.7926897108184
20
-458.38929919474401
30
0
10
1165.5224065736863
20
-458.3585865889018
30
0
10
1165.2522980910869
20
-458.32931588412697
30
0
10
1164.9823708958706
20
-458.3014956422349
30
0
10
1164.7126321178941
20
-458.27513505288323
30
0
10
1164.4430894059053
20
-458.25024390798751
30
0
10
1164.1737507362059
20
-458.22683237719468
30
0
10
1163.9046242735744
20
-458.20491081504434
30
0
10
1163.6357182292081
20
-458.18448958151373
30
0
10
1163.3670406704891
20
-458.16557875582964
30
0
10
1163.0985995309541
20
-458.14818822388429
30
0
10
1162.8304028477746
20
-458.13232817973102
30
0
10
1162.5624589506467
20
-458.11800953837019
30
0
10
1162.2947766417988
20
-458.10524431077079
30
0
10
1162.0273654442308
20
-458.09404613824489
30
0
10
1161.760235589393
20
-458.0844302124404
30
0
10
1161.4933976188554
20
-458.0764122965906
30
0
10
1161.2268620506084
20
-458.0700078847874
30
0
10
1160.9606390728336
20
-458.06523143637867
30
0
10
1160.6947380901477
20
-458.06209522349155
30
0
10
1160.4291677795275
20
-458.06060948281447
30
0
10
1160.1639370501546
20
-458.06078487940823
30
0
10
1159.8990558582286
20
-458.06263459572932
30
0
10
1159.6345359567042
20
-458.0661762468178
30
0
10
1159.3703919640227
20
-458.07143461536788
30
0
10
1159.1066413262413
20
-458.07844152594777
30
0
10
1158.8433021946992
20
-458.0872303362371
30
0
10
1158.5803916106156
20
-458.09783121436715
30
0
10
1158.3179238627399
20
-458.11026686327182
30
0
10
1158.0559080476714
20
-458.12454617250415
30
0
10
1157.7943483732704
20
-458.14066497968321
30
0
10
1157.5332493318208
20
-458.15861945505338
30
0
10
1157.2726201518949
20
-458.17841761276838
30
0
10
1157.0124787828181
20
-458.20008960443886
30
0
10
1156.7528579077921
20
-458.22370327405451
30
0
10
1156.4938037652364
20
-458.24936104492633
30
0
10
1156.2353643290503
20
-458.27716918476619
30
0
10
1155.9775790698168
20
-458.30721117379971
30
0
10
1155.7204700614902
20
-458.33952455256292
30
0
10
1155.4640276504649
20
-458.37406367499068
30
0
10
1155.2082164220192
20
-458.41071506081397
30
0
10
1154.953003674671
20
-458.44937107050771
30
0
10
1154.6983843352061
20
-458.48999436277086
30
0
10
1154.4444023871808
20
-458.53267328830202
30
0
10
1154.191186041448
20
-458.57771295439733
30
0
10
1153.9389258818014
20
-458.62557823963533
30
0
10
1153.6878106415581
20
-458.67672670102945
30
0
10
1153.4379699237536
20
-458.73145969957216
30
0
10
1153.1894255757979
20
-458.7897955451129
30
0
10
1152.9420100821847
20
-458.85125811449211
30
0
10
1152.6954525745064
20
-458.91509540965023
30
0
10
1152.4495391421776
20
-458.98068892534309
30
0
10
1152.204256881744
20
-459.04792086891575
30
0
10
1151.9599285076638
20
-459.11751810603334
30
0
10
1151.7173942781142
20
-459.19151502322711
30
0
10
1151.4778013487137
20
-459.27272806295957
30
0
10
1151.2894107401794
20
-459.34576857876374
30
0
10
1151.1503775397246
20
-459.40611003406639
30
0
10
1151.0587457958668
20
-459.44894006452279
30
0
10
1151.0131941925977
20
-459.47100568959826
30
0
0
LINE
5
332
100
AcDbEntity
8
0
100
AcDbLine
10
1151.0131941925977
20
-459.47100568959831
30
0
11
1149.6833860711547
21
-460.11517725161195
31
0
0
ARC
5
333
100
AcDbEntity
8
0
100
AcDbCircle
10
1147.0676648699839
20
-454.71536219943238
30
0
40
5.999999999999984
210
0
220
0
230
1
100
AcDbArc
50
209.60365839939135
51
295.84598422821813
0
ARC
5
334
100
AcDbEntity
8
0
100
AcDbCircle
10
1067.2950945004955
20
-500.03922696497176
30
0
40
85.749199999999504
210
0
220
-0
230
1
100
AcDbArc
50
29.603658399389953
51
30.396341600609954
0
ARC
5
335
100
AcDbEntity
8
0
100
AcDbCircle
10
1146.4329979698871
20
-453.61608688258264
30
0
40
5.9999999999999805
210
0
220
0
230
1
100
AcDbArc
50
124.15401577178173
51
210.39634160061084
0
LINE
5
336
100
AcDbEntity
8
0
100
AcDbLine
10
1143.0644815595474
20
-448.6508983470614
30
0
11
1144.2872545573684
21
-447.82133651273966
31
0
0
SPLINE
5
337
100
AcDbEntity
8
0
100
AcDbSpline
70
4
71
5
72
81
73
75
74
0
42
0.000000001
43
0.0000000001
44
0.0000000001
40
0
40
0
40
0
40
0
40
0
40
0
40
0.014285714285714285
40
0.028571428571428571
40
0.042857142857142858
40
0.057142857142857141
40
0.071428571428571425
40
0.085714285714285715
40
0.10000000000000001
40
0.1142857142857143
40
0.12857142857142859
40
0.14285714285714288
40
0.15714285714285717
40
0.17142857142857146
40
0.18571428571428575
40
0.20000000000000004
40
0.21428571428571433
40
0.22857142857142862
40
0.24285714285714291
40
0.25714285714285717
40
0.27142857142857146
40
0.28571428571428575
40
0.30000000000000004
40
0.31428571428571433
40
0.32857142857142863
40
0.34285714285714292
40
0.35714285714285721
40
0.3714285714285715
40
0.38571428571428579
40
0.40000000000000008
40
0.41428571428571437
40
0.42857142857142866
40
0.44285714285714295
40
0.45714285714285724
40
0.47142857142857153
40
0.48571428571428582
40
0.50000000000000011
40
0.51428571428571435
40
0.52857142857142858
40
0.54285714285714282
40
0.55714285714285705
40
0.57142857142857129
40
0.58571428571428552
40
0.59999999999999976
40
0.61428571428571399
40
0.62857142857142823
40
0.64285714285714246
40
0.6571428571428567
40
0.67142857142857093
40
0.68571428571428517
40
0.6999999999999994
40
0.71428571428571364
40
0.72857142857142787
40
0.74285714285714211
40
0.75714285714285634
40
0.77142857142857058
40
0.78571428571428481
40
0.79999999999999905
40
0.81428571428571328
40
0.82857142857142752
40
0.84285714285714175
40
0.85714285714285599
40
0.87142857142857022
40
0.88571428571428445
40
0.89999999999999869
40
0.91428571428571292
40
0.92857142857142716
40
0.94285714285714139
40
0.95714285714285563
40
0.97142857142856986
40
0.9857142857142841
40
1
40
1
40
1
40
1
40
1
40
1
41
1
41
1
41
1
41
1
41
1
41
1
41
1
41
1
41
1
41
1
41
1
41
1
41
1
41
1
41
1
41
1
41
1
41
1
41
1
41
1
41
1
41
1
41
1
41
1
41
1
41
1
41
1
41
1
41
1
41
1
41
1
41
1
41
1
41
1
41
1
41
1
41
1
41
1
41
1
41
1
41
1
41
1
41
1
41
1
41
1
41
1
41
1
41
1
41
1
41
1
41
1
41
1
41
1
41
1
41
1
41
1
41
1
41
1
41
1
41
1
41
1
41
1
41
1
41
1
41
1
41
1
41
1
41
1
41
1
41
1
41
1
41
1
41
1
41
1
41
1
10
1144.2872545573684
20
-447.82133651273972
30
0
10
1144.3291397508685
20
-447.79292047966339
30
0
10
1144.4120475172176
20
-447.73498007691779
30
0
10
1144.5338213506384
20
-447.64474452100569
30
0
10
1144.6912715970975
20
-447.5181137260825
30
0
10
1144.8814006173247
20
-447.3512266825208
30
0
10
1145.066750942191
20
-447.17818433704048
30
0
10
1145.249188104608
20
-447.0013883767806
30
0
10
1145.4300538059047
20
-446.82258367993364
30
0
10
1145.6098161729826
20
-446.64241315825143
30
0
10
1145.7883796461376
20
-446.46080674068747
30
0
10
1145.9653155394085
20
-446.27726992261807
30
0
10
1146.1401080375758
20
-446.09119212609181
30
0
10
1146.3124285636413
20
-445.9021902168447
30
0
10
1146.4822820506949
20
-445.71029227021359
30
0
10
1146.6498646834934
20
-445.5157612062161
30
0
10
1146.8154783513764
20
-445.31898925120549
30
0
10
1146.9794303591054
20
-445.12037389487853
30
0
10
1147.141920831923
20
-444.92017872473872
30
0
10
1147.3030042920009
20
-444.71848600701236
30
0
10
1147.4626509374307
20
-444.5152726775168
30
0
10
1147.6207839003903
20
-444.3104565961749
30
0
10
1147.7773226114446
20
-444.10395035280408
30
0
10
1147.9322323667448
20
-443.89572276410325
30
0
10
1148.085534640371
20
-443.68581171694638
30
0
10
1148.2372819930281
20
-443.47429313397356
30
0
10
1148.3875424683049
20
-443.26126169565617
30
0
10
1148.5363816481804
20
-443.04680865729551
30
0
10
1148.6838419456726
20
-442.83099624536982
30
0
10
1148.8299404981799
20
-442.61385508025563
30
0
10
1148.9746796318759
20
-442.39539716120845
30
0
10
1149.1180537839541
20
-442.1756244637819
30
0
10
1149.2600572457559
20
-441.95453855089977
30
0
10
1149.4006931675606
20
-441.7321517452246
30
0
10
1149.5399740663113
20
-441.50848777264332
30
0
10
1149.6779175477664
20
-441.28357647535017
30
0
10
1149.8145434248538
20
-441.05745025170609
30
0
10
1149.9498705354299
20
-440.83014012272344
30
0
10
1150.083913032717
20
-440.60167113969146
30
0
10
1150.2166802953091
20
-440.3720622884872
30
0
10
1150.3481787614494
20
-440.14132878266059
30
0
10
1150.4784132127606
20
-439.90948367031984
30
0
10
1150.6073881759862
20
-439.67653958429133
30
0
10
1150.7351095767917
20
-439.44251080527573
30
0
10
1150.8615848432491
20
-439.20741338617091
30
0
10
1150.9868221346405
20
-438.97126418286979
30
0
10
1151.1108298315412
20
-438.73408020625669
30
0
10
1151.2336159745789
20
-438.49587791285097
30
0
10
1151.3551876159768
20
-438.25667237046878
30
0
10
1151.4755507564246
20
-438.01647720754806
30
0
10
1151.5947106837421
20
-437.77530509531715
30
0
10
1151.7126722076528
20
-437.53316809119775
30
0
10
1151.8294399228216
20
-437.29007800878003
30
0
10
1151.9450185244245
20
-437.04604687423546
30
0
10
1152.0594128788662
20
-436.80108697865774
30
0
10
1152.1726278710516
20
-436.55521057022264
30
0
10
1152.2846683200028
20
-436.30842964143324
30
0
10
1152.3955388813929
20
-436.06075571225767
30
0
10
1152.5052439487708
20
-435.81219955216142
30
0
10
1152.6137876204612
20
-435.56277118626952
30
0
10
1152.7211737573373
20
-435.31248027031273
30
0
10
1152.8274060263589
20
-435.06133639493038
30
0
10
1152.9324879545247
20
-434.80934938761868
30
0
10
1153.0364229952804
20
-434.55652971113403
30
0
10
1153.1392145696841
20
-434.30288853529652
30
0
10
1153.2408660376097
20
-434.04843706477976
30
0
10
1153.3413806927913
20
-433.79318601569969
30
0
10
1153.4407617515662
20
-433.53714505597503
30
0
10
1153.5390123644554
20
-433.28032222426492
30
0
10
1153.6361355909839
20
-433.02272348643868
30
0
10
1153.7321341670317
20
-432.76435305298099
30
0
10
1153.8080350772336
20
-432.55704149096221
30
0
10
1153.8644563300829
20
-432.40121239317159
30
0
10
1153.901846382128
20
-432.29717285607887
30
0
10
1153.9204853790179
20
-432.24511471956339
30
0
0
ARC
5
338
100
AcDbEntity
8
0
100
AcDbCircle
10
1067.2950945004955
20
-500.03922696497176
30
0
40
109.9999999999994
210
0
220
-0
230
1
100
AcDbArc
50
38.047177106242529
51
41.952822893757507
0
SPLINE
5
339
100
AcDbEntity
8
0
100
AcDbSpline
70
4
71
5
72
81
73
75
74
0
42
0.000000001
43
0.0000000001
44
0.0000000001
40
-1
40
-1
40
-1
40
-1
40
-1
40
-1
40
-0.9857142857142841
40
-0.97142857142856986
40
-0.95714285714285563
40
-0.94285714285714139
40
-0.92857142857142716
40
-0.91428571428571292
40
-0.89999999999999869
40
-0.88571428571428445
40
-0.87142857142857022
40
-0.85714285714285599
40
-0.84285714285714175
40
-0.82857142857142752
40
-0.81428571428571328
40
-0.79999999999999905
40
-0.78571428571428481
40
-0.77142857142857058
40
-0.75714285714285634
40
-0.74285714285714211
40
-0.72857142857142787
40
-0.71428571428571364
40
-0.6999999999999994
40
-0.68571428571428517
40
-0.67142857142857093
40
-0.6571428571428567
40
-0.64285714285714246
40
-0.62857142857142823
40
-0.61428571428571399
40
-0.59999999999999976
40
-0.58571428571428552
40
-0.57142857142857129
40
-0.55714285714285705
40
-0.54285714285714282
40
-0.52857142857142858
40
-0.51428571428571435
40
-0.50000000000000011
40
-0.48571428571428582
40
-0.47142857142857153
40
-0.45714285714285724
40
-0.44285714285714295
40
-0.42857142857142866
40
-0.41428571428571437
40
-0.40000000000000008
40
-0.38571428571428579
40
-0.3714285714285715
40
-0.35714285714285721
40
-0.34285714285714292
40
-0.32857142857142863
40
-0.31428571428571433
40
-0.30000000000000004
40
-0.28571428571428575
40
-0.27142857142857146
40
-0.25714285714285717
40
-0.24285714285714291
40
-0.22857142857142862
40
-0.21428571428571433
40
-0.20000000000000004
40
-0.18571428571428575
40
-0.17142857142857146
40
-0.15714285714285717
40
-0.14285714285714288
40
-0.12857142857142859
40
-0.1142857142857143
40
-0.10000000000000001
40
-0.085714285714285715
40
-0.071428571428571425
40
-0.057142857142857141
40
-0.042857142857142858
40
-0.028571428571428571
40
-0.014285714285714285
40
0
40
0
40
0
40
0
40
0
40
0
41
1
41
1
41
1
41
1
41
1
41
1
41
1
41
1
41
1
41
1
41
1
41
1
41
1
41
1
41
1
41
1
41
1
41
1
41
1
41
1
41
1
41
1
41
1
41
1
41
1
41
1
41
1
41
1
41
1
41
1
41
1
41
1
41
1
41
1
41
1
41
1
41
1
41
1
41
1
41
1
41
1
41
1
41
1
41
1
41
1
41
1
41
1
41
1
41
1
41
1
41
1
41
1
41
1
41
1
41
1
41
1
41
1
41
1
41
1
41
1
41
1
41
1
41
1
41
1
41
1
41
1
41
1
41
1
41
1
41
1
41
1
41
1
41
1
41
1
41
1
10
1149.1016031140944
20
-426.50219446805215
30
0
10
1149.0470992298033
20
-426.51151049615913
30
0
10
1148.9381475726539
20
-426.53026623327725
30
0
10
1148.774888421266
20
-426.55877088165909
30
0
10
1148.5575463329608
20
-426.59751941153269
30
0
10
1148.2864311491535
20
-426.64719399856978
30
0
10
1148.01588064368
20
-426.69811015365985
30
0
10
1147.7458984879786
20
-426.75027130226147
30
0
10
1147.476490026002
20
-426.80368149338136
30
0
10
1147.2076626272024
20
-426.85834522557519
30
0
10
1146.9394252541097
20
-426.91426734513362
30
0
10
1146.6717878880872
20
-426.97145295658515
30
0
10
1146.404760980148
20
-427.029907314431
30
0
10
1146.1383549363575
20
-427.08963572737474
30
0
10
1145.8725794608342
20
-427.15064341323517
30
0
10
1145.6074436193162
20
-427.21293555195422
30
0
10
1145.3429562199785
20
-427.27651742017963
30
0
10
1145.0791261014256
20
-427.34139449682971
30
0
10
1144.8159624248124
20
-427.40757255881056
30
0
10
1144.5534750330598
20
-427.47505780302129
30
0
10
1144.2916744626723
20
-427.54385681482677
30
0
10
1144.0305716871462
20
-427.61397642251313
30
0
10
1143.7701779203248
20
-427.68542356364628
30
0
10
1143.51050442153
20
-427.7582051650254
30
0
10
1143.2515622189201
20
-427.83232793881865
30
0
10
1142.9933621487553
20
-427.9077984612963
30
0
10
1142.7359152500778
20
-427.98462356286063
30
0
10
1142.4792330833916
20
-428.06281065133311
30
0
10
1142.2233280280791
20
-428.14236800279326
30
0
10
1141.9682136984368
20
-428.22330517882341
30
0
10
1141.7139049047321
20
-428.30563295554106
30
0
10
1141.4604169441443
20
-428.38936254011105
30
0
10
1141.2077649996427
20
-428.47450489485226
30
0
10
1140.9559635903747
20
-428.56107012254421
30
0
10
1140.7050257511039
20
-428.64906653864568
30
0
10
1140.4549631366749
20
-428.73850079479632
30
0
10
1140.2057877666459
20
-428.82937986575564
30
0
10
1139.9575135054492
20
-428.92171273375993
30
0
10
1139.7101574219485
20
-429.01551193178506
30
0
10
1139.463741729166
20
-429.11079574814448
30
0
10
1139.2182937056762
20
-429.20758812124717
30
0
10
1138.9738418171567
20
-429.30591418893476
30
0
10
1138.7304123952242
20
-429.40579647153754
30
0
10
1138.4880266317718
20
-429.50725141579477
30
0
10
1138.2466961152129
20
-429.61028426393369
30
0
10
1138.0064233760249
20
-429.71488966542256
30
0
10
1137.7672113257197
20
-429.82106248501685
30
0
10
1137.5290713773213
20
-429.92880709719986
30
0
10
1137.2920307101358
20
-430.03814569618692
30
0
10
1137.0561432403383
20
-430.14913085616115
30
0
10
1136.8214874486657
20
-430.26184300908113
30
0
10
1136.5881447615354
20
-430.37636560589181
30
0
10
1136.3561808210811
20
-430.49276359261063
30
0
10
1136.1256292096552
20
-430.61106469606523
30
0
10
1135.8964652439611
20
-430.73122932471273
30
0
10
1135.6686168325089
20
-430.85316295452975
30
0
10
1135.4420164310709
20
-430.97677562201454
30
0
10
1135.2166465009088
20
-431.10203397296345
30
0
10
1134.9925785907637
20
-431.22900598661397
30
0
10
1134.7700375322693
20
-431.35793451934637
30
0
10
1134.5493614134489
20
-431.48919123063393
30
0
10
1134.3308840793222
20
-431.62314153282989
30
0
10
1134.1148303884356
20
-431.76002428578602
30
0
10
1133.9012271329766
20
-431.89984922287857
30
0
10
1133.6897540561481
20
-432.04222622836534
30
0
10
1133.4798994264231
20
-432.18654129767054
30
0
10
1133.2712506923501
20
-432.3322863877093
30
0
10
1133.0637554411876
20
-432.47935522283444
30
0
10
1132.85796552803
20
-432.62832045850223
30
0
10
1132.6553663384586
20
-432.7808064075021
30
0
10
1132.4579991261976
20
-432.93906730970372
30
0
10
1132.3059511892163
20
-433.07213632635529
30
0
10
1132.1959407098957
20
-433.17639090177738
30
0
10
1132.1244837695183
20
-433.2479778675127
30
0
10
1132.0892261523122
20
-433.28429233844793
30
0
0
LINE
5
340
100
AcDbEntity
8
0
100
AcDbLine
10
1132.0892261523122
20
-433.28429233844793
30
0
11
1131.0599349234974
21
-434.3444367660839
31
0
0
ARC
5
341
100
AcDbEntity
8
0
100
AcDbCircle
10
1126.7551154946452
20
-430.16489974806655
30
0
40
5.9999999999999174
210
0
220
0
230
1
100
AcDbArc
50
229.60365839939033
51
315.84598422821938
0
ARC
5
342
100
AcDbEntity
8
0
100
AcDbCircle
10
1067.2950945004955
20
-500.03922696497176
30
0
40
85.749199999999547
210
0
220
-0
230
1
100
AcDbArc
50
49.603658399390085
51
50.396341600609986
0
ARC
5
343
100
AcDbEntity
8
0
100
AcDbCircle
10
1125.782749390544
20
-429.34898770874582
30
0
40
5.9999999999999698
210
0
220
0
230
1
100
AcDbArc
50
144.15401577178289
51
230.39634160061053
0
LINE
5
344
100
AcDbEntity
8
0
100
AcDbLine
10
1120.9191848821936
20
-425.83533714656505
30
0
11
1121.7844887876699
21
-424.63759101639789
31
0
0
SPLINE
5
345
100
AcDbEntity
8
0
100
AcDbSpline
70
4
71
5
72
81
73
75
74
0
42
0.000000001
43
0.0000000001
44
0.0000000001
40
0
40
0
40
0
40
0
40
0
40
0
40
0.014285714285714285
40
0.028571428571428571
40
0.042857142857142858
40
0.057142857142857141
40
0.071428571428571425
40
0.085714285714285715
40
0.10000000000000001
40
0.1142857142857143
40
0.12857142857142859
40
0.14285714285714288
40
0.15714285714285717
40
0.17142857142857146
40
0.18571428571428575
40
0.20000000000000004
40
0.21428571428571433
40
0.22857142857142862
40
0.24285714285714291
40
0.25714285714285717
40
0.27142857142857146
40
0.28571428571428575
40
0.30000000000000004
40
0.31428571428571433
40
0.32857142857142863
40
0.34285714285714292
40
0.35714285714285721
40
0.3714285714285715
40
0.38571428571428579
40
0.40000000000000008
40
0.41428571428571437
40
0.42857142857142866
40
0.44285714285714295
40
0.45714285714285724
40
0.47142857142857153
40
0.48571428571428582
40
0.50000000000000011
40
0.51428571428571435
40
0.52857142857142858
40
0.54285714285714282
40
0.55714285714285705
40
0.57142857142857129
40
0.58571428571428552
40
0.59999999999999976
40
0.61428571428571399
40
0.62857142857142823
40
0.64285714285714246
40
0.6571428571428567
40
0.67142857142857093
40
0.68571428571428517
40
0.6999999999999994
40
0.71428571428571364
40
0.72857142857142787
40
0.74285714285714211
40
0.75714285714285634
40
0.77142857142857058
40
0.78571428571428481
40
0.79999999999999905
40
0.81428571428571328
40
0.82857142857142752
40
0.84285714285714175
40
0.85714285714285599
40
0.87142857142857022
40
0.88571428571428445
40
0.89999999999999869
40
0.91428571428571292
40
0.92857142857142716
40
0.94285714285714139
40
0.95714285714285563
40
0.97142857142856986
40
0.9857142857142841
40
1
40
1
40
1
40
1
40
1
40
1
41
1
41
1
41
1
41
1
41
1
41
1
41
1
41
1
41
1
41
1
41
1
41
1
41
1
41
1
41
1
41
1
41
1
41
1
41
1
41
1
41
1
41
1
41
1
41
1
41
1
41
1
41
1
41
1
41
1
41
1
41
1
41
1
41
1
41
1
41
1
41
1
41
1
41
1
41
1
41
1
41
1
41
1
41
1
41
1
41
1
41
1
41
1
41
1
41
1
41
1
41
1
41
1
41
1
41
1
41
1
41
1
41
1
41
1
41
1
41
1
41
1
41
1
41
1
41
1
41
1
41
1
41
1
41
1
41
1
41
1
41
1
41
1
41
1
41
1
41
1
10
1121.7844887876699
20
-424.63759101639789
30
0
10
1121.8141291392169
20
-424.59656309991988
30
0
10
1121.8722201706096
20
-424.51376080488495
30
0
10
1121.9557877655138
20
-424.38731801490189
30
0
10
1122.0604323176233
20
-424.21447283548781
30
0
10
1122.1820164243697
20
-423.99262235739963
30
0
10
1122.2970047891042
20
-423.76662219759203
30
0
10
1122.4079718647172
20
-423.53809115391323
30
0
10
1122.5167752215359
20
-423.30820998664416
30
0
10
1122.6240746437254
20
-423.0774227263837
30
0
10
1122.7297563688269
20
-422.84569621123023
30
0
10
1122.8332484332641
20
-422.61271237807188
30
0
10
1122.9338572993231
20
-422.37807389050863
30
0
10
1123.0311431659873
20
-422.14153310005179
30
0
10
1123.1251202711755
20
-421.90311470167211
30
0
10
1123.2160628921986
20
-421.66299866023138
30
0
10
1123.3043888615543
20
-421.42145029570429
30
0
10
1123.3905229007426
20
-421.17873802180702
30
0
10
1123.474743218213
20
-420.93504108290767
30
0
10
1123.5571291847543
20
-420.69041813629065
30
0
10
1123.637644907318
20
-420.444857701567
30
0
10
1123.7161900602182
20
-420.19830888265574
30
0
10
1123.7926590369079
20
-419.95071709722316
30
0
10
1123.8670085611195
20
-419.70206491196672
30
0
10
1123.9392717699614
20
-419.45238058433409
30
0
10
1124.0095240214127
20
-419.20171748145043
30
0
10
1124.0778616381599
20
-418.95014130157784
30
0
10
1124.1443774582563
20
-418.69771536629162
30
0
10
1124.2091326196103
20
-418.44448364324791
30
0
10
1124.2721536988945
20
-418.1904690448531
30
0
10
1124.3334469859847
20
-417.93568205112058
30
0
10
1124.3930079292309
20
-417.68012642105566
30
0
10
1124.4508316988008
20
-417.42380557580253
30
0
10
1124.5069254695875
20
-417.16673001741697
30
0
10
1124.5613091184009
20
-416.90891775989343
30
0
10
1124.6140093958738
20
-416.65039082419764
30
0
10
1124.6650560009609
20
-416.39117287840963
30
0
10
1124.7144772452677
20
-416.13128662981956
30
0
10
1124.7622949965178
20
-415.87075077825216
30
0
10
1124.8085245612601
20
-415.60957995692769
30
0
10
1124.853177192804
20
-415.34778625989793
30
0
10
1124.896261847121
20
-415.08538031296268
30
0
10
1124.9377870986398
20
-414.82237243885811
30
0
10
1124.977763399952
20
-414.55877403035635
30
0
10
1125.0162032215762
20
-414.29459763169683
30
0
10
1125.0531199957848
20
-414.02985629159895
30
0
10
1125.088527415807
20
-413.7645631287395
30
0
10
1125.1224386658232
20
-413.49873085713165
30
0
10
1125.1548655262518
20
-413.23237122388883
30
0
10
1125.1858182970968
20
-412.96549498319666
30
0
10
1125.2153062810992
20
-412.69811223357408
30
0
10
1125.2433381218013
20
-412.43023266026904
30
0
10
1125.2699221772621
20
-412.16186579295703
30
0
10
1125.2950669726961
20
-411.89302132669786
30
0
10
1125.31878128483
20
-411.62370914693327
30
0
10
1125.3410738930957
20
-411.35393909244749
30
0
10
1125.3619534275699
20
-411.083720784305
30
0
10
1125.3814282032158
20
-410.81306345540037
30
0
10
1125.3995060319933
20
-410.54197572303877
30
0
10
1125.4161941938619
20
-410.27046560604686
30
0
10
1125.4314996193104
20
-409.99854085734705
30
0
10
1125.4454290343458
20
-409.7262092350179
30
0
10
1125.4579891144642
20
-409.45347876758103
30
0
10
1125.4691866833166
20
-409.18035810566312
30
0
10
1125.4790287759492
20
-408.90685657539103
30
0
10
1125.4875223818358
20
-408.63298355656912
30
0
10
1125.4946742612001
20
-408.35874799252912
30
0
10
1125.5004907430348
20
-408.08415786809087
30
0
10
1125.5049775372433
20
-407.80921965958134
30
0
10
1125.5081395592874
20
-407.53393792666475
30
0
10
1125.509980820123
20
-407.25831569017635
30
0
10
1125.5103996151961
20
-407.03754690495782
30
0
10
1125.5101215597933
20
-406.8718182466742
30
0
10
1125.509673098403
20
-406.7612649104388
30
0
10
1125.509383094927
20
-406.70597135131561
30
0
0
ARC
5
346
100
AcDbEntity
8
0
100
AcDbCircle
10
1067.2950945004955
20
-500.03922696497176
30
0
40
109.9999999999993
210
0
220
-0
230
1
100
AcDbArc
50
58.047177106242643
51
61.952822893757485
0
SPLINE
5
347
100
AcDbEntity
8
0
100
AcDbSpline
70
4
71
5
72
81
73
75
74
0
42
0.000000001
43
0.0000000001
44
0.0000000001
40
-1
40
-1
40
-1
40
-1
40
-1
40
-1
40
-0.9857142857142841
40
-0.97142857142856986
40
-0.95714285714285563
40
-0.94285714285714139
40
-0.92857142857142716
40
-0.91428571428571292
40
-0.89999999999999869
40
-0.88571428571428445
40
-0.87142857142857022
40
-0.85714285714285599
40
-0.84285714285714175
40
-0.82857142857142752
40
-0.81428571428571328
40
-0.79999999999999905
40
-0.78571428571428481
40
-0.77142857142857058
40
-0.75714285714285634
40
-0.74285714285714211
40
-0.72857142857142787
40
-0.71428571428571364
40
-0.6999999999999994
40
-0.68571428571428517
40
-0.67142857142857093
40
-0.6571428571428567
40
-0.64285714285714246
40
-0.62857142857142823
40
-0.61428571428571399
40
-0.59999999999999976
40
-0.58571428571428552
40
-0.57142857142857129
40
-0.55714285714285705
40
-0.54285714285714282
40
-0.52857142857142858
40
-0.51428571428571435
40
-0.50000000000000011
40
-0.48571428571428582
40
-0.47142857142857153
40
-0.45714285714285724
40
-0.44285714285714295
40
-0.42857142857142866
40
-0.41428571428571437
40
-0.40000000000000008
40
-0.38571428571428579
40
-0.3714285714285715
40
-0.35714285714285721
40
-0.34285714285714292
40
-0.32857142857142863
40
-0.31428571428571433
40
-0.30000000000000004
40
-0.28571428571428575
40
-0.27142857142857146
40
-0.25714285714285717
40
-0.24285714285714291
40
-0.22857142857142862
40
-0.21428571428571433
40
-0.20000000000000004
40
-0.18571428571428575
40
-0.17142857142857146
40
-0.15714285714285717
40
-0.14285714285714288
40
-0.12857142857142859
40
-0.1142857142857143
40
-0.10000000000000001
40
-0.085714285714285715
40
-0.071428571428571425
40
-0.057142857142857141
40
-0.042857142857142858
40
-0.028571428571428571
40
-0.014285714285714285
40
0
40
0
40
0
40
0
40
0
40
0
41
1
41
1
41
1
41
1
41
1
41
1
41
1
41
1
41
1
41
1
41
1
41
1
41
1
41
1
41
1
41
1
41
1
41
1
41
1
41
1
41
1
41
1
41
1
41
1
41
1
41
1
41
1
41
1
41
1
41
1
41
1
41
1
41
1
41
1
41
1
41
1
41
1
41
1
41
1
41
1
41
1
41
1
41
1
41
1
41
1
41
1
41
1
41
1
41
1
41
1
41
1
41
1
41
1
41
1
41
1
41
1
41
1
41
1
41
1
41
1
41
1
41
1
41
1
41
1
41
1
41
1
41
1
41
1
41
1
41
1
41
1
41
1
41
1
41
1
41
1
10
1119.0169205826126
20
-402.95754637212718
30
0
10
1118.9688899540081
20
-402.98494200131137
30
0
10
1118.87292372566
20
-403.03983029047242
30
0
10
1118.7292594697499
20
-403.12245381657192
30
0
10
1118.5382774909244
20
-403.23320089635331
30
0
10
1118.3005022626955
20
-403.37260659325625
30
0
10
1118.063682299814
20
-403.51298585113193
30
0
10
1117.827822223878
20
-403.65434063315308
30
0
10
1117.5929284414035
20
-403.79667291640146
30
0
10
1117.3590094160058
20
-403.93998440763596
30
0
10
1117.1260752272381
20
-404.08427659551421
30
0
10
1116.8941370003652
20
-404.2295508628967
30
0
10
1116.6632063532718
20
-404.37580857294233
30
0
10
1116.4332948801448
20
-404.52305115511695
30
0
10
1116.2044134844716
20
-404.67128019356204
30
0
10
1115.9765724569043
20
-404.82049745516611
30
0
10
1115.7497818791389
20
-404.9707048857826
30
0
10
1115.5240519306481
20
-405.1219046109299
30
0
10
1115.2993931959193
20
-405.27409892582477
30
0
10
1115.0758170437373
20
-405.42729028716985
30
0
10
1114.8533356275052
20
-405.58148127948743
30
0
10
1114.6319615943476
20
-405.73667456611082
30
0
10
1114.4117078546171
20
-405.89287283085929
30
0
10
1114.1925873577213
20
-406.05007873187992
30
0
10
1113.9746127624353
20
-406.20829480469536
30
0
10
1113.7577965007295
20
-406.36752352275897
30
0
10
1113.5421512820462
20
-406.52776752897444
30
0
10
1113.3276905033294
20
-406.68902983049202
30
0
10
1113.1144286279796
20
-406.85131397028408
30
0
10
1112.9023817195041
20
-407.01462427693565
30
0
10
1112.6915673806516
20
-407.17896581127468
30
0
10
1112.4820038191442
20
-407.3443438726481
30
0
10
1112.2737090516407
20
-407.51076356938472
30
0
10
1112.0667001770303
20
-407.67822942915086
30
0
10
1111.8609922880385
20
-407.84674480777034
30
0
10
1111.6565986116323
20
-408.01631196954793
30
0
10
1111.453532828009
20
-408.18693335768296
30
0
10
1111.2518110375802
20
-408.35861267080105
30
0
10
1111.0514535663604
20
-408.53135584815232
30
0
10
1110.8524875427345
20
-408.7051724778288
30
0
10
1110.6549467875959
20
-408.88007572475476
30
0
10
1110.4588666475802
20
-409.05607947493928
30
0
10
1110.2642795687195
20
-409.23319588462743
30
0
10
1110.0712110899958
20
-409.41143316064421
30
0
10
1109.8796738939027
20
-409.59079226560129
30
0
10
1109.6896685283214
20
-409.77126730616902
30
0
10
1109.5011959728215
20
-409.95285246100048
30
0
10
1109.3142684482987
20
-410.13554793728105
30
0
10
1109.1289190858149
20
-410.31936529488109
30
0
10
1108.9452165314317
20
-410.50433549695447
30
0
10
1108.7632620422687
20
-410.69050728282633
30
0
10
1108.583160676033
20
-410.87793122125879
30
0
10
1108.4049963290001
20
-411.06664589061353
30
0
10
1108.2288100413921
20
-411.25666585974443
30
0
10
1108.054565077392
20
-411.44796236695578
30
0
10
1107.8821613640387
20
-411.64047124546187
30
0
10
1107.7115046611905
20
-411.8341310587104
30
0
10
1107.5425670800144
20
-412.02891646260423
30
0
10
1107.3754391046032
20
-412.22486686562041
30
0
10
1107.2104150693581
20
-412.42213358115998
30
0
10
1107.0479397881259
20
-412.62095022197309
30
0
10
1106.8884519509934
20
-412.82154598163009
30
0
10
1106.7322445507587
20
-413.02406840881883
30
0
10
1106.5793460928528
20
-413.22851748645348
30
0
10
1106.4293222068852
20
-413.43463615992539
30
0
10
1106.2814820205826
20
-413.64202247615583
30
0
10
1106.1352641014221
20
-413.85034013171344
30
0
10
1105.9905828491246
20
-414.05950718637001
30
0
10
1105.848152697552
20
-414.26987301467392
30
0
10
1105.7099250002666
20
-414.48245593957751
30
0
10
1105.5785889037738
20
-414.69867610376048
30
0
10
1105.481222863534
20
-414.87572353396195
30
0
10
1105.4135039927355
20
-415.01131658907377
30
0
10
1105.3708406174401
20
-415.10302604550924
30
0
10
1105.3501295752792
20
-415.14920930116494
30
0
0
LINE
5
348
100
AcDbEntity
8
0
100
AcDbLine
10
1105.350129575279
20
-415.149209301165
30
0
11
1104.7455029520079
21
-416.49745753038485
31
0
0
ARC
5
349
100
AcDbEntity
8
0
100
AcDbCircle
10
1099.2708100509626
20
-414.04231239429953
30
0
40
5.9999999999999751
210
0
220
0
230
1
100
AcDbArc
50
249.60365839939143
51
335.8459842282187
0
ARC
5
350
100
AcDbEntity
8
0
100
AcDbCircle
10
1067.2950945004955
20
-500.03922696497176
30
0
40
85.749199999999462
210
0
220
-0
230
1
100
AcDbArc
50
69.60365839939
51
70.396341600609929
0
ARC
5
351
100
AcDbEntity
8
0
100
AcDbCircle
10
1098.0780264456068
20
-413.60817466602919
30
0
40
5.9999999999999716
210
0
220
0
230
1
100
AcDbArc
50
164.15401577178127
51
250.39634160061067
0
LINE
5
352
100
AcDbEntity
8
0
100
AcDbLine
10
1092.3060314975203
20
-411.96986019094714
30
0
11
1092.7094978891259
21
-410.54839562508306
31
0
0
SPLINE
5
353
100
AcDbEntity
8
0
100
AcDbSpline
70
4
71
5
72
81
73
75
74
0
42
0.000000001
43
0.0000000001
44
0.0000000001
40
0
40
0
40
0
40
0
40
0
40
0
40
0.014285714285714285
40
0.028571428571428571
40
0.042857142857142858
40
0.057142857142857141
40
0.071428571428571425
40
0.085714285714285715
40
0.10000000000000001
40
0.1142857142857143
40
0.12857142857142859
40
0.14285714285714288
40
0.15714285714285717
40
0.17142857142857146
40
0.18571428571428575
40
0.20000000000000004
40
0.21428571428571433
40
0.22857142857142862
40
0.24285714285714291
40
0.25714285714285717
40
0.27142857142857146
40
0.28571428571428575
40
0.30000000000000004
40
0.31428571428571433
40
0.32857142857142863
40
0.34285714285714292
40
0.35714285714285721
40
0.3714285714285715
40
0.38571428571428579
40
0.40000000000000008
40
0.41428571428571437
40
0.42857142857142866
40
0.44285714285714295
40
0.45714285714285724
40
0.47142857142857153
40
0.48571428571428582
40
0.50000000000000011
40
0.51428571428571435
40
0.52857142857142858
40
0.54285714285714282
40
0.55714285714285705
40
0.57142857142857129
40
0.58571428571428552
40
0.59999999999999976
40
0.61428571428571399
40
0.62857142857142823
40
0.64285714285714246
40
0.6571428571428567
40
0.67142857142857093
40
0.68571428571428517
40
0.6999999999999994
40
0.71428571428571364
40
0.72857142857142787
40
0.74285714285714211
40
0.75714285714285634
40
0.77142857142857058
40
0.78571428571428481
40
0.79999999999999905
40
0.81428571428571328
40
0.82857142857142752
40
0.84285714285714175
40
0.85714285714285599
40
0.87142857142857022
40
0.88571428571428445
40
0.89999999999999869
40
0.91428571428571292
40
0.92857142857142716
40
0.94285714285714139
40
0.95714285714285563
40
0.97142857142856986
40
0.9857142857142841
40
1
40
1
40
1
40
1
40
1
40
1
41
1
41
1
41
1
41
1
41
1
41
1
41
1
41
1
41
1
41
1
41
1
41
1
41
1
41
1
41
1
41
1
41
1
41
1
41
1
41
1
41
1
41
1
41
1
41
1
41
1
41
1
41
1
41
1
41
1
41
1
41
1
41
1
41
1
41
1
41
1
41
1
41
1
41
1
41
1
41
1
41
1
41
1
41
1
41
1
41
1
41
1
41
1
41
1
41
1
41
1
41
1
41
1
41
1
41
1
41
1
41
1
41
1
41
1
41
1
41
1
41
1
41
1
41
1
41
1
41
1
41
1
41
1
41
1
41
1
41
1
41
1
41
1
41
1
41
1
41
1
10
1092.7094978891259
20
-410.548395625083
30
0
10
1092.7233183348781
20
-410.49970439743811
30
0
10
1092.7495859955959
20
-410.4020273889268
30
0
10
1092.7848678667119
20
-410.25462823144164
30
0
10
1092.8240850470982
20
-410.05641634709707
30
0
10
1092.8624594027001
20
-409.80636087630421
30
0
10
1092.8932165134684
20
-409.55466185684929
30
0
10
1092.9193292352588
20
-409.30195994637819
30
0
10
1092.9429469570007
20
-409.04872937014437
30
0
10
1092.9648415404147
20
-408.7951617209502
30
0
10
1092.9848947417192
20
-408.54126474585399
30
0
10
1093.0024603069714
20
-408.28693518636078
30
0
10
1093.0167506268467
20
-408.0320368722559
30
0
10
1093.0272677228033
20
-407.77648751088873
30
0
10
1093.0340334202863
20
-407.5203054382859
30
0
10
1093.0373670072684
20
-407.26356595773501
30
0
10
1093.0377518626401
20
-407.00637548132755
30
0
10
1093.0356788969584
20
-406.7488409721438
30
0
10
1093.0314708458352
20
-406.49103571189971
30
0
10
1093.0252223553875
20
-406.23298767400433
30
0
10
1093.0168957706587
20
-405.9746983465663
30
0
10
1093.0063794088569
20
-405.71615421631952
30
0
10
1092.9935553640312
20
-405.45734011221396
30
0
10
1092.978377007252
20
-405.19825445365916
30
0
10
1092.960885141832
20
-404.93891246041159
30
0
10
1092.94116883374
20
-404.67933850721812
30
0
10
1092.919341066822
20
-404.41956138595185
30
0
10
1092.8955107375664
20
-404.15960884694579
30
0
10
1092.8697503346384
20
-403.89950129588527
30
0
10
1092.8420926684457
20
-403.63925117363249
30
0
10
1092.8125472339143
20
-403.37886617691436
30
0
10
1092.7811110395473
20
-403.11835139479638
30
0
10
1092.7477807168875
20
-402.85771169400243
30
0
10
1092.7125666000434
20
-402.59695448927891
30
0
10
1092.6754935282552
20
-402.33608990997419
30
0
10
1092.6365941705099
20
-402.07512949977195
30
0
10
1092.5959045296552
20
-401.81408534175142
30
0
10
1092.5534589762492
20
-401.55296909064651
30
0
10
1092.509284454947
20
-401.29179083934241
30
0
10
1092.4634003540555
20
-401.03055910342005
30
0
10
1092.415821384636
20
-400.76928139871256
30
0
10
1092.3665595967864
20
-400.50796464708242
30
0
10
1092.315626578418
20
-400.24661561610168
30
0
10
1092.2630360483113
20
-399.98524143647722
30
0
10
1092.2088040153033
20
-399.72384963076968
30
0
10
1092.1529475645254
20
-399.46244786665687
30
0
10
1092.095484050257
20
-399.20104378830212
30
0
10
1092.0364302100231
20
-398.93964483371457
30
0
10
1091.975801131545
20
-398.67825801242964
30
0
10
1091.9136101718093
20
-398.41688990726732
30
0
10
1091.8498695264295
20
-398.1555468260068
30
0
10
1091.7845906302284
20
-397.89423491353807
30
0
10
1091.7177845965537
20
-397.63296026620264
30
0
10
1091.6494627523919
20
-397.37172907858155
30
0
10
1091.5796367261887
20
-397.11054763813411
30
0
10
1091.5083181329737
20
-396.84942218755066
30
0
10
1091.4355183729645
20
-396.58835881601448
30
0
10
1091.3612484175064
20
-396.32736335572349
30
0
10
1091.2855185547323
20
-396.06644123244826
30
0
10
1091.2083383681666
20
-395.8055974915282
30
0
10
1091.1297170219946
20
-395.5448370479603
30
0
10
1091.0496634900139
20
-395.28416489152414
30
0
10
1090.9681867910558
20
-395.02358628340795
30
0
10
1090.8852962959427
20
-394.76310701871569
30
0
10
1090.8010018051793
20
-394.50273345501245
30
0
10
1090.7153130948041
20
-394.24247201589048
30
0
10
1090.6282395761498
20
-393.98232879319977
30
0
10
1090.5397899274924
20
-393.72230912557376
30
0
10
1090.4499717294211
20
-393.46241714586699
30
0
10
1090.3587911604554
20
-393.20265545757536
30
0
10
1090.2662530228483
20
-392.94302552752777
30
0
10
1090.1911391899257
20
-392.73542749280722
30
0
10
1090.1341953638564
20
-392.57978859611404
30
0
10
1090.0959624800928
20
-392.47605582467935
30
0
10
1090.07677845495
20
-392.42419606222472
30
0
0
ARC
5
354
100
AcDbEntity
8
0
100
AcDbCircle
10
1067.2950945004955
20
-500.03922696497176
30
0
40
109.9999999999993
210
0
220
-0
230
1
100
AcDbArc
50
78.047177106242529
51
81.9528228937574
0
SPLINE
5
355
100
AcDbEntity
8
0
100
AcDbSpline
70
4
71
5
72
81
73
75
74
0
42
0.000000001
43
0.0000000001
44
0.0000000001
40
-1
40
-1
40
-1
40
-1
40
-1
40
-1
40
-0.9857142857142841
40
-0.97142857142856986
40
-0.95714285714285563
40
-0.94285714285714139
40
-0.92857142857142716
40
-0.91428571428571292
40
-0.89999999999999869
40
-0.88571428571428445
40
-0.87142857142857022
40
-0.85714285714285599
40
-0.84285714285714175
40
-0.82857142857142752
40
-0.81428571428571328
40
-0.79999999999999905
40
-0.78571428571428481
40
-0.77142857142857058
40
-0.75714285714285634
40
-0.74285714285714211
40
-0.72857142857142787
40
-0.71428571428571364
40
-0.6999999999999994
40
-0.68571428571428517
40
-0.67142857142857093
40
-0.6571428571428567
40
-0.64285714285714246
40
-0.62857142857142823
40
-0.61428571428571399
40
-0.59999999999999976
40
-0.58571428571428552
40
-0.57142857142857129
40
-0.55714285714285705
40
-0.54285714285714282
40
-0.52857142857142858
40
-0.51428571428571435
40
-0.50000000000000011
40
-0.48571428571428582
40
-0.47142857142857153
40
-0.45714285714285724
40
-0.44285714285714295
40
-0.42857142857142866
40
-0.41428571428571437
40
-0.40000000000000008
40
-0.38571428571428579
40
-0.3714285714285715
40
-0.35714285714285721
40
-0.34285714285714292
40
-0.32857142857142863
40
-0.31428571428571433
40
-0.30000000000000004
40
-0.28571428571428575
40
-0.27142857142857146
40
-0.25714285714285717
40
-0.24285714285714291
40
-0.22857142857142862
40
-0.21428571428571433
40
-0.20000000000000004
40
-0.18571428571428575
40
-0.17142857142857146
40
-0.15714285714285717
40
-0.14285714285714288
40
-0.12857142857142859
40
-0.1142857142857143
40
-0.10000000000000001
40
-0.085714285714285715
40
-0.071428571428571425
40
-0.057142857142857141
40
-0.042857142857142858
40
-0.028571428571428571
40
-0.014285714285714285
40
0
40
0
40
0
40
0
40
0
40
0
41
1
41
1
41
1
41
1
41
1
41
1
41
1
41
1
41
1
41
1
41
1
41
1
41
1
41
1
41
1
41
1
41
1
41
1
41
1
41
1
41
1
41
1
41
1
41
1
41
1
41
1
41
1
41
1
41
1
41
1
41
1
41
1
41
1
41
1
41
1
41
1
41
1
41
1
41
1
41
1
41
1
41
1
41
1
41
1
41
1
41
1
41
1
41
1
41
1
41
1
41
1
41
1
41
1
41
1
41
1
41
1
41
1
41
1
41
1
41
1
41
1
41
1
41
1
41
1
41
1
41
1
41
1
41
1
41
1
41
1
41
1
41
1
41
1
41
1
41
1
10
1082.6938224927715
20
-391.12238172871014
30
0
10
1082.6580583225202
20
-391.16455264177557
30
0
10
1082.5866524664225
20
-391.2489531452419
30
0
10
1082.4799111355119
20
-391.37572993241804
30
0
10
1082.3383245114062
20
-391.54511782983263
30
0
10
1082.1625684404689
20
-391.75744025214601
30
0
10
1081.9880430027929
20
-391.97035080253039
30
0
10
1081.8147532127045
20
-392.18384974508473
30
0
10
1081.6427057665612
20
-392.39793674650122
30
0
10
1081.4719092013061
20
-392.61261051588116
30
0
10
1081.302373497771
20
-392.82786900469523
30
0
10
1081.134109583252
20
-393.04370970734237
30
0
10
1080.9671288412173
20
-393.26012993122248
30
0
10
1080.8014426555449
20
-393.47712705414858
30
0
10
1080.6370618139697
20
-393.69469883551432
30
0
10
1080.4739965908527
20
-393.9128434160416
30
0
10
1080.312257125411
20
-394.1315591760914
30
0
10
1080.1518537101897
20
-394.35084463141288
30
0
10
1079.9927970763633
20
-394.57069831869637
30
0
10
1079.8350987473377
20
-394.791118658134
30
0
10
1079.6787710275344
20
-395.01210392167343
30
0
10
1079.5238267122766
20
-395.23365228645821
30
0
10
1079.370278851248
20
-395.4557618588525
30
0
10
1079.2181405220508
20
-395.67843070773955
30
0
10
1079.0674244872425
20
-395.90165688617498
30
0
10
1078.9181432750249
20
-396.12543846646048
30
0
10
1078.7703097322933
20
-396.34977358522798
30
0
10
1078.6239374765632
20
-396.57466048624934
30
0
10
1078.479041310753
20
-396.8000975520556
30
0
10
1078.3356378100857
20
-397.02608335614286
30
0
10
1078.1937452466391
20
-397.25261663363943
30
0
10
1078.0533825425591
20
-397.47969613689452
30
0
10
1077.9145683751176
20
-397.70732050410686
30
0
10
1077.7773203605684
20
-397.93548814172658
30
0
10
1077.6416538291935
20
-398.16419704118039
30
0
10
1077.5075819847136
20
-398.3934448063298
30
0
10
1077.3751185179331
20
-398.62322905412782
30
0
10
1077.2442798232939
20
-398.85354775348094
30
0
10
1077.1150870323456
20
-399.08439953355207
30
0
10
1076.9875689167518
20
-399.31578412574623
30
0
10
1076.8617617604255
20
-399.54770233361921
30
0
10
1076.7377035276338
20
-399.78015511648982
30
0
10
1076.6154288653552
20
-400.0131428002951
30
0
10
1076.4949645792813
20
-400.24666436208184
30
0
10
1076.3763229162907
20
-400.48071636874079
30
0
10
1076.259502375586
20
-400.71529309496702
30
0
10
1076.1445018866434
20
-400.95038873545138
30
0
10
1076.0313330042097
20
-401.18599930509208
30
0
10
1075.9200308150084
20
-401.42212433512321
30
0
10
1075.8106704152592
20
-401.65876944305631
30
0
10
1075.7033636253609
20
-401.89594579690089
30
0
10
1075.5982264628012
20
-402.13366498389752
30
0
10
1075.4953509588677
20
-402.37193456163192
30
0
10
1075.3947806615956
20
-402.61075418376601
30
0
10
1075.2964712135297
20
-402.85010938753567
30
0
10
1075.2003066305138
20
-403.08997410285451
30
0
10
1075.1061773432432
20
-403.33032283027455
30
0
10
1075.0140484765961
20
-403.57114129267751
30
0
10
1074.9240185362996
20
-403.81243557453564
30
0
10
1074.8364158584495
20
-404.05424719564161
30
0
10
1074.7517383316019
20
-404.29664354487699
30
0
10
1074.670476578412
20
-404.53968995290234
30
0
10
1074.5929563866732
20
-404.78342486069209
30
0
10
1074.5192045368849
20
-405.0278385027591
30
0
10
1074.4487249365425
20
-405.27283789020777
30
0
10
1074.3807309020192
20
-405.5182816029299
30
0
10
1074.3145798367684
20
-405.76404564030491
30
0
10
1074.2501632776311
20
-406.01008228072453
30
0
10
1074.1882720659682
20
-406.25647547810195
30
0
10
1074.1310881612849
20
-406.50351474077615
30
0
10
1074.0816242521116
20
-406.75161482407026
30
0
10
1074.0506838900362
20
-406.95128613479761
30
0
10
1074.0334245230022
20
-407.10186314601231
30
0
10
1074.0247005454935
20
-407.20263357921431
30
0
10
1074.0210341357247
20
-407.25311523736616
30
0
0
LINE
5
356
100
AcDbEntity
8
0
100
AcDbLine
10
1074.0210341357247
20
-407.25311523736605
30
0
11
1073.9139990121025
21
-408.72684863370148
31
0
0
ARC
5
357
100
AcDbEntity
8
0
100
AcDbCircle
10
1067.929761400592
20
-408.2922221170432
30
0
40
5.9999999999999707
210
0
220
0
230
1
100
AcDbArc
50
269.60365839938925
51
355.84598422821858
0
ARC
5
358
100
AcDbEntity
8
0
100
AcDbCircle
10
1067.2950945004955
20
-500.03922696497176
30
0
40
85.749199999999519
210
0
220
-0
230
1
100
AcDbArc
50
89.603658399390184
51
90.396341600609986
0
ARC
5
359
100
AcDbEntity
8
0
100
AcDbCircle
10
1066.6604276003986
20
-408.2922221170432
30
0
40
5.9999999999999867
210
0
220
0
230
1
100
AcDbArc
50
184.15401577178145
51
270.39634160061075
0
LINE
5
360
100
AcDbEntity
8
0
100
AcDbLine
10
1060.6761899888882
20
-408.72684863370148
30
0
11
1060.569154865266
21
-407.25311523736622
31
0
0
SPLINE
5
361
100
AcDbEntity
8
0
100
AcDbSpline
70
4
71
5
72
81
73
75
74
0
42
0.000000001
43
0.0000000001
44
0.0000000001
40
0
40
0
40
0
40
0
40
0
40
0
40
0.014285714285714285
40
0.028571428571428571
40
0.042857142857142858
40
0.057142857142857141
40
0.071428571428571425
40
0.085714285714285715
40
0.10000000000000001
40
0.1142857142857143
40
0.12857142857142859
40
0.14285714285714288
40
0.15714285714285717
40
0.17142857142857146
40
0.18571428571428575
40
0.20000000000000004
40
0.21428571428571433
40
0.22857142857142862
40
0.24285714285714291
40
0.25714285714285717
40
0.27142857142857146
40
0.28571428571428575
40
0.30000000000000004
40
0.31428571428571433
40
0.32857142857142863
40
0.34285714285714292
40
0.35714285714285721
40
0.3714285714285715
40
0.38571428571428579
40
0.40000000000000008
40
0.41428571428571437
40
0.42857142857142866
40
0.44285714285714295
40
0.45714285714285724
40
0.47142857142857153
40
0.48571428571428582
40
0.50000000000000011
40
0.51428571428571435
40
0.52857142857142858
40
0.54285714285714282
40
0.55714285714285705
40
0.57142857142857129
40
0.58571428571428552
40
0.59999999999999976
40
0.61428571428571399
40
0.62857142857142823
40
0.64285714285714246
40
0.6571428571428567
40
0.67142857142857093
40
0.68571428571428517
40
0.6999999999999994
40
0.71428571428571364
40
0.72857142857142787
40
0.74285714285714211
40
0.75714285714285634
40
0.77142857142857058
40
0.78571428571428481
40
0.79999999999999905
40
0.81428571428571328
40
0.82857142857142752
40
0.84285714285714175
40
0.85714285714285599
40
0.87142857142857022
40
0.88571428571428445
40
0.89999999999999869
40
0.91428571428571292
40
0.92857142857142716
40
0.94285714285714139
40
0.95714285714285563
40
0.97142857142856986
40
0.9857142857142841
40
1
40
1
40
1
40
1
40
1
40
1
41
1
41
1
41
1
41
1
41
1
41
1
41
1
41
1
41
1
41
1
41
1
41
1
41
1
41
1
41
1
41
1
41
1
41
1
41
1
41
1
41
1
41
1
41
1
41
1
41
1
41
1
41
1
41
1
41
1
41
1
41
1
41
1
41
1
41
1
41
1
41
1
41
1
41
1
41
1
41
1
41
1
41
1
41
1
41
1
41
1
41
1
41
1
41
1
41
1
41
1
41
1
41
1
41
1
41
1
41
1
41
1
41
1
41
1
41
1
41
1
41
1
41
1
41
1
41
1
41
1
41
1
41
1
41
1
41
1
41
1
41
1
41
1
41
1
41
1
41
1
10
1060.569154865266
20
-407.25311523736616
30
0
10
1060.5654884554972
20
-407.20263357921431
30
0
10
1060.5567644779885
20
-407.10186314601231
30
0
10
1060.5395051109545
20
-406.95128613479761
30
0
10
1060.5085647488793
20
-406.75161482407026
30
0
10
1060.4591008397058
20
-406.50351474077615
30
0
10
1060.4019169350227
20
-406.25647547810195
30
0
10
1060.3400257233598
20
-406.01008228072453
30
0
10
1060.2756091642225
20
-405.76404564030491
30
0
10
1060.2094580989715
20
-405.5182816029299
30
0
10
1060.1414640644484
20
-405.27283789020777
30
0
10
1060.070984464106
20
-405.0278385027591
30
0
10
1059.9972326143177
20
-404.78342486069209
30
0
10
1059.9197124225786
20
-404.53968995290234
30
0
10
1059.8384506693887
20
-404.29664354487699
30
0
10
1059.7537731425409
20
-404.05424719564161
30
0
10
1059.666170464691
20
-403.81243557453564
30
0
10
1059.5761405243948
20
-403.57114129267751
30
0
10
1059.4840116577475
20
-403.33032283027455
30
0
10
1059.3898823704769
20
-403.08997410285451
30
0
10
1059.293717787461
20
-402.85010938753567
30
0
10
1059.1954083393953
20
-402.61075418376601
30
0
10
1059.0948380421232
20
-402.37193456163192
30
0
10
1058.9919625381895
20
-402.13366498389757
30
0
10
1058.8868253756298
20
-401.89594579690089
30
0
10
1058.7795185857315
20
-401.65876944305631
30
0
10
1058.6701581859822
20
-401.42212433512321
30
0
10
1058.5588559967809
20
-401.18599930509208
30
0
10
1058.4456871143475
20
-400.95038873545138
30
0
10
1058.3306866254047
20
-400.71529309496702
30
0
10
1058.2138660847002
20
-400.48071636874079
30
0
10
1058.0952244217094
20
-400.24666436208184
30
0
10
1057.9747601356357
20
-400.0131428002951
30
0
10
1057.8524854733569
20
-399.78015511648982
30
0
10
1057.7284272405655
20
-399.54770233361921
30
0
10
1057.6026200842389
20
-399.31578412574623
30
0
10
1057.475101968645
20
-399.08439953355207
30
0
10
1057.3459091776967
20
-398.853547753481
30
0
10
1057.2150704830576
20
-398.62322905412782
30
0
10
1057.0826070162773
20
-398.3934448063298
30
0
10
1056.9485351717972
20
-398.16419704118039
30
0
10
1056.8128686404223
20
-397.93548814172658
30
0
10
1056.6756206258733
20
-397.70732050410686
30
0
10
1056.5368064584318
20
-397.47969613689452
30
0
10
1056.3964437543516
20
-397.25261663363943
30
0
10
1056.254551190905
20
-397.02608335614292
30
0
10
1056.1111476902379
20
-396.8000975520556
30
0
10
1055.9662515244277
20
-396.57466048624934
30
0
10
1055.8198792686976
20
-396.34977358522798
30
0
10
1055.672045725966
20
-396.12543846646048
30
0
10
1055.5227645137484
20
-395.90165688617503
30
0
10
1055.3720484789401
20
-395.67843070773955
30
0
10
1055.2199101497426
20
-395.4557618588525
30
0
10
1055.0663622887141
20
-395.23365228645821
30
0
10
1054.9114179734563
20
-395.01210392167343
30
0
10
1054.755090253653
20
-394.791118658134
30
0
10
1054.5973919246273
20
-394.57069831869637
30
0
10
1054.4383352908012
20
-394.35084463141288
30
0
10
1054.2779318755797
20
-394.1315591760914
30
0
10
1054.1161924101382
20
-393.9128434160416
30
0
10
1053.9531271870212
20
-393.69469883551432
30
0
10
1053.788746345446
20
-393.47712705414858
30
0
10
1053.6230601597733
20
-393.26012993122248
30
0
10
1053.4560794177389
20
-393.04370970734237
30
0
10
1053.2878155032197
20
-392.82786900469523
30
0
10
1053.1182797996846
20
-392.61261051588116
30
0
10
1052.9474832344297
20
-392.39793674650122
30
0
10
1052.7754357882861
20
-392.18384974508473
30
0
10
1052.602145998198
20
-391.97035080253039
30
0
10
1052.427620560522
20
-391.75744025214601
30
0
10
1052.2518644895845
20
-391.54511782983263
30
0
10
1052.110277865479
20
-391.37572993241804
30
0
10
1052.0035365345682
20
-391.2489531452419
30
0
10
1051.9321306784705
20
-391.16455264177557
30
0
10
1051.8963665082194
20
-391.12238172871014
30
0
0
ARC
5
362
100
AcDbEntity
8
0
100
AcDbCircle
10
1067.2950945004955
20
-500.03922696497176
30
0
40
109.99999999999942
210
0
220
0
230
1
100
AcDbArc
50
98.047177106242586
51
101.95282289375749
0
SPLINE
5
363
100
AcDbEntity
8
0
100
AcDbSpline
70
4
71
5
72
81
73
75
74
0
42
0.000000001
43
0.0000000001
44
0.0000000001
40
-1
40
-1
40
-1
40
-1
40
-1
40
-1
40
-0.9857142857142841
40
-0.97142857142856986
40
-0.95714285714285563
40
-0.94285714285714139
40
-0.92857142857142716
40
-0.91428571428571292
40
-0.89999999999999869
40
-0.88571428571428445
40
-0.87142857142857022
40
-0.85714285714285599
40
-0.84285714285714175
40
-0.82857142857142752
40
-0.81428571428571328
40
-0.79999999999999905
40
-0.78571428571428481
40
-0.77142857142857058
40
-0.75714285714285634
40
-0.74285714285714211
40
-0.72857142857142787
40
-0.71428571428571364
40
-0.6999999999999994
40
-0.68571428571428517
40
-0.67142857142857093
40
-0.6571428571428567
40
-0.64285714285714246
40
-0.62857142857142823
40
-0.61428571428571399
40
-0.59999999999999976
40
-0.58571428571428552
40
-0.57142857142857129
40
-0.55714285714285705
40
-0.54285714285714282
40
-0.52857142857142858
40
-0.51428571428571435
40
-0.50000000000000011
40
-0.48571428571428582
40
-0.47142857142857153
40
-0.45714285714285724
40
-0.44285714285714295
40
-0.42857142857142866
40
-0.41428571428571437
40
-0.40000000000000008
40
-0.38571428571428579
40
-0.3714285714285715
40
-0.35714285714285721
40
-0.34285714285714292
40
-0.32857142857142863
40
-0.31428571428571433
40
-0.30000000000000004
40
-0.28571428571428575
40
-0.27142857142857146
40
-0.25714285714285717
40
-0.24285714285714291
40
-0.22857142857142862
40
-0.21428571428571433
40
-0.20000000000000004
40
-0.18571428571428575
40
-0.17142857142857146
40
-0.15714285714285717
40
-0.14285714285714288
40
-0.12857142857142859
40
-0.1142857142857143
40
-0.10000000000000001
40
-0.085714285714285715
40
-0.071428571428571425
40
-0.057142857142857141
40
-0.042857142857142858
40
-0.028571428571428571
40
-0.014285714285714285
40
0
40
0
40
0
40
0
40
0
40
0
41
1
41
1
41
1
41
1
41
1
41
1
41
1
41
1
41
1
41
1
41
1
41
1
41
1
41
1
41
1
41
1
41
1
41
1
41
1
41
1
41
1
41
1
41
1
41
1
41
1
41
1
41
1
41
1
41
1
41
1
41
1
41
1
41
1
41
1
41
1
41
1
41
1
41
1
41
1
41
1
41
1
41
1
41
1
41
1
41
1
41
1
41
1
41
1
41
1
41
1
41
1
41
1
41
1
41
1
41
1
41
1
41
1
41
1
41
1
41
1
41
1
41
1
41
1
41
1
41
1
41
1
41
1
41
1
41
1
41
1
41
1
41
1
41
1
41
1
41
1
10
1044.5134105460406
20
-392.42419606222472
30
0
10
1044.4942265208981
20
-392.47605582467935
30
0
10
1044.4559936371345
20
-392.57978859611404
30
0
10
1044.3990498110652
20
-392.73542749280722
30
0
10
1044.3239359781423
20
-392.94302552752777
30
0
10
1044.2313978405352
20
-393.2026554575753
30
0
10
1044.1402172715696
20
-393.46241714586699
30
0
10
1044.0503990734985
20
-393.72230912557376
30
0
10
1043.9619494248409
20
-393.98232879319977
30
0
10
1043.8748759061868
20
-394.24247201589048
30
0
10
1043.7891871958116
20
-394.50273345501245
30
0
10
1043.7048927050482
20
-394.76310701871569
30
0
10
1043.6220022099351
20
-395.02358628340795
30
0
10
1043.5405255109767
20
-395.28416489152414
30
0
10
1043.4604719789963
20
-395.5448370479603
30
0
10
1043.3818506328241
20
-395.8055974915282
30
0
10
1043.3046704462586
20
-396.06644123244826
30
0
10
1043.2289405834845
20
-396.32736335572349
30
0
10
1043.1546706280262
20
-396.58835881601448
30
0
10
1043.0818708680172
20
-396.84942218755066
30
0
10
1043.0105522748022
20
-397.11054763813411
30
0
10
1042.9407262485988
20
-397.37172907858155
30
0
10
1042.8724044044372
20
-397.63296026620264
30
0
10
1042.8055983707625
20
-397.89423491353807
30
0
10
1042.7403194745614
20
-398.15554682600668
30
0
10
1042.6765788291814
20
-398.41688990726732
30
0
10
1042.6143878694456
20
-398.67825801242964
30
0
10
1042.5537587909678
20
-398.93964483371457
30
0
10
1042.4947049507336
20
-399.20104378830212
30
0
10
1042.4372414364652
20
-399.46244786665687
30
0
10
1042.3813849856876
20
-399.72384963076968
30
0
10
1042.3271529526796
20
-399.98524143647722
30
0
10
1042.2745624225727
20
-400.24661561610168
30
0
10
1042.2236294042043
20
-400.50796464708242
30
0
10
1042.1743676163546
20
-400.76928139871251
30
0
10
1042.1267886469352
20
-401.03055910342005
30
0
10
1042.0809045460439
20
-401.29179083934241
30
0
10
1042.0367300247417
20
-401.55296909064646
30
0
10
1041.9942844713355
20
-401.81408534175142
30
0
10
1041.9535948304811
20
-402.07512949977195
30
0
10
1041.9146954727355
20
-402.33608990997419
30
0
10
1041.8776224009475
20
-402.59695448927891
30
0
10
1041.8424082841034
20
-402.85771169400243
30
0
10
1041.8090779614433
20
-403.11835139479638
30
0
10
1041.7776417670766
20
-403.37886617691436
30
0
10
1041.7480963325447
20
-403.63925117363243
30
0
10
1041.7204386663525
20
-403.89950129588527
30
0
10
1041.6946782634245
20
-404.15960884694579
30
0
10
1041.6708479341687
20
-404.41956138595185
30
0
10
1041.6490201672509
20
-404.67933850721812
30
0
10
1041.6293038591587
20
-404.93891246041159
30
0
10
1041.6118119937387
20
-405.19825445365916
30
0
10
1041.5966336369595
20
-405.45734011221396
30
0
10
1041.583809592134
20
-405.71615421631952
30
0
10
1041.573293230332
20
-405.9746983465663
30
0
10
1041.5649666456031
20
-406.23298767400433
30
0
10
1041.5587181551555
20
-406.49103571189971
30
0
10
1041.5545101040325
20
-406.7488409721438
30
0
10
1041.5524371383508
20
-407.00637548132755
30
0
10
1041.5528219937225
20
-407.26356595773501
30
0
10
1041.5561555807044
20
-407.5203054382859
30
0
10
1041.5629212781873
20
-407.77648751088873
30
0
10
1041.573438374144
20
-408.0320368722559
30
0
10
1041.5877286940192
20
-408.28693518636078
30
0
10
1041.6052942592714
20
-408.54126474585399
30
0
10
1041.625347460576
20
-408.7951617209502
30
0
10
1041.64724204399
20
-409.04872937014437
30
0
10
1041.6708597657321
20
-409.30195994637819
30
0
10
1041.6969724875225
20
-409.55466185684929
30
0
10
1041.7277295982908
20
-409.80636087630421
30
0
10
1041.7661039538925
20
-410.05641634709707
30
0
10
1041.805321134279
20
-410.25462823144164
30
0
10
1041.8406030053948
20
-410.4020273889268
30
0
10
1041.8668706661128
20
-410.49970439743811
30
0
10
1041.8806911118647
20
-410.548395625083
30
0
0
LINE
5
364
100
AcDbEntity
8
0
100
AcDbLine
10
1041.880691111865
20
-410.54839562508289
30
0
11
1042.2841575034706
21
-411.96986019094714
31
0
0
ARC
5
365
100
AcDbEntity
8
0
100
AcDbCircle
10
1036.5121625553841
20
-413.60817466602919
30
0
40
5.9999999999999378
210
-0
220
0
230
1
100
AcDbArc
50
-70.396341600610313
51
15.845984228218734
0
ARC
5
366
100
AcDbEntity
8
0
100
AcDbCircle
10
1067.2950945004955
20
-500.03922696497176
30
0
40
85.749199999999547
210
0
220
0
230
1
100
AcDbArc
50
109.60365839939006
51
110.39634160060996
0
ARC
5
367
100
AcDbEntity
8
0
100
AcDbCircle
10
1035.3193789500281
20
-414.04231239429947
30
0
40
5.9999999999999698
210
0
220
0
230
1
100
AcDbArc
50
204.15401577178179
51
290.39634160061098
0
LINE
5
368
100
AcDbEntity
8
0
100
AcDbLine
10
1029.8446860489828
20
-416.49745753038485
30
0
11
1029.2400594257115
21
-415.14920930116483
31
0
0
SPLINE
5
369
100
AcDbEntity
8
0
100
AcDbSpline
70
4
71
5
72
81
73
75
74
0
42
0.000000001
43
0.0000000001
44
0.0000000001
40
0
40
0
40
0
40
0
40
0
40
0
40
0.014285714285714285
40
0.028571428571428571
40
0.042857142857142858
40
0.057142857142857141
40
0.071428571428571425
40
0.085714285714285715
40
0.10000000000000001
40
0.1142857142857143
40
0.12857142857142859
40
0.14285714285714288
40
0.15714285714285717
40
0.17142857142857146
40
0.18571428571428575
40
0.20000000000000004
40
0.21428571428571433
40
0.22857142857142862
40
0.24285714285714291
40
0.25714285714285717
40
0.27142857142857146
40
0.28571428571428575
40
0.30000000000000004
40
0.31428571428571433
40
0.32857142857142863
40
0.34285714285714292
40
0.35714285714285721
40
0.3714285714285715
40
0.38571428571428579
40
0.40000000000000008
40
0.41428571428571437
40
0.42857142857142866
40
0.44285714285714295
40
0.45714285714285724
40
0.47142857142857153
40
0.48571428571428582
40
0.50000000000000011
40
0.51428571428571435
40
0.52857142857142858
40
0.54285714285714282
40
0.55714285714285705
40
0.57142857142857129
40
0.58571428571428552
40
0.59999999999999976
40
0.61428571428571399
40
0.62857142857142823
40
0.64285714285714246
40
0.6571428571428567
40
0.67142857142857093
40
0.68571428571428517
40
0.6999999999999994
40
0.71428571428571364
40
0.72857142857142787
40
0.74285714285714211
40
0.75714285714285634
40
0.77142857142857058
40
0.78571428571428481
40
0.79999999999999905
40
0.81428571428571328
40
0.82857142857142752
40
0.84285714285714175
40
0.85714285714285599
40
0.87142857142857022
40
0.88571428571428445
40
0.89999999999999869
40
0.91428571428571292
40
0.92857142857142716
40
0.94285714285714139
40
0.95714285714285563
40
0.97142857142856986
40
0.9857142857142841
40
1
40
1
40
1
40
1
40
1
40
1
41
1
41
1
41
1
41
1
41
1
41
1
41
1
41
1
41
1
41
1
41
1
41
1
41
1
41
1
41
1
41
1
41
1
41
1
41
1
41
1
41
1
41
1
41
1
41
1
41
1
41
1
41
1
41
1
41
1
41
1
41
1
41
1
41
1
41
1
41
1
41
1
41
1
41
1
41
1
41
1
41
1
41
1
41
1
41
1
41
1
41
1
41
1
41
1
41
1
41
1
41
1
41
1
41
1
41
1
41
1
41
1
41
1
41
1
41
1
41
1
41
1
41
1
41
1
41
1
41
1
41
1
41
1
41
1
41
1
41
1
41
1
41
1
41
1
41
1
41
1
10
1029.2400594257117
20
-415.14920930116489
30
0
10
1029.2193483835508
20
-415.10302604550924
30
0
10
1029.1766850082552
20
-415.01131658907366
30
0
10
1029.1089661374567
20
-414.87572353396189
30
0
10
1029.0116000972171
20
-414.69867610376042
30
0
10
1028.8802640007243
20
-414.48245593957745
30
0
10
1028.7420363034389
20
-414.26987301467386
30
0
10
1028.5996061518661
20
-414.05950718636996
30
0
10
1028.4549248995688
20
-413.85034013171332
30
0
10
1028.308706980408
20
-413.64202247615572
30
0
10
1028.1608667941057
20
-413.43463615992533
30
0
10
1028.0108429081379
20
-413.22851748645343
30
0
10
1027.857944450232
20
-413.02406840881878
30
0
10
1027.7017370499973
20
-412.82154598163004
30
0
10
1027.542249212865
20
-412.62095022197298
30
0
10
1027.3797739316328
20
-412.42213358115987
30
0
10
1027.2147498963877
20
-412.22486686562041
30
0
10
1027.0476219209766
20
-412.02891646260417
30
0
10
1026.8786843398002
20
-411.83413105871034
30
0
10
1026.708027636952
20
-411.64047124546181
30
0
10
1026.5356239235987
20
-411.44796236695572
30
0
10
1026.3613789595988
20
-411.25666585974437
30
0
10
1026.1851926719905
20
-411.06664589061347
30
0
10
1026.0070283249577
20
-410.87793122125879
30
0
10
1025.8269269587222
20
-410.69050728282627
30
0
10
1025.644972469559
20
-410.50433549695441
30
0
10
1025.461269915176
20
-410.31936529488098
30
0
10
1025.275920552692
20
-410.13554793728099
30
0
10
1025.0889930281692
20
-409.95285246100036
30
0
10
1024.9005204726693
20
-409.77126730616897
30
0
10
1024.7105151070882
20
-409.59079226560129
30
0
10
1024.5189779109951
20
-409.41143316064421
30
0
10
1024.3259094322711
20
-409.23319588462738
30
0
10
1024.1313223534107
20
-409.05607947493928
30
0
10
1023.9352422133948
20
-408.88007572475465
30
0
10
1023.7377014582563
20
-408.70517247782868
30
0
10
1023.5387354346306
20
-408.53135584815226
30
0
10
1023.3383779634107
20
-408.35861267080099
30
0
10
1023.1366561729818
20
-408.18693335768285
30
0
10
1022.9335903893586
20
-408.01631196954793
30
0
10
1022.7291967129521
20
-407.84674480777028
30
0
10
1022.5234888239606
20
-407.6782294291508
30
0
10
1022.3164799493502
20
-407.51076356938461
30
0
10
1022.1081851818465
20
-407.34434387264804
30
0
10
1021.8986216203393
20
-407.17896581127468
30
0
10
1021.6878072814868
20
-407.01462427693548
30
0
10
1021.4757603730113
20
-406.85131397028391
30
0
10
1021.2624984976615
20
-406.68902983049185
30
0
10
1021.0480377189446
20
-406.52776752897444
30
0
10
1020.8323925002612
20
-406.36752352275892
30
0
10
1020.6155762385555
20
-406.2082948046953
30
0
10
1020.3976016432695
20
-406.05007873187992
30
0
10
1020.1784811463735
20
-405.89287283085929
30
0
10
1019.9582274066433
20
-405.73667456611076
30
0
10
1019.7368533734856
20
-405.58148127948732
30
0
10
1019.5143719572534
20
-405.42729028716974
30
0
10
1019.2907958050715
20
-405.27409892582466
30
0
10
1019.0661370703425
20
-405.12190461092985
30
0
10
1018.840407121852
20
-404.97070488578254
30
0
10
1018.6136165440867
20
-404.82049745516605
30
0
10
1018.3857755165191
20
-404.67128019356204
30
0
10
1018.1568941208461
20
-404.52305115511683
30
0
10
1017.926982647719
20
-404.37580857294228
30
0
10
1017.6960520006257
20
-404.22955086289664
30
0
10
1017.4641137737525
20
-404.08427659551415
30
0
10
1017.2311795849848
20
-403.9399844076359
30
0
10
1016.9972605595874
20
-403.79667291640141
30
0
10
1016.7623667771127
20
-403.65434063315297
30
0
10
1016.5265067011768
20
-403.51298585113193
30
0
10
1016.2896867382951
20
-403.37260659325614
30
0
10
1016.0519115100664
20
-403.23320089635325
30
0
10
1015.8609295312409
20
-403.12245381657186
30
0
10
1015.7172652753309
20
-403.03983029047237
30
0
10
1015.6212990469827
20
-402.98494200131131
30
0
10
1015.5732684183783
20
-402.95754637212713
30
0
0
ARC
5
370
100
AcDbEntity
8
0
100
AcDbCircle
10
1067.2950945004955
20
-500.03922696497176
30
0
40
109.99999999999936
210
0
220
0
230
1
100
AcDbArc
50
118.04717710624257
51
121.95282289375756
0
SPLINE
5
371
100
AcDbEntity
8
0
100
AcDbSpline
70
4
71
5
72
81
73
75
74
0
42
0.000000001
43
0.0000000001
44
0.0000000001
40
-1
40
-1
40
-1
40
-1
40
-1
40
-1
40
-0.9857142857142841
40
-0.97142857142856986
40
-0.95714285714285563
40
-0.94285714285714139
40
-0.92857142857142716
40
-0.91428571428571292
40
-0.89999999999999869
40
-0.88571428571428445
40
-0.87142857142857022
40
-0.85714285714285599
40
-0.84285714285714175
40
-0.82857142857142752
40
-0.81428571428571328
40
-0.79999999999999905
40
-0.78571428571428481
40
-0.77142857142857058
40
-0.75714285714285634
40
-0.74285714285714211
40
-0.72857142857142787
40
-0.71428571428571364
40
-0.6999999999999994
40
-0.68571428571428517
40
-0.67142857142857093
40
-0.6571428571428567
40
-0.64285714285714246
40
-0.62857142857142823
40
-0.61428571428571399
40
-0.59999999999999976
40
-0.58571428571428552
40
-0.57142857142857129
40
-0.55714285714285705
40
-0.54285714285714282
40
-0.52857142857142858
40
-0.51428571428571435
40
-0.50000000000000011
40
-0.48571428571428582
40
-0.47142857142857153
40
-0.45714285714285724
40
-0.44285714285714295
40
-0.42857142857142866
40
-0.41428571428571437
40
-0.40000000000000008
40
-0.38571428571428579
40
-0.3714285714285715
40
-0.35714285714285721
40
-0.34285714285714292
40
-0.32857142857142863
40
-0.31428571428571433
40
-0.30000000000000004
40
-0.28571428571428575
40
-0.27142857142857146
40
-0.25714285714285717
40
-0.24285714285714291
40
-0.22857142857142862
40
-0.21428571428571433
40
-0.20000000000000004
40
-0.18571428571428575
40
-0.17142857142857146
40
-0.15714285714285717
40
-0.14285714285714288
40
-0.12857142857142859
40
-0.1142857142857143
40
-0.10000000000000001
40
-0.085714285714285715
40
-0.071428571428571425
40
-0.057142857142857141
40
-0.042857142857142858
40
-0.028571428571428571
40
-0.014285714285714285
40
0
40
0
40
0
40
0
40
0
40
0
41
1
41
1
41
1
41
1
41
1
41
1
41
1
41
1
41
1
41
1
41
1
41
1
41
1
41
1
41
1
41
1
41
1
41
1
41
1
41
1
41
1
41
1
41
1
41
1
41
1
41
1
41
1
41
1
41
1
41
1
41
1
41
1
41
1
41
1
41
1
41
1
41
1
41
1
41
1
41
1
41
1
41
1
41
1
41
1
41
1
41
1
41
1
41
1
41
1
41
1
41
1
41
1
41
1
41
1
41
1
41
1
41
1
41
1
41
1
41
1
41
1
41
1
41
1
41
1
41
1
41
1
41
1
41
1
41
1
41
1
41
1
41
1
41
1
41
1
41
1
10
1009.0808059060637
20
-406.7059713513155
30
0
10
1009.0805159025878
20
-406.76126491043868
30
0
10
1009.0800674411973
20
-406.87181824667414
30
0
10
1009.0797893857948
20
-407.03754690495776
30
0
10
1009.0802081808677
20
-407.25831569017629
30
0
10
1009.0820494417034
20
-407.53393792666463
30
0
10
1009.0852114637473
20
-407.80921965958129
30
0
10
1009.0896982579561
20
-408.08415786809076
30
0
10
1009.0955147397905
20
-408.35874799252906
30
0
10
1009.1026666191551
20
-408.632983556569
30
0
10
1009.1111602250414
20
-408.90685657539098
30
0
10
1009.1210023176743
20
-409.180358105663
30
0
10
1009.1321998865266
20
-409.45347876758098
30
0
10
1009.1447599666449
20
-409.72620923501785
30
0
10
1009.1586893816805
20
-409.99854085734694
30
0
10
1009.173994807129
20
-410.2704656060468
30
0
10
1009.1906829689974
20
-410.54197572303872
30
0
10
1009.2087607977749
20
-410.8130634554002
30
0
10
1009.228235573421
20
-411.08372078430489
30
0
10
1009.2491151078951
20
-411.35393909244738
30
0
10
1009.2714077161609
20
-411.62370914693321
30
0
10
1009.2951220282946
20
-411.89302132669781
30
0
10
1009.3202668237288
20
-412.16186579295686
30
0
10
1009.3468508791896
20
-412.43023266026898
30
0
10
1009.3748827198915
20
-412.69811223357402
30
0
10
1009.4043707038938
20
-412.96549498319655
30
0
10
1009.4353234747391
20
-413.23237122388866
30
0
10
1009.4677503351675
20
-413.49873085713159
30
0
10
1009.5016615851837
20
-413.76456312873938
30
0
10
1009.5370690052061
20
-414.02985629159878
30
0
10
1009.5739857794144
20
-414.29459763169677
30
0
10
1009.6124256010388
20
-414.55877403035623
30
0
10
1009.6524019023509
20
-414.82237243885805
30
0
10
1009.6939271538699
20
-415.08538031296263
30
0
10
1009.7370118081869
20
-415.34778625989793
30
0
10
1009.7816644397307
20
-415.60957995692763
30
0
10
1009.827894004473
20
-415.8707507782521
30
0
10
1009.8757117557229
20
-416.1312866298195
30
0
10
1009.9251330000299
20
-416.39117287840952
30
0
10
1009.9761796051168
20
-416.65039082419759
30
0
10
1010.0288798825899
20
-416.90891775989337
30
0
10
1010.0832635314032
20
-417.16673001741691
30
0
10
1010.1393573021899
20
-417.42380557580248
30
0
10
1010.1971810717599
20
-417.68012642105566
30
0
10
1010.2567420150062
20
-417.93568205112058
30
0
10
1010.3180353020963
20
-418.19046904485305
30
0
10
1010.3810563813805
20
-418.44448364324785
30
0
10
1010.4458115427344
20
-418.6977153662915
30
0
10
1010.5123273628307
20
-418.95014130157767
30
0
10
1010.5806649795779
20
-419.20171748145032
30
0
10
1010.6509172310292
20
-419.45238058433404
30
0
10
1010.7231804398714
20
-419.70206491196666
30
0
10
1010.7975299640829
20
-419.95071709722316
30
0
10
1010.8739989407725
20
-420.19830888265574
30
0
10
1010.9525440936727
20
-420.44485770156689
30
0
10
1011.0330598162365
20
-420.69041813629065
30
0
10
1011.1154457827777
20
-420.9350410829075
30
0
10
1011.1996661002481
20
-421.17873802180696
30
0
10
1011.2858001394363
20
-421.42145029570423
30
0
10
1011.3741261087921
20
-421.66299866023132
30
0
10
1011.4650687298151
20
-421.90311470167205
30
0
10
1011.5590458350034
20
-422.14153310005173
30
0
10
1011.6563317016676
20
-422.37807389050857
30
0
10
1011.7569405677267
20
-422.61271237807182
30
0
10
1011.8604326321639
20
-422.84569621123018
30
0
10
1011.9661143572654
20
-423.07742272638359
30
0
10
1012.0734137794547
20
-423.3082099866441
30
0
10
1012.1822171362735
20
-423.53809115391323
30
0
10
1012.2931842118863
20
-423.76662219759191
30
0
10
1012.408172576621
20
-423.99262235739963
30
0
10
1012.5297566833676
20
-424.21447283548775
30
0
10
1012.634401235477
20
-424.38731801490184
30
0
10
1012.7179688303812
20
-424.5137608048849
30
0
10
1012.7760598617739
20
-424.59656309991976
30
0
10
1012.8057002133207
20
-424.63759101639778
30
0
0
LINE
5
372
100
AcDbEntity
8
0
100
AcDbLine
10
1012.8057002133205
20
-424.63759101639778
30
0
11
1013.6710041187971
21
-425.83533714656494
31
0
0
ARC
5
373
100
AcDbEntity
8
0
100
AcDbCircle
10
1008.8074396104466
20
-429.34898770874582
30
0
40
5.9999999999999751
210
-0
220
0
230
1
100
AcDbArc
50
-50.396341600610889
51
35.845984228218029
0
ARC
5
374
100
AcDbEntity
8
0
100
AcDbCircle
10
1067.2950945004955
20
-500.03922696497176
30
0
40
85.749199999999547
210
0
220
0
230
1
100
AcDbArc
50
129.60365839939016
51
130.39634160060993
0
ARC
5
375
100
AcDbEntity
8
0
100
AcDbCircle
10
1007.8350735063453
20
-430.16489974806643
30
0
40
5.9999999999999343
210
0
220
0
230
1
100
AcDbArc
50
224.15401577178091
51
310.39634160061132
0
LINE
5
376
100
AcDbEntity
8
0
100
AcDbLine
10
1003.5302540774933
20
-434.34443676608373
30
0
11
1002.5009628486785
21
-433.28429233844787
31
0
0
SPLINE
5
377
100
AcDbEntity
8
0
100
AcDbSpline
70
4
71
5
72
81
73
75
74
0
42
0.000000001
43
0.0000000001
44
0.0000000001
40
0
40
0
40
0
40
0
40
0
40
0
40
0.014285714285714285
40
0.028571428571428571
40
0.042857142857142858
40
0.057142857142857141
40
0.071428571428571425
40
0.085714285714285715
40
0.10000000000000001
40
0.1142857142857143
40
0.12857142857142859
40
0.14285714285714288
40
0.15714285714285717
40
0.17142857142857146
40
0.18571428571428575
40
0.20000000000000004
40
0.21428571428571433
40
0.22857142857142862
40
0.24285714285714291
40
0.25714285714285717
40
0.27142857142857146
40
0.28571428571428575
40
0.30000000000000004
40
0.31428571428571433
40
0.32857142857142863
40
0.34285714285714292
40
0.35714285714285721
40
0.3714285714285715
40
0.38571428571428579
40
0.40000000000000008
40
0.41428571428571437
40
0.42857142857142866
40
0.44285714285714295
40
0.45714285714285724
40
0.47142857142857153
40
0.48571428571428582
40
0.50000000000000011
40
0.51428571428571435
40
0.52857142857142858
40
0.54285714285714282
40
0.55714285714285705
40
0.57142857142857129
40
0.58571428571428552
40
0.59999999999999976
40
0.61428571428571399
40
0.62857142857142823
40
0.64285714285714246
40
0.6571428571428567
40
0.67142857142857093
40
0.68571428571428517
40
0.6999999999999994
40
0.71428571428571364
40
0.72857142857142787
40
0.74285714285714211
40
0.75714285714285634
40
0.77142857142857058
40
0.78571428571428481
40
0.79999999999999905
40
0.81428571428571328
40
0.82857142857142752
40
0.84285714285714175
40
0.85714285714285599
40
0.87142857142857022
40
0.88571428571428445
40
0.89999999999999869
40
0.91428571428571292
40
0.92857142857142716
40
0.94285714285714139
40
0.95714285714285563
40
0.97142857142856986
40
0.9857142857142841
40
1
40
1
40
1
40
1
40
1
40
1
41
1
41
1
41
1
41
1
41
1
41
1
41
1
41
1
41
1
41
1
41
1
41
1
41
1
41
1
41
1
41
1
41
1
41
1
41
1
41
1
41
1
41
1
41
1
41
1
41
1
41
1
41
1
41
1
41
1
41
1
41
1
41
1
41
1
41
1
41
1
41
1
41
1
41
1
41
1
41
1
41
1
41
1
41
1
41
1
41
1
41
1
41
1
41
1
41
1
41
1
41
1
41
1
41
1
41
1
41
1
41
1
41
1
41
1
41
1
41
1
41
1
41
1
41
1
41
1
41
1
41
1
41
1
41
1
41
1
41
1
41
1
41
1
41
1
41
1
41
1
10
1002.5009628486785
20
-433.28429233844787
30
0
10
1002.4657052314724
20
-433.2479778675127
30
0
10
1002.394248291095
20
-433.17639090177727
30
0
10
1002.2842378117743
20
-433.07213632635529
30
0
10
1002.1321898747931
20
-432.93906730970366
30
0
10
1001.9348226625323
20
-432.7808064075021
30
0
10
1001.7322234729608
20
-432.62832045850217
30
0
10
1001.5264335598032
20
-432.47935522283433
30
0
10
1001.3189383086408
20
-432.33228638770925
30
0
10
1001.1102895745677
20
-432.18654129767049
30
0
10
1000.9004349448426
20
-432.04222622836534
30
0
10
1000.6889618680143
20
-431.89984922287852
30
0
10
1000.4753586125551
20
-431.7600242857859
30
0
10
1000.2593049216687
20
-431.62314153282983
30
0
10
1000.0408275875419
20
-431.48919123063388
30
0
10
999.82015146872141
20
-431.35793451934632
30
0
10
999.59761041022705
20
-431.22900598661386
30
0
10
999.37354250008184
20
-431.1020339729634
30
0
10
999.14817256991967
20
-430.97677562201449
30
0
10
998.92157216848182
20
-430.85316295452969
30
0
10
998.6937237570296
20
-430.73122932471273
30
0
10
998.46455979133555
20
-430.61106469606511
30
0
10
998.23400817990955
20
-430.49276359261063
30
0
10
998.00204423945524
20
-430.37636560589169
30
0
10
997.76870155232484
20
-430.26184300908108
30
0
10
997.53404576065248
20
-430.14913085616109
30
0
10
997.29815829085499
20
-430.0381456961868
30
0
10
997.06111762366947
20
-429.92880709719975
30
0
10
996.82297767527098
20
-429.8210624850168
30
0
10
996.58376562496585
20
-429.71488966542245
30
0
10
996.34349288577801
20
-429.61028426393364
30
0
10
996.10216236921883
20
-429.50725141579471
30
0
10
995.85977660576657
20
-429.40579647153749
30
0
10
995.61634718383414
20
-429.30591418893471
30
0
10
995.37189529531463
20
-429.20758812124711
30
0
10
995.12644727182476
20
-429.11079574814443
30
0
10
994.88003157904222
20
-429.015511931785
30
0
10
994.63267549554132
20
-428.92171273375988
30
0
10
994.38440123434486
20
-428.82937986575564
30
0
10
994.13522586431566
20
-428.73850079479632
30
0
10
993.88516324988689
20
-428.64906653864557
30
0
10
993.63422541061595
20
-428.56107012254404
30
0
10
993.382424001348
20
-428.4745048948522
30
0
10
993.12977205684649
20
-428.38936254011094
30
0
10
992.8762840962587
20
-428.305632955541
30
0
10
992.62197530255389
20
-428.22330517882335
30
0
10
992.3668609729117
20
-428.14236800279321
30
0
10
992.11095591759909
20
-428.06281065133305
30
0
10
991.85427375091297
20
-427.98462356286058
30
0
10
991.59682685223561
20
-427.9077984612963
30
0
10
991.33862678207061
20
-427.83232793881859
30
0
10
991.07968457946072
20
-427.75820516502534
30
0
10
990.82001108066606
20
-427.68542356364617
30
0
10
990.55961731384457
20
-427.61397642251302
30
0
10
990.29851453831839
20
-427.54385681482665
30
0
10
990.03671396793106
20
-427.47505780302117
30
0
10
989.77422657617853
20
-427.4075725588105
30
0
10
989.51106289956499
20
-427.34139449682965
30
0
10
989.24723278101226
20
-427.27651742017952
30
0
10
988.98274538167448
20
-427.21293555195416
30
0
10
988.71760954015645
20
-427.15064341323506
30
0
10
988.45183406463332
20
-427.08963572737468
30
0
10
988.18542802084266
20
-427.02990731443094
30
0
10
987.91840111290355
20
-426.9714529565851
30
0
10
987.65076374688101
20
-426.91426734513357
30
0
10
987.38252637378832
20
-426.85834522557514
30
0
10
987.11369897498855
20
-426.8036814933813
30
0
10
986.8442905130122
20
-426.75027130226141
30
0
10
986.57430835731077
20
-426.69811015365974
30
0
10
986.30375785183742
20
-426.64719399856972
30
0
10
986.03264266802989
20
-426.59751941153263
30
0
10
985.81530057972486
20
-426.55877088165892
30
0
10
985.65204142833682
20
-426.53026623327713
30
0
10
985.54308977118762
20
-426.51151049615896
30
0
10
985.48858588689632
20
-426.5021944680521
30
0
0
ARC
5
378
100
AcDbEntity
8
0
100
AcDbCircle
10
1067.2950945004955
20
-500.03922696497176
30
0
40
109.99999999999936
210
0
220
0
230
1
100
AcDbArc
50
138.04717710624249
51
141.95282289375749
0
SPLINE
5
379
100
AcDbEntity
8
0
100
AcDbSpline
70
4
71
5
72
81
73
75
74
0
42
0.000000001
43
0.0000000001
44
0.0000000001
40
-1
40
-1
40
-1
40
-1
40
-1
40
-1
40
-0.9857142857142841
40
-0.97142857142856986
40
-0.95714285714285563
40
-0.94285714285714139
40
-0.92857142857142716
40
-0.91428571428571292
40
-0.89999999999999869
40
-0.88571428571428445
40
-0.87142857142857022
40
-0.85714285714285599
40
-0.84285714285714175
40
-0.82857142857142752
40
-0.81428571428571328
40
-0.79999999999999905
40
-0.78571428571428481
40
-0.77142857142857058
40
-0.75714285714285634
40
-0.74285714285714211
40
-0.72857142857142787
40
-0.71428571428571364
40
-0.6999999999999994
40
-0.68571428571428517
40
-0.67142857142857093
40
-0.6571428571428567
40
-0.64285714285714246
40
-0.62857142857142823
40
-0.61428571428571399
40
-0.59999999999999976
40
-0.58571428571428552
40
-0.57142857142857129
40
-0.55714285714285705
40
-0.54285714285714282
40
-0.52857142857142858
40
-0.51428571428571435
40
-0.50000000000000011
40
-0.48571428571428582
40
-0.47142857142857153
40
-0.45714285714285724
40
-0.44285714285714295
40
-0.42857142857142866
40
-0.41428571428571437
40
-0.40000000000000008
40
-0.38571428571428579
40
-0.3714285714285715
40
-0.35714285714285721
40
-0.34285714285714292
40
-0.32857142857142863
40
-0.31428571428571433
40
-0.30000000000000004
40
-0.28571428571428575
40
-0.27142857142857146
40
-0.25714285714285717
40
-0.24285714285714291
40
-0.22857142857142862
40
-0.21428571428571433
40
-0.20000000000000004
40
-0.18571428571428575
40
-0.17142857142857146
40
-0.15714285714285717
40
-0.14285714285714288
40
-0.12857142857142859
40
-0.1142857142857143
40
-0.10000000000000001
40
-0.085714285714285715
40
-0.071428571428571425
40
-0.057142857142857141
40
-0.042857142857142858
40
-0.028571428571428571
40
-0.014285714285714285
40
0
40
0
40
0
40
0
40
0
40
0
41
1
41
1
41
1
41
1
41
1
41
1
41
1
41
1
41
1
41
1
41
1
41
1
41
1
41
1
41
1
41
1
41
1
41
1
41
1
41
1
41
1
41
1
41
1
41
1
41
1
41
1
41
1
41
1
41
1
41
1
41
1
41
1
41
1
41
1
41
1
41
1
41
1
41
1
41
1
41
1
41
1
41
1
41
1
41
1
41
1
41
1
41
1
41
1
41
1
41
1
41
1
41
1
41
1
41
1
41
1
41
1
41
1
41
1
41
1
41
1
41
1
41
1
41
1
41
1
41
1
41
1
41
1
41
1
41
1
41
1
41
1
41
1
41
1
41
1
41
1
10
980.66970362197264
20
-432.24511471956333
30
0
10
980.68834261886263
20
-432.29717285607882
30
0
10
980.72573267090775
20
-432.40121239317153
30
0
10
980.78215392375705
20
-432.55704149096204
30
0
10
980.85805483395905
20
-432.76435305298094
30
0
10
980.95405341000685
20
-433.02272348643862
30
0
10
981.05117663653527
20
-433.28032222426486
30
0
10
981.14942724942443
20
-433.53714505597497
30
0
10
981.24880830819939
20
-433.79318601569963
30
0
10
981.34932296338093
20
-434.0484370647797
30
0
10
981.45097443130669
20
-434.30288853529646
30
0
10
981.55376600571026
20
-434.55652971113386
30
0
10
981.65770104646583
20
-434.80934938761862
30
0
10
981.7627829746317
20
-435.06133639493021
30
0
10
981.86901524365351
20
-435.31248027031268
30
0
10
981.97640138052964
20
-435.56277118626946
30
0
10
982.08494505221984
20
-435.81219955216136
30
0
10
982.19465011959801
20
-436.06075571225756
30
0
10
982.30552068098802
20
-436.30842964143318
30
0
10
982.41756112993914
20
-436.55521057022247
30
0
10
982.53077612212451
20
-436.80108697865768
30
0
10
982.64517047656625
20
-437.0460468742354
30
0
10
982.76074907816906
20
-437.29007800877991
30
0
10
982.87751679333815
20
-437.53316809119758
30
0
10
982.99547831724863
20
-437.77530509531709
30
0
10
983.11463824456609
20
-438.01647720754795
30
0
10
983.23500138501402
20
-438.25667237046872
30
0
10
983.35657302641175
20
-438.49587791285091
30
0
10
983.47935916944948
20
-438.73408020625664
30
0
10
983.60336686635014
20
-438.97126418286973
30
0
10
983.72860415774142
20
-439.20741338617086
30
0
10
983.85507942419895
20
-439.44251080527567
30
0
10
983.98280082500446
20
-439.67653958429128
30
0
10
984.11177578823015
20
-439.90948367031979
30
0
10
984.24201023954129
20
-440.14132878266054
30
0
10
984.3735087056815
20
-440.37206228848709
30
0
10
984.50627596827394
20
-440.60167113969135
30
0
10
984.64031846556065
20
-440.83014012272338
30
0
10
984.77564557613687
20
-441.05745025170597
30
0
10
984.91227145322455
20
-441.28357647535012
30
0
10
985.0502149346795
20
-441.50848777264321
30
0
10
985.18949583342999
20
-441.73215174522454
30
0
10
985.3301317552349
20
-441.95453855089971
30
0
10
985.47213521703668
20
-442.17562446378173
30
0
10
985.61550936911476
20
-442.39539716120839
30
0
10
985.7602485028109
20
-442.61385508025558
30
0
10
985.90634705531807
20
-442.83099624536976
30
0
10
986.05380735281017
20
-443.04680865729546
30
0
10
986.20264653268589
20
-443.26126169565606
30
0
10
986.35290700796259
20
-443.4742931339735
30
0
10
986.50465436061995
20
-443.6858117169462
30
0
10
986.65795663424615
20
-443.89572276410314
30
0
10
986.81286638954634
20
-444.10395035280396
30
0
10
986.9694051006004
20
-444.31045659617484
30
0
10
987.12753806356
20
-444.51527267751663
30
0
10
987.2871847089898
20
-444.7184860070123
30
0
10
987.44826816906766
20
-444.92017872473866
30
0
10
987.61075864188524
20
-445.12037389487841
30
0
10
987.77471064961424
20
-445.31898925120544
30
0
10
987.94032431749713
20
-445.51576120621604
30
0
10
988.10790695029584
20
-445.71029227021347
30
0
10
988.27776043734946
20
-445.90219021684459
30
0
10
988.45008096341485
20
-446.09119212609176
30
0
10
988.62487346158218
20
-446.2772699226179
30
0
10
988.80180935485316
20
-446.46080674068742
30
0
10
988.98037282800817
20
-446.64241315825143
30
0
10
989.16013519508613
20
-446.82258367993359
30
0
10
989.34100089638264
20
-447.00138837678054
30
0
10
989.52343805879968
20
-447.17818433704048
30
0
10
989.70878838366605
20
-447.35122668252075
30
0
10
989.89891740389328
20
-447.51811372608245
30
0
10
990.05636765035217
20
-447.64474452100563
30
0
10
990.17814148377306
20
-447.73498007691774
30
0
10
990.26104925012214
20
-447.79292047966328
30
0
10
990.30293444362246
20
-447.82133651273966
30
0
0
LINE
5
380
100
AcDbEntity
8
0
100
AcDbLine
10
990.30293444362246
20
-447.82133651273966
30
0
11
991.52570744144327
21
-448.65089834706134
31
0
0
ARC
5
381
100
AcDbEntity
8
0
100
AcDbCircle
10
988.15719103110359
20
-453.61608688258258
30
0
40
5.999999999999968
210
-0
220
0
230
1
100
AcDbArc
50
-30.396341600608825
51
55.845984228218278
0
ARC
5
382
100
AcDbEntity
8
0
100
AcDbCircle
10
1067.2950945004955
20
-500.03922696497176
30
0
40
85.749199999999519
210
0
220
0
230
1
100
AcDbArc
50
149.60365839938996
51
150.39634160060996
0
ARC
5
383
100
AcDbEntity
8
0
100
AcDbCircle
10
987.52252413100678
20
-454.71536219943232
30
0
40
5.9999999999999742
210
0
220
0
230
1
100
AcDbArc
50
244.15401577178187
51
330.39634160061064
0
LINE
5
384
100
AcDbEntity
8
0
100
AcDbLine
10
984.90680292983598
20
-460.1151772516119
30
0
11
983.57699480839301
21
-459.47100568959809
31
0
0
SPLINE
5
385
100
AcDbEntity
8
0
100
AcDbSpline
70
4
71
5
72
81
73
75
74
0
42
0.000000001
43
0.0000000001
44
0.0000000001
40
0
40
0
40
0
40
0
40
0
40
0
40
0.014285714285714285
40
0.028571428571428571
40
0.042857142857142858
40
0.057142857142857141
40
0.071428571428571425
40
0.085714285714285715
40
0.10000000000000001
40
0.1142857142857143
40
0.12857142857142859
40
0.14285714285714288
40
0.15714285714285717
40
0.17142857142857146
40
0.18571428571428575
40
0.20000000000000004
40
0.21428571428571433
40
0.22857142857142862
40
0.24285714285714291
40
0.25714285714285717
40
0.27142857142857146
40
0.28571428571428575
40
0.30000000000000004
40
0.31428571428571433
40
0.32857142857142863
40
0.34285714285714292
40
0.35714285714285721
40
0.3714285714285715
40
0.38571428571428579
40
0.40000000000000008
40
0.41428571428571437
40
0.42857142857142866
40
0.44285714285714295
40
0.45714285714285724
40
0.47142857142857153
40
0.48571428571428582
40
0.50000000000000011
40
0.51428571428571435
40
0.52857142857142858
40
0.54285714285714282
40
0.55714285714285705
40
0.57142857142857129
40
0.58571428571428552
40
0.59999999999999976
40
0.61428571428571399
40
0.62857142857142823
40
0.64285714285714246
40
0.6571428571428567
40
0.67142857142857093
40
0.68571428571428517
40
0.6999999999999994
40
0.71428571428571364
40
0.72857142857142787
40
0.74285714285714211
40
0.75714285714285634
40
0.77142857142857058
40
0.78571428571428481
40
0.79999999999999905
40
0.81428571428571328
40
0.82857142857142752
40
0.84285714285714175
40
0.85714285714285599
40
0.87142857142857022
40
0.88571428571428445
40
0.89999999999999869
40
0.91428571428571292
40
0.92857142857142716
40
0.94285714285714139
40
0.95714285714285563
40
0.97142857142856986
40
0.9857142857142841
40
1
40
1
40
1
40
1
40
1
40
1
41
1
41
1
41
1
41
1
41
1
41
1
41
1
41
1
41
1
41
1
41
1
41
1
41
1
41
1
41
1
41
1
41
1
41
1
41
1
41
1
41
1
41
1
41
1
41
1
41
1
41
1
41
1
41
1
41
1
41
1
41
1
41
1
41
1
41
1
41
1
41
1
41
1
41
1
41
1
41
1
41
1
41
1
41
1
41
1
41
1
41
1
41
1
41
1
41
1
41
1
41
1
41
1
41
1
41
1
41
1
41
1
41
1
41
1
41
1
41
1
41
1
41
1
41
1
41
1
41
1
41
1
41
1
41
1
41
1
41
1
41
1
41
1
41
1
41
1
41
1
10
983.57699480839301
20
-459.4710056895982
30
0
10
983.53144320512399
20
-459.44894006452273
30
0
10
983.43981146126623
20
-459.40611003406622
30
0
10
983.3007782608114
20
-459.34576857876357
30
0
10
983.11238765227699
20
-459.27272806295952
30
0
10
982.87279472287651
20
-459.19151502322705
30
0
10
982.63026049332689
20
-459.11751810603323
30
0
10
982.38593211924695
20
-459.04792086891564
30
0
10
982.14064985881328
20
-458.98068892534303
30
0
10
981.89473642648431
20
-458.91509540965012
30
0
10
981.64817891880614
20
-458.851258114492
30
0
10
981.40076342519274
20
-458.78979554511284
30
0
10
981.15221907723708
20
-458.73145969957199
30
0
10
980.90237835943276
20
-458.67672670102934
30
0
10
980.65126311918914
20
-458.62557823963522
30
0
10
980.39900295954283
20
-458.57771295439716
30
0
10
980.14578661380983
20
-458.53267328830185
30
0
10
979.89180466578443
20
-458.48999436277069
30
0
10
979.6371853263197
20
-458.4493710705076
30
0
10
979.3819725789715
20
-458.41071506081391
30
0
10
979.12616135052576
20
-458.37406367499062
30
0
10
978.86971893950033
20
-458.33952455256281
30
0
10
978.61260993117401
20
-458.3072111737996
30
0
10
978.35482467194026
20
-458.27716918476602
30
0
10
978.09638523575416
20
-458.24936104492622
30
0
10
977.83733109319871
20
-458.22370327405446
30
0
10
977.5777102181728
20
-458.20008960443874
30
0
10
977.31756884909589
20
-458.17841761276833
30
0
10
977.05693966917011
20
-458.15861945505333
30
0
10
976.79584062772028
20
-458.14066497968304
30
0
10
976.53428095331947
20
-458.12454617250404
30
0
10
976.27226513825076
20
-458.1102668632717
30
0
10
976.00979739037507
20
-458.09783121436703
30
0
10
975.74688680629151
20
-458.08723033623693
30
0
10
975.4835476747495
20
-458.07844152594771
30
0
10
975.21979703696798
20
-458.07143461536776
30
0
10
974.95565304428669
20
-458.06617624681769
30
0
10
974.69113314276206
20
-458.06263459572926
30
0
10
974.4262519508361
20
-458.06078487940806
30
0
10
974.16102122146322
20
-458.06060948281436
30
0
10
973.89545091084312
20
-458.0620952234915
30
0
10
973.62954992815719
20
-458.06523143637855
30
0
10
973.36332695038232
20
-458.07000788478723
30
0
10
973.09679138213539
20
-458.07641229659049
30
0
10
972.82995341159767
20
-458.08443021244022
30
0
10
972.56282355675978
20
-458.09404613824478
30
0
10
972.29541235919203
20
-458.10524431077062
30
0
10
972.02773005034396
20
-458.11800953837007
30
0
10
971.75978615321606
20
-458.13232817973085
30
0
10
971.49158947003673
20
-458.14818822388418
30
0
10
971.22314833050154
20
-458.16557875582959
30
0
10
970.95447077178267
20
-458.18448958151356
30
0
10
970.68556472741636
20
-458.20491081504423
30
0
10
970.41643826478492
20
-458.22683237719451
30
0
10
970.14709959508548
20
-458.2502439079874
30
0
10
969.87755688309664
20
-458.27513505288312
30
0
10
969.60781810512003
20
-458.30149564223484
30
0
10
969.33789090990388
20
-458.32931588412691
30
0
10
969.06778242730422
20
-458.35858658890169
30
0
10
968.79749929017237
20
-458.3892991947439
30
0
10
968.52704793017915
20
-458.42144553017329
30
0
10
968.25643481958241
20
-458.45501762418996
30
0
10
967.98566670574382
20
-458.4900075085755
30
0
10
967.71475092295373
20
-458.52640696118016
30
0
10
967.44369543403104
20
-458.56420743437036
30
0
10
967.17250826257032
20
-458.6034004160731
30
0
10
966.90119704213339
20
-458.64397769577323
30
0
10
966.62976853721511
20
-458.6859316540814
30
0
10
966.35822813423783
20
-458.72925554323717
30
0
10
966.08657947003326
20
-458.77394373067909
30
0
10
965.81482482304818
20
-458.81999174182334
30
0
10
965.59733728874062
20
-458.85791540642754
30
0
10
965.43417470498059
20
-458.88696771704201
30
0
10
965.32537879683775
20
-458.90660675066846
30
0
10
965.27097562969675
20
-458.91649397411845
30
0
0
ARC
5
386
100
AcDbEntity
8
0
100
AcDbCircle
10
1067.2950945004955
20
-500.03922696497176
30
0
40
109.9999999999995
210
0
220
0
230
1
100
AcDbArc
50
158.04717710624251
51
161.95282289375749
0
SPLINE
5
387
100
AcDbEntity
8
0
100
AcDbSpline
70
4
71
5
72
81
73
75
74
0
42
0.000000001
43
0.0000000001
44
0.0000000001
40
-1
40
-1
40
-1
40
-1
40
-1
40
-1
40
-0.9857142857142841
40
-0.97142857142856986
40
-0.95714285714285563
40
-0.94285714285714139
40
-0.92857142857142716
40
-0.91428571428571292
40
-0.89999999999999869
40
-0.88571428571428445
40
-0.87142857142857022
40
-0.85714285714285599
40
-0.84285714285714175
40
-0.82857142857142752
40
-0.81428571428571328
40
-0.79999999999999905
40
-0.78571428571428481
40
-0.77142857142857058
40
-0.75714285714285634
40
-0.74285714285714211
40
-0.72857142857142787
40
-0.71428571428571364
40
-0.6999999999999994
40
-0.68571428571428517
40
-0.67142857142857093
40
-0.6571428571428567
40
-0.64285714285714246
40
-0.62857142857142823
40
-0.61428571428571399
40
-0.59999999999999976
40
-0.58571428571428552
40
-0.57142857142857129
40
-0.55714285714285705
40
-0.54285714285714282
40
-0.52857142857142858
40
-0.51428571428571435
40
-0.50000000000000011
40
-0.48571428571428582
40
-0.47142857142857153
40
-0.45714285714285724
40
-0.44285714285714295
40
-0.42857142857142866
40
-0.41428571428571437
40
-0.40000000000000008
40
-0.38571428571428579
40
-0.3714285714285715
40
-0.35714285714285721
40
-0.34285714285714292
40
-0.32857142857142863
40
-0.31428571428571433
40
-0.30000000000000004
40
-0.28571428571428575
40
-0.27142857142857146
40
-0.25714285714285717
40
-0.24285714285714291
40
-0.22857142857142862
40
-0.21428571428571433
40
-0.20000000000000004
40
-0.18571428571428575
40
-0.17142857142857146
40
-0.15714285714285717
40
-0.14285714285714288
40
-0.12857142857142859
40
-0.1142857142857143
40
-0.10000000000000001
40
-0.085714285714285715
40
-0.071428571428571425
40
-0.057142857142857141
40
-0.042857142857142858
40
-0.028571428571428571
40
-0.014285714285714285
40
0
40
0
40
0
40
0
40
0
40
0
41
1
41
1
41
1
41
1
41
1
41
1
41
1
41
1
41
1
41
1
41
1
41
1
41
1
41
1
41
1
41
1
41
1
41
1
41
1
41
1
41
1
41
1
41
1
41
1
41
1
41
1
41
1
41
1
41
1
41
1
41
1
41
1
41
1
41
1
41
1
41
1
41
1
41
1
41
1
41
1
41
1
41
1
41
1
41
1
41
1
41
1
41
1
41
1
41
1
41
1
41
1
41
1
41
1
41
1
41
1
41
1
41
1
41
1
41
1
41
1
41
1
41
1
41
1
41
1
41
1
41
1
41
1
41
1
41
1
41
1
41
1
41
1
41
1
41
1
41
1
10
962.70690193244161
20
-465.96122855914422
30
0
10
962.74222179159028
20
-466.00377229349192
30
0
10
962.81294056497586
20
-466.0887493278085
30
0
10
962.91925589029449
20
-466.21588357611989
30
0
10
963.0614841456769
20
-466.38473308096678
30
0
10
963.24006119187732
20
-466.59468842397729
30
0
10
963.41943112838499
20
-466.80353395717884
30
0
10
963.59959508601514
20
-467.011264788284
30
0
10
963.78055389933422
20
-467.21787426479017
30
0
10
963.9623077794796
20
-467.42335375528705
30
0
10
964.14485644219712
20
-467.62769307485053
30
0
10
964.32819931745621
20
-467.83088102710224
30
0
10
964.5123357302823
20
-468.03290593394865
30
0
10
964.6972650751145
20
-468.2337561291211
30
0
10
964.88298701865733
20
-468.43342059969689
30
0
10
965.06950151400315
20
-468.63188890454558
30
0
10
965.25680872677526
20
-468.82915077724033
30
0
10
965.4449089825539
20
-469.02519582386549
30
0
10
965.63380270370942
20
-469.22001322217562
30
0
10
965.82349033545268
20
-469.41359134950113
30
0
10
966.01397231262513
20
-469.6059177882791
30
0
10
966.20524906194805
20
-469.79697962104018
30
0
10
966.39732098460786
20
-469.98676366752812
30
0
10
966.59018844972763
20
-470.17525671348432
30
0
10
966.78385175613653
20
-470.36244585215974
30
0
10
966.97831118092154
20
-470.54831841094267
30
0
10
967.17356711986326
20
-470.73286141454071
30
0
10
967.36962020807141
20
-470.91606114735305
30
0
10
967.56647142314989
20
-471.09790275048056
30
0
10
967.7641222385239
20
-471.27836965280517
30
0
10
967.96257458145078
20
-471.45744364020032
30
0
10
968.16183050903055
20
-471.63510586133788
30
0
10
968.36189192342522
20
-471.81133768622118
30
0
10
968.56276031432481
20
-471.98612148950997
30
0
10
968.76443636574606
20
-472.15944182503853
30
0
10
968.96692001075564
20
-472.33128527359548
30
0
10
969.17021127989324
20
-472.50163793855842
30
0
10
969.37431101978757
20
-472.67048332185823
30
0
10
969.57922154988239
20
-472.83780037493807
30
0
10
969.78494760181036
20
-473.00356071659911
30
0
10
969.99149626755479
20
-473.16772875369878
30
0
10
970.19887508428621
20
-473.33026726531591
30
0
10
970.4070903893745
20
-473.49114218743659
30
0
10
970.61614583016694
20
-473.65032694397337
30
0
10
970.82604015235904
20
-473.80780887795243
30
0
10
971.03676745701534
20
-473.96358847318169
30
0
10
971.24832184112802
20
-474.11766577584018
30
0
10
971.46070138659866
20
-474.27002871471763
30
0
10
971.67391172452835
20
-474.42064265473675
30
0
10
971.88797142740793
20
-474.56943461602867
30
0
10
972.10291091098816
20
-474.7162964163021
30
0
10
972.3187617326987
20
-474.86111581273911
30
0
10
972.53554731637382
20
-475.00380348457497
30
0
10
972.7532748829741
20
-475.144316485226
30
0
10
972.97192248686611
20
-475.28269598682527
30
0
10
973.1914443135895
20
-475.41905168444629
30
0
10
973.4117962245798
20
-475.55348705485687
30
0
10
973.63295810361876
20
-475.68603396415199
30
0
10
973.85495304808228
20
-475.81659645968529
30
0
10
974.0778789619485
20
-475.94485840336034
30
0
10
974.30188866775097
20
-476.07034117262367
30
0
10
974.52713169936055
20
-476.19257294303054
30
0
10
974.75370248620379
20
-476.31123955144164
30
0
10
974.98159606153808
20
-476.42631292845397
30
0
10
975.21063470361867
20
-476.53826548246036
30
0
10
975.44054253464822
20
-476.64784738825148
30
0
10
975.67108585213532
20
-476.75566994740677
30
0
10
975.90219882503993
20
-476.86183168851557
30
0
10
976.13410145998773
20
-476.96556836331871
30
0
10
976.36745776032751
20
-477.06478143377382
30
0
10
976.60319932819039
20
-477.15657600236506
30
0
10
976.79446444555788
20
-477.22171887005806
30
0
10
976.93975679599453
20
-477.26486345212123
30
0
10
977.03748139708978
20
-477.29095349489711
30
0
10
977.08655946004774
20
-477.30333025160684
30
0
0
LINE
5
388
100
AcDbEntity
8
0
100
AcDbLine
10
977.08655946004774
20
-477.30333025160689
30
0
11
978.51931708046834
21
-477.66465038983506
31
0
0
ARC
5
389
100
AcDbEntity
8
0
100
AcDbCircle
10
977.05214156123384
20
-483.4825018829344
30
0
40
6.0000000000000595
210
-0
220
0
230
1
100
AcDbArc
50
-10.396341600610222
51
75.8459842282182
0
LWPOLYLINE
5
390
100
AcDbEntity
8
0
100
AcDbPolyline
90
8
70
1
43
0.0
10
868.97998206529155
20
-451.77844473675498
42
-0.99999999999999989
10
864.70142035368792
20
-456.05700644835855
10
849.25854377689552
20
-456.05700644835849
42
-0.99999999999999989
10
844.97998206529155
20
-451.7784447367552
10
844.97998206529189
20
-436.33556815996269
42
-0.99999999999999989
10
849.25854377689518
20
-432.05700644835883
10
864.70142035368826
20
-432.05700644835872
42
-0.99999999999999989
10
868.97998206529121
20
-436.33556815996269
0
CIRCLE
5
391
100
AcDbEntity
8
0
100
AcDbCircle
10
856.97998206529155
20
-444.05700644835866
30
0
40
23.999999999999989
210
0
220
0
230
1
0
ARC
5
392
100
AcDbEntity
8
0
100
AcDbCircle
10
1071.8729470387009
20
-151.87897833827418
30
0
40
3.0254000000000323
210
0
220
0
230
1
100
AcDbArc
50
-134.99999999999582
51
45.000000000004569
0
LINE
5
393
100
AcDbEntity
8
0
100
AcDbLine
10
1069.7336661828992
20
-154.01825919407614
30
0
11
1066.0907896061062
21
-154.01825919407614
31
0
0
ARC
5
394
100
AcDbEntity
8
0
100
AcDbCircle
10
1063.9515087503048
20
-151.87897833827429
30
0
40
3.0254000000000705
210
0
220
0
230
1
100
AcDbArc
50
134.99999999998784
51
314.99999999999432
0
LINE
5
395
100
AcDbEntity
8
0
100
AcDbLine
10
1061.8122278945034
20
-149.73969748247197
30
0
11
1061.8122278945034
21
-102.81825919407618
31
0
0
LINE
5
396
100
AcDbEntity
8
0
100
AcDbLine
10
1061.8122278945034
20
-102.81825919407618
30
0
11
1049.9122278945035
21
-102.81825919407616
31
0
0
LINE
5
397
100
AcDbEntity
8
0
100
AcDbLine
10
1049.9122278945035
20
-102.81825919407616
30
0
11
1049.9122278945035
21
-308.53969748247272
31
0
0
ARC
5
398
100
AcDbEntity
8
0
100
AcDbCircle
10
1047.7729470387012
20
-310.67897833827408
30
0
40
3.025400000000058
210
0
220
0
230
1
100
AcDbArc
50
-134.99999999999545
51
44.999999999987061
0
LINE
5
399
100
AcDbEntity
8
0
100
AcDbLine
10
1045.6336661828996
20
-312.81825919407606
30
0
11
778.1907896061067
21
-312.81825919407623
31
0
0
ARC
5
400
100
AcDbEntity
8
0
100
AcDbCircle
10
776.05150875030517
20
-310.67897833827419
30
0
40
3.0254000000000323
210
0
220
0
230
1
100
AcDbArc
50
134.99999999999545
51
314.99999999999312
0
LINE
5
401
100
AcDbEntity
8
0
100
AcDbLine
10
773.91222789450353
20
-308.53969748247221
30
0
11
773.91222789450353
21
-102.81825919407638
31
0
0
LINE
5
402
100
AcDbEntity
8
0
100
AcDbLine
10
773.91222789450353
20
-102.81825919407638
30
0
11
762.01222789450355
21
-102.81825919407635
31
0
0
LINE
5
403
100
AcDbEntity
8
0
100
AcDbLine
10
762.01222789450355
20
-102.81825919407635
30
0
11
762.01222789450355
21
-149.73969748247305
31
0
0
ARC
5
404
100
AcDbEntity
8
0
100
AcDbCircle
10
759.87294703870134
20
-151.87897833827441
30
0
40
3.0253999999999954
210
0
220
0
230
1
100
AcDbArc
50
-134.99999999999622
51
44.999999999988582
0
LINE
5
405
100
AcDbEntity
8
0
100
AcDbLine
10
757.7336661828997
20
-154.01825919407634
30
0
11
754.09078960610657
21
-154.01825919407634
31
0
0
ARC
5
406
100
AcDbEntity
8
0
100
AcDbCircle
10
751.95150875030492
20
-151.87897833827441
30
0
40
3.0254000000000074
210
0
220
0
230
1
100
AcDbArc
50
134.99999999998784
51
314.99999999999619
0
LINE
5
407
100
AcDbEntity
8
0
100
AcDbLine
10
749.81222789450362
20
-149.7396974824722
30
0
11
749.81222789450374
21
-102.81825919407636
31
0
0
LINE
5
408
100
AcDbEntity
8
0
100
AcDbLine
10
749.81222789450374
20
-102.81825919407636
30
0
11
737.91222789450376
21
-102.81825919407635
31
0
0
LINE
5
409
100
AcDbEntity
8
0
100
AcDbLine
10
737.91222789450376
20
-102.81825919407635
30
0
11
737.91222789450376
21
-364.81825919407629
31
0
0
LINE
5
410
100
AcDbEntity
8
0
100
AcDbLine
10
737.91222789450376
20
-364.81825919407629
30
0
11
749.91222789450376
21
-364.81825919407629
31
0
0
LINE
5
411
100
AcDbEntity
8
0
100
AcDbLine
10
749.91222789450376
20
-364.81825919407629
30
0
11
749.91222789450364
21
-351.09682090568003
31
0
0
ARC
5
412
100
AcDbEntity
8
0
100
AcDbCircle
10
752.05150875030495
20
-348.95754004987788
30
0
40
3.025400000000058
210
0
220
-0
230
1
100
AcDbArc
50
44.99999999999315
51
225.00000000001143
0
LINE
5
413
100
AcDbEntity
8
0
100
AcDbLine
10
754.19078960610705
20
-346.81825919407629
30
0
11
757.63366618289933
21
-346.81825919407623
31
0
0
ARC
5
414
100
AcDbEntity
8
0
100
AcDbCircle
10
759.77294703870143
20
-348.95754004987782
30
0
40
3.0253999999999568
210
0
220
0
230
1
100
AcDbArc
50
-44.999999999987075
51
135.00000000000688
0
LINE
5
415
100
AcDbEntity
8
0
100
AcDbLine
10
761.91222789450364
20
-351.09682090567907
30
0
11
761.91222789450364
21
-364.81825919407629
31
0
0
LINE
5
416
100
AcDbEntity
8
0
100
AcDbLine
10
761.91222789450364
20
-364.81825919407629
30
0
11
1061.9122278945035
21
-364.81825919407606
31
0
0
LINE
5
417
100
AcDbEntity
8
0
100
AcDbLine
10
1061.9122278945035
20
-364.81825919407606
30
0
11
1061.9122278945035
21
-351.09682090568003
31
0
0
ARC
5
418
100
AcDbEntity
8
0
100
AcDbCircle
10
1064.0515087503047
20
-348.95754004987771
30
0
40
3.0254000000000576
210
0
220
-0
230
1
100
AcDbArc
50
44.999999999997719
51
225.00000000001523
0
LINE
5
419
100
AcDbEntity
8
0
100
AcDbLine
10
1066.1907896061066
20
-346.81825919407601
30
0
11
1069.6336661828991
21
-346.81825919407601
31
0
0
ARC
5
420
100
AcDbEntity
8
0
100
AcDbCircle
10
1071.772947038701
20
-348.95754004987759
30
0
40
3.0254000000001078
210
0
220
0
230
1
100
AcDbArc
50
-44.999999999981732
51
135.00000000000381
0
LINE
5
421
100
AcDbEntity
8
0
100
AcDbLine
10
1073.9122278945035
20
-351.09682090567878
30
0
11
1073.9122278945035
21
-364.81825919407606
31
0
0
LINE
5
422
100
AcDbEntity
8
0
100
AcDbLine
10
1073.9122278945035
20
-364.81825919407606
30
0
11
1085.9122278945033
21
-364.81825919407606
31
0
0
LINE
5
423
100
AcDbEntity
8
0
100
AcDbLine
10
1085.9122278945033
20
-364.81825919407606
30
0
11
1085.9122278945031
21
-102.81825919407616
31
0
0
LINE
5
424
100
AcDbEntity
8
0
100
AcDbLine
10
1085.9122278945031
20
-102.81825919407616
30
0
11
1074.0122278945032
21
-102.81825919407612
31
0
0
LINE
5
425
100
AcDbEntity
8
0
100
AcDbLine
10
1074.0122278945032
20
-102.81825919407612
30
0
11
1074.0122278945025
21
-149.7396974824722
31
0
0
ARC
5
426
100
AcDbEntity
8
0
100
AcDbCircle
10
841.05201729925273
20
-47.141875966464788
30
0
40
3.0253999999999448
210
0
220
0
230
1
100
AcDbArc
50
-134.99999999999741
51
45.000000000002572
0
LINE
5
427
100
AcDbEntity
8
0
100
AcDbLine
10
838.91273644345108
20
-49.281156822266624
30
0
11
835.46985986665823
21
-49.281156822266624
31
0
0
ARC
5
428
100
AcDbEntity
8
0
100
AcDbCircle
10
833.33057901085635
20
-47.141875966464767
30
0
40
3.025400000000058
210
0
220
0
230
1
100
AcDbArc
50
134.99999999998002
51
315.00000000000017
0
LINE
5
429
100
AcDbEntity
8
0
100
AcDbLine
10
831.19129815505528
20
-45.002595110662199
30
0
11
831.19129815505539
21
-31.281156822266645
31
0
0
LINE
5
430
100
AcDbEntity
8
0
100
AcDbLine
10
831.19129815505539
20
-31.281156822266645
30
0
11
819.19129815505562
21
-31.281156822266635
31
0
0
LINE
5
431
100
AcDbEntity
8
0
100
AcDbLine
10
819.19129815505562
20
-31.281156822266635
30
0
11
819.19129815505562
21
-293.28115682226633
31
0
0
LINE
5
432
100
AcDbEntity
8
0
100
AcDbLine
10
819.19129815505562
20
-293.28115682226633
30
0
11
831.09129815505548
21
-293.28115682226633
31
0
0
LINE
5
433
100
AcDbEntity
8
0
100
AcDbLine
10
831.09129815505548
20
-293.28115682226633
30
0
11
831.09129815505537
21
-246.35971853387048
31
0
0
ARC
5
434
100
AcDbEntity
8
0
100
AcDbCircle
10
833.23057901085633
20
-244.22043767806792
30
0
40
3.0254000000000074
210
0
220
-0
230
1
100
AcDbArc
50
44.999999999992383
51
225.00000000002132
0
LINE
5
435
100
AcDbEntity
8
0
100
AcDbLine
10
835.36985986665843
20
-242.08115682226639
30
0
11
839.01273644345054
21
-242.08115682226639
31
0
0
ARC
5
436
100
AcDbEntity
8
0
100
AcDbCircle
10
841.15201729925275
20
-244.22043767806798
30
0
40
3.0254000000000074
210
0
220
0
230
1
100
AcDbArc
50
-44.999999999976794
51
135.00000000000838
0
LINE
5
437
100
AcDbEntity
8
0
100
AcDbLine
10
843.29129815505542
20
-246.35971853386891
30
0
11
843.2912981550553
21
-293.28115682226638
31
0
0
LINE
5
438
100
AcDbEntity
8
0
100
AcDbLine
10
843.2912981550553
20
-293.28115682226638
30
0
11
855.19129815505516
21
-293.28115682226633
31
0
0
LINE
5
439
100
AcDbEntity
8
0
100
AcDbLine
10
855.19129815505516
20
-293.28115682226633
30
0
11
855.19129815505539
21
-87.559718533870921
31
0
0
ARC
5
440
100
AcDbEntity
8
0
100
AcDbCircle
10
857.33057901085647
20
-85.420437678068339
30
0
40
3.0253999999999568
210
0
220
-0
230
1
100
AcDbArc
50
44.99999999999924
51
225.00000000002015
0
LINE
5
441
100
AcDbEntity
8
0
100
AcDbLine
10
859.46985986665823
20
-83.281156822266638
30
0
11
1126.9127364434503
21
-83.281156822266837
31
0
0
ARC
5
442
100
AcDbEntity
8
0
100
AcDbCircle
10
1129.0520172992522
20
-85.420437678068538
30
0
40
3.0253999999999697
210
0
220
0
230
1
100
AcDbArc
50
-44.99999999997069
51
135.0000000000023
0
LINE
5
443
100
AcDbEntity
8
0
100
AcDbLine
10
1131.1912981550549
20
-87.55971853386913
30
0
11
1131.1912981550549
21
-293.28115682226661
31
0
0
LINE
5
444
100
AcDbEntity
8
0
100
AcDbLine
10
1131.1912981550549
20
-293.28115682226661
30
0
11
1143.0912981550548
21
-293.28115682226661
31
0
0
LINE
5
445
100
AcDbEntity
8
0
100
AcDbLine
10
1143.0912981550548
20
-293.28115682226661
30
0
11
1143.0912981550548
21
-246.35971853387105
31
0
0
ARC
5
446
100
AcDbEntity
8
0
100
AcDbCircle
10
1145.2305790108553
20
-244.22043767806812
30
0
40
3.0254000000000829
210
0
220
-0
230
1
100
AcDbArc
50
44.999999999988582
51
225.00000000003234
0
LINE
5
447
100
AcDbEntity
8
0
100
AcDbLine
10
1147.3698598666576
20
-242.08115682226665
30
0
11
1151.0127364434497
21
-242.08115682226662
31
0
0
ARC
5
448
100
AcDbEntity
8
0
100
AcDbCircle
10
1153.1520172992521
20
-244.22043767806821
30
0
40
3.0253999999999071
210
0
220
0
230
1
100
AcDbArc
50
-44.999999999971095
51
135.00000000000989
0
LINE
5
449
100
AcDbEntity
8
0
100
AcDbLine
10
1155.2912981550548
20
-246.35971853386883
30
0
11
1155.2912981550546
21
-293.28115682226667
31
0
0
LINE
5
450
100
AcDbEntity
8
0
100
AcDbLine
10
1155.2912981550546
20
-293.28115682226667
30
0
11
1167.1912981550545
21
-293.28115682226661
31
0
0
LINE
5
451
100
AcDbEntity
8
0
100
AcDbLine
10
1167.1912981550545
20
-293.28115682226661
30
0
11
1167.1912981550552
21
-31.281156822266922
31
0
0
LINE
5
452
100
AcDbEntity
8
0
100
AcDbLine
10
1167.1912981550552
20
-31.281156822266922
30
0
11
1155.1912981550552
21
-31.281156822266929
31
0
0
LINE
5
453
100
AcDbEntity
8
0
100
AcDbLine
10
1155.1912981550552
20
-31.281156822266929
30
0
11
1155.1912981550552
21
-45.002595110664529
31
0
0
ARC
5
454
100
AcDbEntity
8
0
100
AcDbCircle
10
1153.0520172992519
20
-47.141875966465093
30
0
40
3.0254000000000136
210
0
220
0
230
1
100
AcDbArc
50
-134.99999999999801
51
44.999999999964217
0
LINE
5
455
100
AcDbEntity
8
0
100
AcDbLine
10
1150.9127364434503
20
-49.281156822266887
30
0
11
1147.4698598666573
21
-49.281156822266901
31
0
0
ARC
5
456
100
AcDbEntity
8
0
100
AcDbCircle
10
1145.3305790108557
20
-47.141875966465093
30
0
40
3.025399999999951
210
0
220
0
230
1
100
AcDbArc
50
134.9999999999649
51
314.99999999999778
0
LINE
5
457
100
AcDbEntity
8
0
100
AcDbLine
10
1143.1912981550552
20
-45.002595110661964
30
0
11
1143.1912981550549
21
-31.281156822266922
31
0
0
LINE
5
458
100
AcDbEntity
8
0
100
AcDbLine
10
1143.1912981550549
20
-31.281156822266922
30
0
11
843.19129815505539
21
-31.281156822266656
31
0
0
LINE
5
459
100
AcDbEntity
8
0
100
AcDbLine
10
843.19129815505539
20
-31.281156822266656
30
0
11
843.19129815505437
21
-45.002595110662952
31
0
0
ARC
5
460
100
AcDbEntity
8
0
100
AcDbCircle
10
698.4344981816389
20
-372.40825500750412
30
0
40
3.0254000000001078
210
0
220
0
230
1
100
AcDbArc
50
-134.99999999998249
51
45.000000000017508
0
LINE
5
461
100
AcDbEntity
8
0
100
AcDbLine
10
696.29521732583771
20
-374.54753586330662
30
0
11
692.75234074904336
21
-374.54753586330662
31
0
0
ARC
5
462
100
AcDbEntity
8
0
100
AcDbCircle
10
690.61305989324228
20
-372.40825500750412
30
0
40
3.0254000000000074
210
0
220
0
230
1
100
AcDbArc
50
134.99999999995052
51
314.99999999998096
0
LINE
5
463
100
AcDbEntity
8
0
100
AcDbLine
10
688.47377903744234
20
-370.26897415170049
30
0
11
688.47377903744234
21
-359.62609757491146
31
0
0
ARC
5
464
100
AcDbEntity
8
0
100
AcDbCircle
10
690.61305989324239
20
-357.48681671910782
30
0
40
3.0253999999999071
210
0
220
-0
230
1
100
AcDbArc
50
44.999999999983253
51
225.00000000004795
0
LINE
5
465
100
AcDbEntity
8
0
100
AcDbLine
10
692.75234074904472
20
-355.34753586330675
30
0
11
712.47377903744223
21
-355.34753586330675
31
0
0
LINE
5
466
100
AcDbEntity
8
0
100
AcDbLine
10
712.47377903744223
20
-355.34753586330675
30
0
11
712.47377903744223
21
-336.14753586330693
31
0
0
LINE
5
467
100
AcDbEntity
8
0
100
AcDbLine
10
712.47377903744223
20
-336.14753586330693
30
0
11
700.57377903744236
21
-336.14753586330687
31
0
0
LINE
5
468
100
AcDbEntity
8
0
100
AcDbLine
10
700.57377903744236
20
-336.14753586330687
30
0
11
700.57377903744236
21
-338.2689741517043
31
0
0
ARC
5
469
100
AcDbEntity
8
0
100
AcDbCircle
10
698.4344981816389
20
-340.40825500750424
30
0
40
3.0254000000001078
210
0
220
0
230
1
100
AcDbArc
50
-134.99999999998249
51
44.999999999952806
0
LINE
5
470
100
AcDbEntity
8
0
100
AcDbLine
10
696.29521732583771
20
-342.54753586330673
30
0
11
692.75234074904336
21
-342.54753586330673
31
0
0
ARC
5
471
100
AcDbEntity
8
0
100
AcDbCircle
10
690.61305989324228
20
-340.40825500750424
30
0
40
3.0254000000000074
210
0
220
0
230
1
100
AcDbArc
50
134.99999999995052
51
314.99999999998096
0
LINE
5
472
100
AcDbEntity
8
0
100
AcDbLine
10
688.47377903744234
20
-338.2689741517006
30
0
11
688.47377903744234
21
-327.62609757491128
31
0
0
ARC
5
473
100
AcDbEntity
8
0
100
AcDbCircle
10
690.61305989324239
20
-325.48681671910765
30
0
40
3.0253999999999071
210
0
220
-0
230
1
100
AcDbArc
50
44.999999999983253
51
225.00000000004795
0
LINE
5
474
100
AcDbEntity
8
0
100
AcDbLine
10
692.75234074904472
20
-323.34753586330658
30
0
11
712.47377903744223
21
-323.34753586330658
31
0
0
LINE
5
475
100
AcDbEntity
8
0
100
AcDbLine
10
712.47377903744223
20
-323.34753586330658
30
0
11
712.47377903744223
21
-304.1475358633067
31
0
0
LINE
5
476
100
AcDbEntity
8
0
100
AcDbLine
10
712.47377903744223
20
-304.1475358633067
30
0
11
700.57377903744236
21
-304.1475358633067
31
0
0
LINE
5
477
100
AcDbEntity
8
0
100
AcDbLine
10
700.57377903744236
20
-304.1475358633067
30
0
11
700.57377903744236
21
-306.26897415170413
31
0
0
ARC
5
478
100
AcDbEntity
8
0
100
AcDbCircle
10
698.43449818163901
20
-308.40825500750407
30
0
40
3.0254000000000074
210
0
220
0
230
1
100
AcDbArc
50
-134.99999999998096
51
44.999999999954326
0
LINE
5
479
100
AcDbEntity
8
0
100
AcDbLine
10
696.29521732583794
20
-310.54753586330656
30
0
11
692.75234074904347
21
-310.54753586330656
31
0
0
ARC
5
480
100
AcDbEntity
8
0
100
AcDbCircle
10
690.61305989324251
20
-308.40825500750407
30
0
40
3.0254000000000576
210
0
220
0
230
1
100
AcDbArc
50
134.99999999995583
51
314.99999999997942
0
LINE
5
481
100
AcDbEntity
8
0
100
AcDbLine
10
688.47377903744234
20
-306.2689741517006
30
0
11
688.47377903744234
21
-295.62609757491111
31
0
0
ARC
5
482
100
AcDbEntity
8
0
100
AcDbCircle
10
690.61305989324239
20
-293.48681671910771
30
0
40
3.0253999999999071
210
0
220
-0
230
1
100
AcDbArc
50
44.999999999983253
51
225.00000000004491
0
LINE
5
483
100
AcDbEntity
8
0
100
AcDbLine
10
692.75234074904472
20
-291.34753586330663
30
0
11
712.47377903744223
21
-291.34753586330669
31
0
0
LINE
5
484
100
AcDbEntity
8
0
100
AcDbLine
10
712.47377903744223
20
-291.34753586330669
30
0
11
712.47377903744223
21
-272.14753586330681
31
0
0
LINE
5
485
100
AcDbEntity
8
0
100
AcDbLine
10
712.47377903744223
20
-272.14753586330681
30
0
11
700.57377903744236
21
-272.14753586330681
31
0
0
LINE
5
486
100
AcDbEntity
8
0
100
AcDbLine
10
700.57377903744236
20
-272.14753586330681
30
0
11
700.57377903744236
21
-274.26897415170424
31
0
0
ARC
5
487
100
AcDbEntity
8
0
100
AcDbCircle
10
698.43449818163901
20
-276.40825500750418
30
0
40
3.0254000000000074
210
0
220
0
230
1
100
AcDbArc
50
-134.99999999998096
51
44.999999999954326
0
LINE
5
488
100
AcDbEntity
8
0
100
AcDbLine
10
696.29521732583794
20
-278.54753586330668
30
0
11
692.75234074904347
21
-278.54753586330668
31
0
0
ARC
5
489
100
AcDbEntity
8
0
100
AcDbCircle
10
690.61305989324251
20
-276.40825500750418
30
0
40
3.0254000000000576
210
0
220
0
230
1
100
AcDbArc
50
134.99999999995583
51
314.99999999997942
0
LINE
5
490
100
AcDbEntity
8
0
100
AcDbLine
10
688.47377903744234
20
-274.26897415170072
30
0
11
688.47377903744234
21
-263.62609757491111
31
0
0
ARC
5
491
100
AcDbEntity
8
0
100
AcDbCircle
10
690.61305989324239
20
-261.48681671910759
30
0
40
3.0254000000000323
210
0
220
-0
230
1
100
AcDbArc
50
44.999999999981732
51
225.00000000004641
0
LINE
5
492
100
AcDbEntity
8
0
100
AcDbLine
10
692.75234074904483
20
-259.34753586330652
30
0
11
712.47377903744223
21
-259.34753586330652
31
0
0
LINE
5
493
100
AcDbEntity
8
0
100
AcDbLine
10
712.47377903744223
20
-259.34753586330652
30
0
11
712.47377903744223
21
-240.14753586330667
31
0
0
LINE
5
494
100
AcDbEntity
8
0
100
AcDbLine
10
712.47377903744223
20
-240.14753586330667
30
0
11
700.57377903744236
21
-240.14753586330664
31
0
0
LINE
5
495
100
AcDbEntity
8
0
100
AcDbLine
10
700.57377903744236
20
-240.14753586330664
30
0
11
700.57377903744236
21
-242.2689741517039
31
0
0
ARC
5
496
100
AcDbEntity
8
0
100
AcDbCircle
10
698.43449818163879
20
-244.40825500750395
30
0
40
3.0253999999999319
210
0
220
0
230
1
100
AcDbArc
50
-134.99999999997868
51
44.999999999952806
0
LINE
5
497
100
AcDbEntity
8
0
100
AcDbLine
10
696.29521732583783
20
-246.54753586330651
30
0
11
692.75234074904347
21
-246.54753586330651
31
0
0
ARC
5
498
100
AcDbEntity
8
0
100
AcDbCircle
10
690.61305989324251
20
-244.40825500750395
30
0
40
3.0254000000000825
210
0
220
0
230
1
100
AcDbArc
50
134.99999999995583
51
314.99999999997868
0
LINE
5
499
100
AcDbEntity
8
0
100
AcDbLine
10
688.47377903744234
20
-242.26897415170049
30
0
11
688.47377903744234
21
-240.14753586330664
31
0
0
LINE
5
500
100
AcDbEntity
8
0
100
AcDbLine
10
688.47377903744234
20
-240.14753586330664
30
0
11
288.47377903744325
21
-240.1475358633067
31
0
0
LINE
5
501
100
AcDbEntity
8
0
100
AcDbLine
10
288.47377903744325
20
-240.1475358633067
30
0
11
288.47377903744331
21
-242.26897415170322
31
0
0
ARC
5
502
100
AcDbEntity
8
0
100
AcDbCircle
10
286.3344981816407
20
-244.40825500750412
30
0
40
3.0254000000000074
210
0
220
0
230
1
100
AcDbArc
50
-134.99999999998096
51
44.99999999997717
0
LINE
5
503
100
AcDbEntity
8
0
100
AcDbLine
10
284.19521732583962
20
-246.54753586330662
30
0
11
280.65234074904549
21
-246.54753586330662
31
0
0
ARC
5
504
100
AcDbEntity
8
0
100
AcDbCircle
10
278.51305989324459
20
-244.40825500750412
30
0
40
3.0254000000000074
210
0
220
0
230
1
100
AcDbArc
50
134.99999999998096
51
314.99999999997868
0
LINE
5
505
100
AcDbEntity
8
0
100
AcDbLine
10
276.37377903744351
20
-242.26897415170163
30
0
11
276.37377903744351
21
-240.14753586330676
31
0
0
LINE
5
506
100
AcDbEntity
8
0
100
AcDbLine
10
276.37377903744351
20
-240.14753586330676
30
0
11
264.47377903744359
21
-240.14753586330676
31
0
0
LINE
5
507
100
AcDbEntity
8
0
100
AcDbLine
10
264.47377903744359
20
-240.14753586330676
30
0
11
264.47377903744353
21
-259.34753586330663
31
0
0
LINE
5
508
100
AcDbEntity
8
0
100
AcDbLine
10
264.47377903744353
20
-259.34753586330663
30
0
11
284.19521732583826
21
-259.34753586330663
31
0
0
ARC
5
509
100
AcDbEntity
8
0
100
AcDbCircle
10
286.3344981816407
20
-261.48681671910771
30
0
40
3.0254000000000074
210
0
220
0
230
1
100
AcDbArc
50
-44.999999999977916
51
135.00000000001828
0
LINE
5
510
100
AcDbEntity
8
0
100
AcDbLine
10
288.47377903744331
20
-263.62609757490867
30
0
11
288.47377903744331
21
-274.2689741517035
31
0
0
ARC
5
511
100
AcDbEntity
8
0
100
AcDbCircle
10
286.3344981816407
20
-276.40825500750412
30
0
40
3.0254000000000323
210
0
220
0
230
1
100
AcDbArc
50
-134.99999999998025
51
44.999999999973355
0
LINE
5
512
100
AcDbEntity
8
0
100
AcDbLine
10
284.19521732583962
20
-278.54753586330668
30
0
11
280.65234074904549
21
-278.54753586330668
31
0
0
ARC
5
513
100
AcDbEntity
8
0
100
AcDbCircle
10
278.51305989324459
20
-276.40825500750418
30
0
40
3.0254000000000074
210
0
220
0
230
1
100
AcDbArc
50
134.99999999998096
51
314.99999999997868
0
LINE
5
514
100
AcDbEntity
8
0
100
AcDbLine
10
276.37377903744351
20
-274.26897415170168
30
0
11
276.37377903744351
21
-272.14753586330681
31
0
0
LINE
5
515
100
AcDbEntity
8
0
100
AcDbLine
10
276.37377903744351
20
-272.14753586330681
30
0
11
264.47377903744359
21
-272.14753586330681
31
0
0
LINE
5
516
100
AcDbEntity
8
0
100
AcDbLine
10
264.47377903744359
20
-272.14753586330681
30
0
11
264.47377903744353
21
-291.34753586330663
31
0
0
LINE
5
517
100
AcDbEntity
8
0
100
AcDbLine
10
264.47377903744353
20
-291.34753586330663
30
0
11
284.19521732583826
21
-291.34753586330669
31
0
0
ARC
5
518
100
AcDbEntity
8
0
100
AcDbCircle
10
286.3344981816407
20
-293.48681671910776
30
0
40
3.0254000000000074
210
0
220
0
230
1
100
AcDbArc
50
-44.999999999975621
51
135.00000000001828
0
LINE
5
519
100
AcDbEntity
8
0
100
AcDbLine
10
288.47377903744336
20
-295.62609757490861
30
0
11
288.47377903744331
21
-306.26897415170322
31
0
0
ARC
5
520
100
AcDbEntity
8
0
100
AcDbCircle
10
286.3344981816407
20
-308.40825500750401
30
0
40
3.0254000000000323
210
0
220
0
230
1
100
AcDbArc
50
-134.99999999998025
51
44.999999999975635
0
LINE
5
521
100
AcDbEntity
8
0
100
AcDbLine
10
284.19521732583962
20
-310.54753586330656
30
0
11
280.65234074904549
21
-310.54753586330656
31
0
0
ARC
5
522
100
AcDbEntity
8
0
100
AcDbCircle
10
278.51305989324459
20
-308.40825500750407
30
0
40
3.0254000000000074
210
0
220
0
230
1
100
AcDbArc
50
134.99999999998096
51
314.99999999997868
0
LINE
5
523
100
AcDbEntity
8
0
100
AcDbLine
10
276.37377903744351
20
-306.26897415170157
30
0
11
276.37377903744351
21
-304.1475358633067
31
0
0
LINE
5
524
100
AcDbEntity
8
0
100
AcDbLine
10
276.37377903744351
20
-304.1475358633067
30
0
11
264.47377903744359
21
-304.1475358633067
31
0
0
LINE
5
525
100
AcDbEntity
8
0
100
AcDbLine
10
264.47377903744359
20
-304.1475358633067
30
0
11
264.47377903744353
21
-323.34753586330646
31
0
0
LINE
5
526
100
AcDbEntity
8
0
100
AcDbLine
10
264.47377903744353
20
-323.34753586330646
30
0
11
284.19521732583826
21
-323.34753586330658
31
0
0
ARC
5
527
100
AcDbEntity
8
0
100
AcDbCircle
10
286.33449818164064
20
-325.48681671910765
30
0
40
3.0254000000000323
210
0
220
0
230
1
100
AcDbArc
50
-44.999999999974861
51
135.00000000001751
0
LINE
5
528
100
AcDbEntity
8
0
100
AcDbLine
10
288.47377903744336
20
-327.6260975749085
30
0
11
288.47377903744331
21
-338.26897415170345
31
0
0
ARC
5
529
100
AcDbEntity
8
0
100
AcDbCircle
10
286.33449818164064
20
-340.40825500750424
30
0
40
3.0253999999999821
210
0
220
0
230
1
100
AcDbArc
50
-134.99999999998025
51
44.999999999974875
0
LINE
5
530
100
AcDbEntity
8
0
100
AcDbLine
10
284.19521732583962
20
-342.54753586330673
30
0
11
280.65234074904549
21
-342.54753586330673
31
0
0
ARC
5
531
100
AcDbEntity
8
0
100
AcDbCircle
10
278.51305989324459
20
-340.40825500750424
30
0
40
3.0254000000000074
210
0
220
0
230
1
100
AcDbArc
50
134.99999999998096
51
314.99999999997868
0
LINE
5
532
100
AcDbEntity
8
0
100
AcDbLine
10
276.37377903744351
20
-338.26897415170174
30
0
11
276.37377903744351
21
-336.14753586330687
31
0
0
LINE
5
533
100
AcDbEntity
8
0
100
AcDbLine
10
276.37377903744351
20
-336.14753586330687
30
0
11
264.47377903744359
21
-336.14753586330687
31
0
0
LINE
5
534
100
AcDbEntity
8
0
100
AcDbLine
10
264.47377903744359
20
-336.14753586330687
30
0
11
264.47377903744353
21
-355.34753586330669
31
0
0
LINE
5
535
100
AcDbEntity
8
0
100
AcDbLine
10
264.47377903744353
20
-355.34753586330669
30
0
11
284.19521732583826
21
-355.34753586330675
31
0
0
ARC
5
536
100
AcDbEntity
8
0
100
AcDbCircle
10
286.33449818164064
20
-357.48681671910782
30
0
40
3.0254000000000323
210
0
220
0
230
1
100
AcDbArc
50
-44.999999999974861
51
135.00000000001751
0
LINE
5
537
100
AcDbEntity
8
0
100
AcDbLine
10
288.47377903744336
20
-359.62609757490867
30
0
11
288.47377903744331
21
-370.26897415170333
31
0
0
ARC
5
538
100
AcDbEntity
8
0
100
AcDbCircle
10
286.33449818164064
20
-372.40825500750412
30
0
40
3.0253999999999821
210
0
220
0
230
1
100
AcDbArc
50
-134.99999999998025
51
44.999999999974875
0
LINE
5
539
100
AcDbEntity
8
0
100
AcDbLine
10
284.19521732583962
20
-374.54753586330662
30
0
11
280.65234074904549
21
-374.54753586330662
31
0
0
ARC
5
540
100
AcDbEntity
8
0
100
AcDbCircle
10
278.51305989324459
20
-372.40825500750412
30
0
40
3.0254000000000074
210
0
220
0
230
1
100
AcDbArc
50
134.99999999998096
51
314.99999999997868
0
LINE
5
541
100
AcDbEntity
8
0
100
AcDbLine
10
276.37377903744351
20
-370.26897415170163
30
0
11
276.37377903744351
21
-368.14753586330676
31
0
0
LINE
5
542
100
AcDbEntity
8
0
100
AcDbLine
10
276.37377903744351
20
-368.14753586330676
30
0
11
264.47377903744359
21
-368.14753586330676
31
0
0
LINE
5
543
100
AcDbEntity
8
0
100
AcDbLine
10
264.47377903744359
20
-368.14753586330676
30
0
11
264.47377903744353
21
-387.34753586330658
31
0
0
LINE
5
544
100
AcDbEntity
8
0
100
AcDbLine
10
264.47377903744353
20
-387.34753586330658
30
0
11
284.19521732583826
21
-387.34753586330663
31
0
0
ARC
5
545
100
AcDbEntity
8
0
100
AcDbCircle
10
286.33449818164064
20
-389.48681671910742
30
0
40
3.0254000000000323
210
0
220
0
230
1
100
AcDbArc
50
-44.999999999974861
51
135.00000000002132
0
LINE
5
546
100
AcDbEntity
8
0
100
AcDbLine
10
288.47377903744336
20
-391.62609757490827
30
0
11
288.47377903744331
21
-400.14753586330636
31
0
0
LINE
5
547
100
AcDbEntity
8
0
100
AcDbLine
10
288.47377903744331
20
-400.14753586330636
30
0
11
688.47377903744245
21
-400.1475358633063
31
0
0
LINE
5
548
100
AcDbEntity
8
0
100
AcDbLine
10
688.47377903744245
20
-400.1475358633063
30
0
11
688.47377903744234
21
-391.62609757491106
31
0
0
ARC
5
549
100
AcDbEntity
8
0
100
AcDbCircle
10
690.61305989324239
20
-389.48681671910742
30
0
40
3.0253999999999071
210
0
220
-0
230
1
100
AcDbArc
50
44.999999999983253
51
225.00000000004795
0
LINE
5
550
100
AcDbEntity
8
0
100
AcDbLine
10
692.75234074904472
20
-387.34753586330635
30
0
11
712.47377903744223
21
-387.34753586330663
31
0
0
LINE
5
551
100
AcDbEntity
8
0
100
AcDbLine
10
712.47377903744223
20
-387.34753586330663
30
0
11
712.47377903744223
21
-368.14753586330681
31
0
0
LINE
5
552
100
AcDbEntity
8
0
100
AcDbLine
10
712.47377903744223
20
-368.14753586330681
30
0
11
700.57377903744236
21
-368.14753586330676
31
0
0
LINE
5
553
100
AcDbEntity
8
0
100
AcDbLine
10
700.57377903744236
20
-368.14753586330676
30
0
11
700.57377903744009
21
-370.26897415170163
31
0
0
ARC
5
554
100
AcDbEntity
8
0
100
AcDbCircle
10
695.08877074991801
20
-184.88385216250924
30
0
40
3.0253999999999071
210
0
220
0
230
1
100
AcDbArc
50
-134.99999999998633
51
45.000000000013699
0
LINE
5
555
100
AcDbEntity
8
0
100
AcDbLine
10
692.94948989411682
20
-187.02313301831146
30
0
11
689.40661331732304
21
-187.02313301831146
31
0
0
ARC
5
556
100
AcDbEntity
8
0
100
AcDbCircle
10
687.26733246152162
20
-184.88385216250924
30
0
40
3.0254000000000074
210
0
220
0
230
1
100
AcDbArc
50
134.99999999992693
51
314.99999999998937
0
LINE
5
557
100
AcDbEntity
8
0
100
AcDbLine
10
685.12805160572259
20
-182.74457130670476
30
0
11
685.12805160572259
21
-172.1016947299172
31
0
0
ARC
5
558
100
AcDbEntity
8
0
100
AcDbCircle
10
687.26733246152185
20
-169.96241387411291
30
0
40
3.0253999999999071
210
0
220
-0
230
1
100
AcDbArc
50
44.999999999991623
51
225.00000000006733
0
LINE
5
559
100
AcDbEntity
8
0
100
AcDbLine
10
689.40661331732383
20
-167.82313301831155
30
0
11
709.12805160572236
21
-167.82313301831155
31
0
0
LINE
5
560
100
AcDbEntity
8
0
100
AcDbLine
10
709.12805160572236
20
-167.82313301831155
30
0
11
709.12805160572248
21
-148.62313301831179
31
0
0
LINE
5
561
100
AcDbEntity
8
0
100
AcDbLine
10
709.12805160572248
20
-148.62313301831179
30
0
11
697.2280516057225
21
-148.62313301831173
31
0
0
LINE
5
562
100
AcDbEntity
8
0
100
AcDbLine
10
697.2280516057225
20
-148.62313301831173
30
0
11
697.2280516057225
21
-150.74457130671027
31
0
0
ARC
5
563
100
AcDbEntity
8
0
100
AcDbCircle
10
695.08877074991801
20
-152.88385216250936
30
0
40
3.0254000000000074
210
0
220
0
230
1
100
AcDbArc
50
-134.99999999998937
51
44.999999999927688
0
LINE
5
564
100
AcDbEntity
8
0
100
AcDbLine
10
692.9494898941166
20
-155.02313301831157
30
0
11
689.40661331732258
21
-155.02313301831157
31
0
0
ARC
5
565
100
AcDbEntity
8
0
100
AcDbCircle
10
687.26733246152151
20
-152.88385216250907
30
0
40
3.025399999999995
210
0
220
0
230
1
100
AcDbArc
50
134.9999999999273
51
314.99999999998096
0
LINE
5
566
100
AcDbEntity
8
0
100
AcDbLine
10
685.12805160572248
20
-150.74457130670461
30
0
11
685.12805160572248
21
-140.10169472991703
31
0
0
ARC
5
567
100
AcDbEntity
8
0
100
AcDbCircle
10
687.26733246152151
20
-137.96241387411249
30
0
40
3.0254000000000074
210
0
220
-0
230
1
100
AcDbArc
50
44.999999999981732
51
225.00000000007387
0
LINE
5
568
100
AcDbEntity
8
0
100
AcDbLine
10
689.40661331732395
20
-135.82313301831141
30
0
11
709.12805160572225
21
-135.82313301831138
31
0
0
LINE
5
569
100
AcDbEntity
8
0
100
AcDbLine
10
709.12805160572225
20
-135.82313301831138
30
0
11
709.12805160572236
21
-116.62313301831162
31
0
0
LINE
5
570
100
AcDbEntity
8
0
100
AcDbLine
10
709.12805160572236
20
-116.62313301831162
30
0
11
697.2280516057225
21
-116.62313301831185
31
0
0
LINE
5
571
100
AcDbEntity
8
0
100
AcDbLine
10
697.2280516057225
20
-116.62313301831185
30
0
11
697.2280516057225
21
-118.7445713067104
31
0
0
ARC
5
572
100
AcDbEntity
8
0
100
AcDbCircle
10
695.08877074991801
20
-120.88385216250948
30
0
40
3.0254000000000074
210
0
220
0
230
1
100
AcDbArc
50
-134.99999999998937
51
44.999999999927688
0
LINE
5
573
100
AcDbEntity
8
0
100
AcDbLine
10
692.9494898941166
20
-123.0231330183117
30
0
11
689.40661331732258
21
-123.02313301831141
31
0
0
ARC
5
574
100
AcDbEntity
8
0
100
AcDbCircle
10
687.26733246152151
20
-120.8838521625092
30
0
40
3.025399999999995
210
0
220
0
230
1
100
AcDbArc
50
134.99999999992713
51
314.99999999998477
0
LINE
5
575
100
AcDbEntity
8
0
100
AcDbLine
10
685.12805160572248
20
-118.74457130670473
30
0
11
685.12805160572248
21
-108.10169472991771
31
0
0
ARC
5
576
100
AcDbEntity
8
0
100
AcDbCircle
10
687.26733246152162
20
-105.96241387411318
30
0
40
3.0253999999999071
210
0
220
-0
230
1
100
AcDbArc
50
44.999999999990102
51
225.00000000007211
0
LINE
5
577
100
AcDbEntity
8
0
100
AcDbLine
10
689.40661331732372
20
-103.82313301831182
30
0
11
709.12805160572225
21
-103.82313301831178
31
0
0
LINE
5
578
100
AcDbEntity
8
0
100
AcDbLine
10
709.12805160572225
20
-103.82313301831178
30
0
11
709.12805160572236
21
-84.623133018312018
31
0
0
LINE
5
579
100
AcDbEntity
8
0
100
AcDbLine
10
709.12805160572236
20
-84.623133018312018
30
0
11
697.22805160572238
21
-84.623133018311961
31
0
0
LINE
5
580
100
AcDbEntity
8
0
100
AcDbLine
10
697.22805160572238
20
-84.623133018311961
30
0
11
697.22805160572238
21
-86.744571306710796
31
0
0
ARC
5
581
100
AcDbEntity
8
0
100
AcDbCircle
10
695.08877074991801
20
-88.883852162509925
30
0
40
3.0253999999999071
210
0
220
0
230
1
100
AcDbArc
50
-134.99999999999469
51
44.99999999992977
0
LINE
5
582
100
AcDbEntity
8
0
100
AcDbLine
10
692.94948989411648
20
-91.023133018311853
30
0
11
689.40661331732304
21
-91.02313301831181
31
0
0
ARC
5
583
100
AcDbEntity
8
0
100
AcDbCircle
10
687.26733246152151
20
-88.883852162509555
30
0
40
3.0254000000000203
210
0
220
0
230
1
100
AcDbArc
50
134.99999999993511
51
314.99999999999028
0
LINE
5
584
100
AcDbEntity
8
0
100
AcDbLine
10
685.12805160572213
20
-86.744571306705339
30
0
11
685.12805160572225
21
-76.10169472991754
31
0
0
ARC
5
585
100
AcDbEntity
8
0
100
AcDbCircle
10
687.26733246152116
20
-73.962413874112997
30
0
40
3.0254000000000891
210
0
220
-0
230
1
100
AcDbArc
50
44.999999999985157
51
225.00000000007535
0
LINE
5
586
100
AcDbEntity
8
0
100
AcDbLine
10
689.4066133173236
20
-71.823133018311665
30
0
11
709.12805160572202
21
-71.823133018311609
31
0
0
LINE
5
587
100
AcDbEntity
8
0
100
AcDbLine
10
709.12805160572202
20
-71.823133018311609
30
0
11
709.12805160572225
21
-52.623133018311847
31
0
0
LINE
5
588
100
AcDbEntity
8
0
100
AcDbLine
10
709.12805160572225
20
-52.623133018311847
30
0
11
697.22805160572238
21
-52.623133018311805
31
0
0
LINE
5
589
100
AcDbEntity
8
0
100
AcDbLine
10
697.22805160572238
20
-52.623133018311805
30
0
11
697.22805160572238
21
-54.744571306710618
31
0
0
ARC
5
590
100
AcDbEntity
8
0
100
AcDbCircle
10
695.0887707499179
20
-56.883852162509719
30
0
40
3.0253999999999888
210
0
220
0
230
1
100
AcDbArc
50
-134.99999999999648
51
44.99999999992788
0
LINE
5
591
100
AcDbEntity
8
0
100
AcDbLine
10
692.94948989411625
20
-59.023133018311626
30
0
11
689.40661331732269
21
-59.023133018311647
31
0
0
ARC
5
592
100
AcDbEntity
8
0
100
AcDbCircle
10
687.26733246152139
20
-56.883852162509434
30
0
40
3.0254000000000008
210
0
220
0
230
1
100
AcDbArc
50
134.99999999992855
51
314.99999999998784
0
LINE
5
593
100
AcDbEntity
8
0
100
AcDbLine
10
685.12805160572225
20
-54.744571306704955
30
0
11
685.12805160572225
21
-52.623133018311783
31
0
0
LINE
5
594
100
AcDbEntity
8
0
100
AcDbLine
10
685.12805160572225
20
-52.623133018311783
30
0
11
285.12805160572378
21
-52.623133018312593
31
0
0
LINE
5
595
100
AcDbEntity
8
0
100
AcDbLine
10
285.12805160572378
20
-52.623133018312593
30
0
11
285.12805160572384
21
-54.74457130671005
31
0
0
ARC
5
596
100
AcDbEntity
8
0
100
AcDbCircle
10
282.98877074992095
20
-56.883852162510557
30
0
40
3.0254000000000012
210
0
220
0
230
1
100
AcDbArc
50
-134.99999999999628
51
44.999999999968018
0
LINE
5
597
100
AcDbEntity
8
0
100
AcDbLine
10
280.8494898941193
20
-59.023133018312478
30
0
11
277.30661331732574
21
-59.0231330183125
31
0
0
ARC
5
598
100
AcDbEntity
8
0
100
AcDbCircle
10
275.16733246152444
20
-56.883852162510273
30
0
40
3.0253999999999888
210
0
220
0
230
1
100
AcDbArc
50
134.99999999997192
51
314.99999999998766
0
LINE
5
599
100
AcDbEntity
8
0
100
AcDbLine
10
273.0280516057237
20
-54.744571306707442
30
0
11
273.02805160572376
21
-52.623133018312636
31
0
0
LINE
5
600
100
AcDbEntity
8
0
100
AcDbLine
10
273.02805160572376
20
-52.623133018312636
30
0
11
261.12805160572395
21
-52.623133018312657
31
0
0
LINE
5
601
100
AcDbEntity
8
0
100
AcDbLine
10
261.12805160572395
20
-52.623133018312657
30
0
11
261.12805160572412
21
-71.823133018312433
31
0
0
LINE
5
602
100
AcDbEntity
8
0
100
AcDbLine
10
261.12805160572412
20
-71.823133018312433
30
0
11
280.84948989411907
21
-71.823133018312461
31
0
0
ARC
5
603
100
AcDbEntity
8
0
100
AcDbCircle
10
282.98877074992095
20
-73.962413874114162
30
0
40
3.0253999999999888
210
0
220
0
230
1
100
AcDbArc
50
-44.999999999967841
51
135.0000000000023
0
LINE
5
604
100
AcDbEntity
8
0
100
AcDbLine
10
285.1280516057239
20
-76.101694729914712
30
0
11
285.1280516057239
21
-86.744571306709901
31
0
0
ARC
5
605
100
AcDbEntity
8
0
100
AcDbCircle
10
282.98877074992106
20
-88.883852162510735
30
0
40
3.0254000000000074
210
0
220
0
230
1
100
AcDbArc
50
-134.99999999999622
51
44.999999999973156
0
LINE
5
606
100
AcDbEntity
8
0
100
AcDbLine
10
280.84948989411942
20
-91.023133018312663
30
0
11
277.30661331732631
21
-91.023133018312663
31
0
0
ARC
5
607
100
AcDbEntity
8
0
100
AcDbCircle
10
275.16733246152455
20
-88.883852162510721
30
0
40
3.0253999999999821
210
0
220
0
230
1
100
AcDbArc
50
134.99999999997374
51
314.9999999999975
0
LINE
5
608
100
AcDbEntity
8
0
100
AcDbLine
10
273.02805160572376
20
-86.744571306707968
30
0
11
273.02805160572376
21
-84.623133018312799
31
0
0
LINE
5
609
100
AcDbEntity
8
0
100
AcDbLine
10
273.02805160572376
20
-84.623133018312799
30
0
11
261.12805160572395
21
-84.623133018312814
31
0
0
LINE
5
610
100
AcDbEntity
8
0
100
AcDbLine
10
261.12805160572395
20
-84.623133018312814
30
0
11
261.12805160572412
21
-103.8231330183126
31
0
0
LINE
5
611
100
AcDbEntity
8
0
100
AcDbLine
10
261.12805160572412
20
-103.8231330183126
30
0
11
280.84948989411907
21
-103.82313301831263
31
0
0
ARC
5
612
100
AcDbEntity
8
0
100
AcDbCircle
10
282.98877074992106
20
-105.96241387411432
30
0
40
3.0253999999999954
210
0
220
0
230
1
100
AcDbArc
50
-44.99999999996728
51
135.00000000000398
0
LINE
5
613
100
AcDbEntity
8
0
100
AcDbLine
10
285.12805160572407
20
-108.10169472991488
30
0
11
285.12805160572401
21
-118.74457130670979
31
0
0
ARC
5
614
100
AcDbEntity
8
0
100
AcDbCircle
10
282.988770749921
20
-120.88385216251032
30
0
40
3.025399999999995
210
0
220
0
230
1
100
AcDbArc
50
-134.99999999998764
51
44.999999999966882
0
LINE
5
615
100
AcDbEntity
8
0
100
AcDbLine
10
280.8494898941197
20
-123.02313301831255
30
0
11
277.30661331732563
21
-123.02313301831227
31
0
0
ARC
5
616
100
AcDbEntity
8
0
100
AcDbCircle
10
275.16733246152455
20
-120.88385216251005
30
0
40
3.025399999999995
210
0
220
0
230
1
100
AcDbArc
50
134.99999999997183
51
314.99999999998477
0
LINE
5
617
100
AcDbEntity
8
0
100
AcDbLine
10
273.02805160572382
20
-118.74457130670721
30
0
11
273.02805160572393
21
-116.62313301831269
31
0
0
LINE
5
618
100
AcDbEntity
8
0
100
AcDbLine
10
273.02805160572393
20
-116.62313301831269
30
0
11
261.12805160572412
21
-116.6231330183127
31
0
0
LINE
5
619
100
AcDbEntity
8
0
100
AcDbLine
10
261.12805160572412
20
-116.6231330183127
30
0
11
261.12805160572412
21
-135.82313301831249
31
0
0
LINE
5
620
100
AcDbEntity
8
0
100
AcDbLine
10
261.12805160572412
20
-135.82313301831249
30
0
11
280.84948989411907
21
-135.82313301831223
31
0
0
ARC
5
621
100
AcDbEntity
8
0
100
AcDbCircle
10
282.98877074992106
20
-137.96241387411362
30
0
40
3.0253999999999954
210
0
220
0
230
1
100
AcDbArc
50
-44.99999999996728
51
135.00000000000799
0
LINE
5
622
100
AcDbEntity
8
0
100
AcDbLine
10
285.12805160572407
20
-140.10169472991419
30
0
11
285.12805160572401
21
-150.74457130670967
31
0
0
ARC
5
623
100
AcDbEntity
8
0
100
AcDbCircle
10
282.988770749921
20
-152.88385216251021
30
0
40
3.025399999999995
210
0
220
0
230
1
100
AcDbArc
50
-134.99999999998784
51
44.999999999966882
0
LINE
5
624
100
AcDbEntity
8
0
100
AcDbLine
10
280.8494898941197
20
-155.02313301831242
30
0
11
277.30661331732591
21
-155.02313301831242
31
0
0
ARC
5
625
100
AcDbEntity
8
0
100
AcDbCircle
10
275.16733246152455
20
-152.88385216251021
30
0
40
3.025399999999995
210
0
220
0
230
1
100
AcDbArc
50
134.99999999997223
51
314.99999999998852
0
LINE
5
626
100
AcDbEntity
8
0
100
AcDbLine
10
273.02805160572382
20
-150.7445713067074
30
0
11
273.02805160572393
21
-148.62313301831256
31
0
0
LINE
5
627
100
AcDbEntity
8
0
100
AcDbLine
10
273.02805160572393
20
-148.62313301831256
30
0
11
261.12805160572412
21
-148.62313301831259
31
0
0
LINE
5
628
100
AcDbEntity
8
0
100
AcDbLine
10
261.12805160572412
20
-148.62313301831259
30
0
11
261.12805160572441
21
-167.82313301831238
31
0
0
LINE
5
629
100
AcDbEntity
8
0
100
AcDbLine
10
261.12805160572441
20
-167.82313301831238
30
0
11
280.84948989411907
21
-167.8231330183124
31
0
0
ARC
5
630
100
AcDbEntity
8
0
100
AcDbCircle
10
282.98877074992117
20
-169.96241387411385
30
0
40
3.0253999999999821
210
0
220
0
230
1
100
AcDbArc
50
-44.999999999966874
51
135.00000000000875
0
LINE
5
631
100
AcDbEntity
8
0
100
AcDbLine
10
285.12805160572418
20
-172.10169472991439
30
0
11
285.12805160572418
21
-182.74457130670956
31
0
0
ARC
5
632
100
AcDbEntity
8
0
100
AcDbCircle
10
282.98877074992117
20
-184.88385216251007
30
0
40
3.0254000000000323
210
0
220
0
230
1
100
AcDbArc
50
-134.99999999998747
51
44.999999999966498
0
LINE
5
633
100
AcDbEntity
8
0
100
AcDbLine
10
280.84948989411987
20
-187.02313301831231
30
0
11
277.30661331732608
21
-187.02313301831231
31
0
0
ARC
5
634
100
AcDbEntity
8
0
100
AcDbCircle
10
275.16733246152467
20
-184.88385216251007
30
0
40
3.0253999999999821
210
0
220
0
230
1
100
AcDbArc
50
134.99999999997146
51
314.99999999998892
0
LINE
5
635
100
AcDbEntity
8
0
100
AcDbLine
10
273.02805160572399
20
-182.74457130670726
30
0
11
273.02805160572404
21
-180.62313301831244
31
0
0
LINE
5
636
100
AcDbEntity
8
0
100
AcDbLine
10
273.02805160572404
20
-180.62313301831244
30
0
11
261.12805160572424
21
-180.6231330183125
31
0
0
LINE
5
637
100
AcDbEntity
8
0
100
AcDbLine
10
261.12805160572424
20
-180.6231330183125
30
0
11
261.12805160572441
21
-199.82313301831226
31
0
0
LINE
5
638
100
AcDbEntity
8
0
100
AcDbLine
10
261.12805160572441
20
-199.82313301831226
30
0
11
280.84948989411907
21
-199.82313301831229
31
0
0
ARC
5
639
100
AcDbEntity
8
0
100
AcDbCircle
10
282.98877074992117
20
-201.96241387411345
30
0
40
3.0253999999999821
210
0
220
0
230
1
100
AcDbArc
50
-44.999999999966874
51
135.00000000001256
0
LINE
5
640
100
AcDbEntity
8
0
100
AcDbLine
10
285.12805160572418
20
-204.10169472991399
30
0
11
285.12805160572412
21
-212.62313301831202
31
0
0
LINE
5
641
100
AcDbEntity
8
0
100
AcDbLine
10
285.12805160572412
20
-212.62313301831202
30
0
11
685.1280516057227
21
-212.62313301831125
31
0
0
LINE
5
642
100
AcDbEntity
8
0
100
AcDbLine
10
685.1280516057227
20
-212.62313301831125
30
0
11
685.12805160572259
21
-204.10169472991709
31
0
0
ARC
5
643
100
AcDbEntity
8
0
100
AcDbCircle
10
687.26733246152151
20
-201.96241387411254
30
0
40
3.0254000000001078
210
0
220
-0
230
1
100
AcDbArc
50
44.999999999987061
51
225.00000000007535
0
LINE
5
644
100
AcDbEntity
8
0
100
AcDbLine
10
689.40661331732383
20
-199.82313301831118
30
0
11
709.12805160572236
21
-199.82313301831144
31
0
0
LINE
5
645
100
AcDbEntity
8
0
100
AcDbLine
10
709.12805160572236
20
-199.82313301831144
30
0
11
709.12805160572248
21
-180.62313301831168
31
0
0
LINE
5
646
100
AcDbEntity
8
0
100
AcDbLine
10
709.12805160572248
20
-180.62313301831168
30
0
11
697.22805160572261
21
-180.62313301831165
31
0
0
LINE
5
647
100
AcDbEntity
8
0
100
AcDbLine
10
697.22805160572261
20
-180.62313301831165
30
0
11
697.2280516057192
21
-182.74457130670703
31
0
0
ARC
5
648
100
AcDbEntity
8
0
100
AcDbCircle
10
190.85250914748656
20
-518.40281734269797
30
0
40
3.0254000000000074
210
0
220
0
230
1
100
AcDbArc
50
134.99999999999469
51
314.99999999999466
0
LINE
5
649
100
AcDbEntity
8
0
100
AcDbLine
10
188.71322829168497
20
-516.26353648689599
30
0
11
188.71322829168497
21
-512.82065991010359
31
0
0
ARC
5
650
100
AcDbEntity
8
0
100
AcDbCircle
10
190.85250914748653
20
-510.6813790543016
30
0
40
3.0254000000000323
210
0
220
-0
230
1
100
AcDbArc
50
44.999999999985917
51
225.00000000000571
0
LINE
5
651
100
AcDbEntity
8
0
100
AcDbLine
10
192.99179000328883
20
-508.54209819850036
30
0
11
206.713228291685
21
-508.54209819850036
31
0
0
LINE
5
652
100
AcDbEntity
8
0
100
AcDbLine
10
206.713228291685
20
-508.54209819850036
30
0
11
206.713228291685
21
-84.542098198500852
31
0
0
LINE
5
653
100
AcDbEntity
8
0
100
AcDbLine
10
206.713228291685
20
-84.542098198500852
30
0
11
192.9917900032882
21
-84.542098198500781
31
0
0
ARC
5
654
100
AcDbEntity
8
0
100
AcDbCircle
10
190.85250914748653
20
-82.402817342698924
30
0
40
3.0254000000000074
210
0
220
0
230
1
100
AcDbArc
50
134.99999999999449
51
314.9999999999975
0
LINE
5
655
100
AcDbEntity
8
0
100
AcDbLine
10
188.71322829168494
20
-80.263536486896925
30
0
11
188.71322829168497
21
-76.820659910104467
31
0
0
ARC
5
656
100
AcDbEntity
8
0
100
AcDbCircle
10
190.85250914748653
20
-74.681379054302482
30
0
40
3.0253999999999954
210
0
220
-0
230
1
100
AcDbArc
50
44.999999999999048
51
225.00000000000571
0
LINE
5
657
100
AcDbEntity
8
0
100
AcDbLine
10
192.99179000328834
20
-72.542098198500739
30
0
11
206.713228291685
21
-72.542098198500753
31
0
0
LINE
5
658
100
AcDbEntity
8
0
100
AcDbLine
10
206.713228291685
20
-72.542098198500753
30
0
11
206.71322829168497
21
-60.54209819850081
31
0
0
LINE
5
659
100
AcDbEntity
8
0
100
AcDbLine
10
206.71322829168497
20
-60.54209819850081
30
0
11
170.71322829168497
21
-60.542098198500796
31
0
0
LINE
5
660
100
AcDbEntity
8
0
100
AcDbLine
10
170.71322829168497
20
-60.542098198500796
30
0
11
170.71322829168503
21
-532.5420981985003
31
0
0
LINE
5
661
100
AcDbEntity
8
0
100
AcDbLine
10
170.71322829168503
20
-532.5420981985003
30
0
11
206.713228291685
21
-532.5420981985003
31
0
0
LINE
5
662
100
AcDbEntity
8
0
100
AcDbLine
10
206.713228291685
20
-532.5420981985003
30
0
11
206.713228291685
21
-520.5420981985003
31
0
0
LINE
5
663
100
AcDbEntity
8
0
100
AcDbLine
10
206.713228291685
20
-520.5420981985003
30
0
11
192.99179000328814
21
-520.54209819849996
31
0
0
LWPOLYLINE
5
664
100
AcDbEntity
8
0
100
AcDbPolyline
90
16
70
1
43
0.0
10
85.804454973079928
20
-509.7853842390756
42
-0.99999999999999989
10
90.083016684685276
20
-505.50682252747401
10
103.80445497308099
20
-505.50682252747401
10
103.80445497308072
20
-81.506822527474725
10
90.08301668468394
20
-81.506822527474881
42
-0.99999999999999989
10
85.804454973080766
20
-77.22826081587101
10
85.80445497308051
20
-73.785384239078169
42
-0.99999999999999989
10
90.083016684684225
20
-69.506822527474782
10
103.80445497308072
20
-69.506822527474753
10
103.80445497308072
20
-57.506822527474824
10
67.80445497308078
20
-57.50682252747481
10
67.804454973081064
20
-529.5068225274739
10
103.80445497308101
20
-529.5068225274739
10
103.80445497308101
20
-517.50682252747401
10
90.083016684684281
20
-517.50682252747322
42
-0.99999999999999989
10
85.804454973081036
20
-513.22826081586936
0
ENDSEC
0
SECTION
2
OBJECTS
0
DICTIONARY
5
C
100
AcDbDictionary
3
ACAD_GROUP
350
D
3
ACAD_MLINESTYLE
350
17
0
DICTIONARY
5
D
100
AcDbDictionary
0
DICTIONARY
5
1A
330
C
100
AcDbDictionary
0
DICTIONARY
5
17
100
AcDbDictionary
0
ENDSEC
0
EOF
