0
SECTION
2
HEADER
9
$INSUNITS
70
4
9
$ACADVER
1
AC1014
9
$HANDSEED
5
FFFF
0
ENDSEC
0
SECTION
2
TABLES
0
TABLE
2
VPORT
5
8
100
AcDbSymbolTable
0
ENDTAB
0
TABLE
2
LTYPE
5
5
100
AcDbSymbolTable
0
LTYPE
5
14
100
AcDbSymbolTableRecord
100
AcDbLinetypeTableRecord
2
BYBLOCK
70
0
0
LTYPE
5
15
100
AcDbSymbolTableRecord
100
AcDbLinetypeTableRecord
2
BYLAYER
70
0
0
ENDTAB
0
TABLE
2
LAYER
5
2
100
AcDbSymbolTable
70
2
0
LAYER
5
50
100
AcDbSymbolTableRecord
100
AcDbLayerTableRecord
2
0
70
0
6
CONTINUOUS
0
ENDTAB
0
TABLE
2
STYLE
5
3
100
AcDbSymbolTable
70
1
0
STYLE
5
11
100
AcDbSymbolTableRecord
100
AcDbTextStyleTableRecord
2
STANDARD
70
0
0
ENDTAB
0
TABLE
2
VIEW
5
6
100
AcDbSymbolTable
70
0
0
ENDTAB
0
TABLE
2
UCS
5
7
100
AcDbSymbolTable
70
0
0
ENDTAB
0
TABLE
2
APPID
5
9
100
AcDbSymbolTable
70
2
0
APPID
5
12
100
AcDbSymbolTableRecord
100
AcDbRegAppTableRecord
2
ACAD
70
0
0
ENDTAB
0
TABLE
2
DIMSTYLE
5
A
100
AcDbSymbolTable
70
1
0
ENDTAB
0
TABLE
2
BLOCK_RECORD
5
1
100
AcDbSymbolTable
70
1
0
BLOCK_RECORD
5
1F
100
AcDbSymbolTableRecord
100
AcDbBlockTableRecord
2
*MODEL_SPACE
0
BLOCK_RECORD
5
1B
100
AcDbSymbolTableRecord
100
AcDbBlockTableRecord
2
*PAPER_SPACE
0
ENDTAB
0
ENDSEC
0
SECTION
2
BLOCKS
0
BLOCK
5
20
100
AcDbEntity
100
AcDbBlockBegin
2
*MODEL_SPACE
0
ENDBLK
5
21
100
AcDbEntity
100
AcDbBlockEnd
0
BLOCK
5
1C
100
AcDbEntity
100
AcDbBlockBegin
2
*PAPER_SPACE
0
ENDBLK
5
1D
100
AcDbEntity
100
AcDbBlockEnd
0
ENDSEC
0
SECTION
2
ENTITIES
0
LWPOLYLINE
5
100
100
AcDbEntity
8
0
100
AcDbPolyline
90
4
70
1
43
0.0
10
111.79999999999998
20
177.53674255966959
10
69.799999999999983
20
177.5367425596697
10
69.799999999999983
20
135.53674255966968
10
111.79999999999998
20
135.53674255966968
0
LWPOLYLINE
5
101
100
AcDbEntity
8
0
100
AcDbPolyline
90
4
70
1
43
0.0
10
97.799999999999983
20
162.78674255966968
10
83.799999999999969
20
162.78674255966968
10
83.799999999999969
20
150.28674255966968
10
97.799999999999983
20
150.28674255966968
0
LWPOLYLINE
5
102
100
AcDbEntity
8
0
100
AcDbPolyline
90
4
70
1
43
0.0
10
240.88012139281113
20
398.07058403981569
10
199.28012139281117
20
398.07058403981569
10
199.28012139281111
20
-89.429415960184286
10
240.88012139281113
20
-89.429415960184286
0
LINE
5
103
100
AcDbEntity
8
0
100
AcDbLine
10
214.08012139281112
20
-89.429415960184286
30
0
11
226.08012139281115
21
-89.429415960184286
31
0
0
LINE
5
104
100
AcDbEntity
8
0
100
AcDbLine
10
226.08012139281115
20
-89.429415960184286
30
0
11
226.08012139281115
21
398.07058403981569
31
0
0
LINE
5
105
100
AcDbEntity
8
0
100
AcDbLine
10
214.08012139281112
20
398.07058403981569
30
0
11
214.08012139281112
21
-89.429415960184286
31
0
0
LWPOLYLINE
5
106
100
AcDbEntity
8
0
100
AcDbPolyline
90
4
70
1
43
0.0
10
147.20000199675559
20
170.0000025331974
10
134.0000019967556
20
170.0000025331974
10
134.0000019967556
20
158.00000253319746
10
147.20000199675559
20
158.00000253319746
0
LWPOLYLINE
5
107
100
AcDbEntity
8
0
100
AcDbPolyline
90
4
70
1
43
0.0
10
111.79999999999998
20
165.0367425596697
10
111.79999999999998
20
177.5367425596697
10
69.799999999999983
20
177.5367425596697
10
69.799999999999983
20
165.0367425596697
0
LWPOLYLINE
5
108
100
AcDbEntity
8
0
100
AcDbPolyline
90
4
70
1
43
0.0
10
111.79999999999998
20
135.53674255966968
10
111.79999999999998
20
148.03674255966968
10
69.799999999999983
20
148.03674255966968
10
69.799999999999983
20
135.53674255966968
0
LWPOLYLINE
5
109
100
AcDbEntity
8
0
100
AcDbPolyline
90
4
70
1
43
0.0
10
466.59999999999997
20
400
10
450
20
400
10
450
20
-87.5
10
466.59999999999997
20
-87.5
0
LWPOLYLINE
5
110
100
AcDbEntity
8
0
100
AcDbPolyline
90
4
70
1
43
0.0
10
69.799999999999983
20
75.036742559669705
10
111.79999999999998
20
75.036742559669705
10
111.79999999999998
20
87.536742559669705
10
69.799999999999983
20
87.536742559669705
0
LWPOLYLINE
5
111
100
AcDbEntity
8
0
100
AcDbPolyline
90
4
70
1
43
0.0
10
111.79999999999998
20
58.036742559669676
10
69.799999999999983
20
58.036742559669676
10
69.799999999999983
20
45.536742559669676
10
111.79999999999998
20
45.536742559669676
0
LINE
5
112
100
AcDbEntity
8
0
100
AcDbLine
10
111.79999999999953
20
87.536742559669875
30
0
11
111.79999999999998
21
45.536742559669676
31
0
0
LINE
5
113
100
AcDbEntity
8
0
100
AcDbLine
10
69.799999999999983
20
45.536742559669676
30
0
11
69.799999999999542
21
87.536742559669875
31
0
0
LINE
5
114
100
AcDbEntity
8
0
100
AcDbLine
10
69.799999999999542
20
87.536742559669875
30
0
11
111.79999999999953
21
87.536742559669875
31
0
0
LINE
5
115
100
AcDbEntity
8
0
100
AcDbLine
10
111.79999999999998
20
45.536742559669676
30
0
11
69.799999999999983
21
45.536742559669676
31
0
0
LINE
5
116
100
AcDbEntity
8
0
100
AcDbLine
10
69.799999999999542
20
87.536742559669875
30
0
11
111.79999999999998
21
45.536742559669676
31
0
0
CIRCLE
5
117
100
AcDbEntity
8
0
100
AcDbCircle
10
90.79999999999977
20
66.536742559669776
30
0
40
4.5
210
0
220
0
230
1
0
LWPOLYLINE
5
118
100
AcDbEntity
8
0
100
AcDbPolyline
90
4
70
1
43
0.0
10
561.91382641164637
20
508.78275948954968
10
561.91382641164648
20
21.282759489549647
10
578.51382641164639
20
21.282759489549647
10
578.51382641164639
20
508.78275948954968
0
LWPOLYLINE
5
119
100
AcDbEntity
8
0
100
AcDbPolyline
90
4
70
1
43
0.0
10
576.21382641164644
20
161.28275948954965
10
564.21382641164644
20
161.28275948954965
10
564.21382641164644
20
21.282759489549647
10
576.21382641164644
20
21.282759489549647
0
LINE
5
120
100
AcDbEntity
8
0
100
AcDbLine
10
80
20
25
30
0
11
97
21
25
31
0
0
LINE
5
121
100
AcDbEntity
8
0
100
AcDbLine
10
97
20
25
30
0
11
97
21
7.9999999999999982
31
0
0
LINE
5
122
100
AcDbEntity
8
0
100
AcDbLine
10
97
20
7.9999999999999982
30
0
11
80
21
7.9999999999999982
31
0
0
LINE
5
123
100
AcDbEntity
8
0
100
AcDbLine
10
80
20
7.9999999999999982
30
0
11
80
21
25
31
0
0
LINE
5
124
100
AcDbEntity
8
0
100
AcDbLine
10
80
20
25
30
0
11
97
21
7.9999999999999982
31
0
0
CIRCLE
5
125
100
AcDbEntity
8
0
100
AcDbCircle
10
88.5
20
16.5
30
0
40
4.5
210
0
220
0
230
1
0
LWPOLYLINE
5
126
100
AcDbEntity
8
0
100
AcDbPolyline
90
4
70
1
43
0.0
10
69.799999999999983
20
161.53674255966968
10
72.799999999999997
20
161.53674255966968
10
72.799999999999997
20
151.53674255966968
10
69.799999999999983
20
151.53674255966968
0
LWPOLYLINE
5
127
100
AcDbEntity
8
0
100
AcDbPolyline
90
4
70
1
43
0.0
10
108.79999999999997
20
161.53674255966962
10
111.79999999999998
20
161.53674255966962
10
111.79999999999998
20
151.53674255966965
10
108.79999999999997
20
151.53674255966965
0
LWPOLYLINE
5
128
100
AcDbEntity
8
0
100
AcDbPolyline
90
4
70
1
43
0.0
10
69.799999999999756
20
71.536742559669776
10
72.799999999999756
20
71.536742559669776
10
72.799999999999756
20
61.536742559669776
10
69.799999999999756
20
61.536742559669776
0
LWPOLYLINE
5
129
100
AcDbEntity
8
0
100
AcDbPolyline
90
4
70
1
43
0.0
10
108.79999999999974
20
71.536742559669776
10
111.79999999999976
20
71.536742559669776
10
111.79999999999976
20
61.536742559669776
10
108.79999999999974
20
61.536742559669776
0
LINE
5
130
100
AcDbEntity
8
0
100
AcDbLine
10
40
20
410
30
0
11
81.599999999999994
21
410
31
0
0
LINE
5
131
100
AcDbEntity
8
0
100
AcDbLine
10
81.599999999999994
20
410
30
0
11
81.599999999999994
21
368.40000000000003
31
0
0
LINE
5
132
100
AcDbEntity
8
0
100
AcDbLine
10
81.599999999999994
20
368.40000000000003
30
0
11
40
21
368.40000000000003
31
0
0
LINE
5
133
100
AcDbEntity
8
0
100
AcDbLine
10
40
20
368.40000000000003
30
0
11
40
21
410
31
0
0
LWPOLYLINE
5
134
100
AcDbEntity
8
0
100
AcDbPolyline
90
4
70
1
43
0.0
10
115
20
368.40000000000003
10
156.59999999999999
20
368.40000000000003
10
156.59999999999999
20
410
10
115
20
410
0
LINE
5
135
100
AcDbEntity
8
0
100
AcDbLine
10
40
20
410
30
0
11
81.599999999999994
21
368.40000000000003
31
0
0
CIRCLE
5
136
100
AcDbEntity
8
0
100
AcDbCircle
10
60.799999999999997
20
389.20000000000005
30
0
40
10
210
0
220
0
230
1
0
ENDSEC
0
SECTION
2
OBJECTS
0
DICTIONARY
5
C
100
AcDbDictionary
3
ACAD_GROUP
350
D
3
ACAD_MLINESTYLE
350
17
0
DICTIONARY
5
D
100
AcDbDictionary
0
DICTIONARY
5
1A
330
C
100
AcDbDictionary
0
DICTIONARY
5
17
100
AcDbDictionary
0
ENDSEC
0
EOF
