  0
SECTION
  2
HEADER
  9
$ACADVER
  1
AC1024
  9
$ACADMAINTVER
 70
     6
  9
$DWGCODEPAGE
  3
ANSI_949
  9
$INSBASE
 10
0.0
 20
0.0
 30
0.0
  9
$EXTMIN
 10
1.000000000000000E+20
 20
1.000000000000000E+20
 30
1.000000000000000E+20
  9
$EXTMAX
 10
-1.000000000000000E+20
 20
-1.000000000000000E+20
 30
-1.000000000000000E+20
  9
$LIMMIN
 10
0.0
 20
0.0
  9
$LIMMAX
 10
12.0
 20
9.0
  9
$ORTHOMODE
 70
     0
  9
$REGENMODE
 70
     1
  9
$FILLMODE
 70
     1
  9
$QTEXTMODE
 70
     0
  9
$MIRRTEXT
 70
     1
  9
$LTSCALE
 40
1.0
  9
$ATTMODE
 70
     1
  9
$TEXTSIZE
 40
0.2
  9
$TRACEWID
 40
0.05
  9
$TEXTSTYLE
  7
Standard
  9
$CLAYER
  8
0
  9
$CELTYPE
  6
ByLayer
  9
$CECOLOR
 62
   256
  9
$CELTSCALE
 40
1.0
  9
$DISPSILH
 70
     0
  9
$DIMSCALE
 40
1.0
  9
$DIMASZ
 40
0.18
  9
$DIMEXO
 40
0.0625
  9
$DIMDLI
 40
0.38
  9
$DIMRND
 40
0.0
  9
$DIMDLE
 40
0.0
  9
$DIMEXE
 40
0.18
  9
$DIMTP
 40
0.0
  9
$DIMTM
 40
0.0
  9
$DIMTXT
 40
0.18
  9
$DIMCEN
 40
0.09
  9
$DIMTSZ
 40
0.0
  9
$DIMTOL
 70
     0
  9
$DIMLIM
 70
     0
  9
$DIMTIH
 70
     1
  9
$DIMTOH
 70
     1
  9
$DIMSE1
 70
     0
  9
$DIMSE2
 70
     0
  9
$DIMTAD
 70
     0
  9
$DIMZIN
 70
     0
  9
$DIMBLK
  1

  9
$DIMASO
 70
     1
  9
$DIMSHO
 70
     1
  9
$DIMPOST
  1

  9
$DIMAPOST
  1

  9
$DIMALT
 70
     0
  9
$DIMALTD
 70
     2
  9
$DIMALTF
 40
25.4
  9
$DIMLFAC
 40
1.0
  9
$DIMTOFL
 70
     0
  9
$DIMTVP
 40
0.0
  9
$DIMTIX
 70
     0
  9
$DIMSOXD
 70
     0
  9
$DIMSAH
 70
     0
  9
$DIMBLK1
  1

  9
$DIMBLK2
  1

  9
$DIMSTYLE
  2
Standard
  9
$DIMCLRD
 70
     0
  9
$DIMCLRE
 70
     0
  9
$DIMCLRT
 70
     0
  9
$DIMTFAC
 40
1.0
  9
$DIMGAP
 40
0.09
  9
$DIMJUST
 70
     0
  9
$DIMSD1
 70
     0
  9
$DIMSD2
 70
     0
  9
$DIMTOLJ
 70
     1
  9
$DIMTZIN
 70
     0
  9
$DIMALTZ
 70
     0
  9
$DIMALTTZ
 70
     0
  9
$DIMUPT
 70
     0
  9
$DIMDEC
 70
     4
  9
$DIMTDEC
 70
     4
  9
$DIMALTU
 70
     2
  9
$DIMALTTD
 70
     2
  9
$DIMTXSTY
  7
Standard
  9
$DIMAUNIT
 70
     0
  9
$DIMADEC
 70
     0
  9
$DIMALTRND
 40
0.0
  9
$DIMAZIN
 70
     0
  9
$DIMDSEP
 70
    46
  9
$DIMATFIT
 70
     3
  9
$DIMFRAC
 70
     0
  9
$DIMLDRBLK
  1

  9
$DIMLUNIT
 70
     2
  9
$DIMLWD
 70
    -2
  9
$DIMLWE
 70
    -2
  9
$DIMTMOVE
 70
     0
  9
$DIMFXL
 40
1.0
  9
$DIMFXLON
 70
     0
  9
$DIMJOGANG
 40
0.7853981633974483
  9
$DIMTFILL
 70
     0
  9
$DIMTFILLCLR
 70
     0
  9
$DIMARCSYM
 70
     0
  9
$DIMLTYPE
  6

  9
$DIMLTEX1
  6

  9
$DIMLTEX2
  6

  9
$DIMTXTDIRECTION
 70
     0
  9
$LUNITS
 70
     2
  9
$LUPREC
 70
     4
  9
$SKETCHINC
 40
0.1
  9
$FILLETRAD
 40
0.5
  9
$AUNITS
 70
     0
  9
$AUPREC
 70
     0
  9
$MENU
  1
.
  9
$ELEVATION
 40
0.0
  9
$PELEVATION
 40
0.0
  9
$THICKNESS
 40
0.0
  9
$LIMCHECK
 70
     0
  9
$CHAMFERA
 40
0.5
  9
$CHAMFERB
 40
0.5
  9
$CHAMFERC
 40
1.0
  9
$CHAMFERD
 40
0.0
  9
$SKPOLY
 70
     0
  9
$TDCREATE
 40
2458894.460110717
  9
$TDUCREATE
 40
2458894.085110717
  9
$TDUPDATE
 40
2458894.460110752
  9
$TDUUPDATE
 40
2458894.085110752
  9
$TDINDWG
 40
0.0000000116
  9
$TDUSRTIMER
 40
0.0000000116
  9
$USRTIMER
 70
     1
  9
$ANGBASE
 50
0.0
  9
$ANGDIR
 70
     0
  9
$PDMODE
 70
     0
  9
$PDSIZE
 40
0.0
  9
$PLINEWID
 40
0.0
  9
$SPLFRAME
 70
     0
  9
$SPLINETYPE
 70
     6
  9
$SPLINESEGS
 70
     8
  9
$HANDSEED
  5
51
  9
$SURFTAB1
 70
     6
  9
$SURFTAB2
 70
     6
  9
$SURFTYPE
 70
     6
  9
$SURFU
 70
     6
  9
$SURFV
 70
     6
  9
$UCSBASE
  2

  9
$UCSNAME
  2

  9
$UCSORG
 10
0.0
 20
0.0
 30
0.0
  9
$UCSXDIR
 10
1.0
 20
0.0
 30
0.0
  9
$UCSYDIR
 10
0.0
 20
1.0
 30
0.0
  9
$UCSORTHOREF
  2

  9
$UCSORTHOVIEW
 70
     0
  9
$UCSORGTOP
 10
0.0
 20
0.0
 30
0.0
  9
$UCSORGBOTTOM
 10
0.0
 20
0.0
 30
0.0
  9
$UCSORGLEFT
 10
0.0
 20
0.0
 30
0.0
  9
$UCSORGRIGHT
 10
0.0
 20
0.0
 30
0.0
  9
$UCSORGFRONT
 10
0.0
 20
0.0
 30
0.0
  9
$UCSORGBACK
 10
0.0
 20
0.0
 30
0.0
  9
$PUCSBASE
  2

  9
$PUCSNAME
  2

  9
$PUCSORG
 10
0.0
 20
0.0
 30
0.0
  9
$PUCSXDIR
 10
1.0
 20
0.0
 30
0.0
  9
$PUCSYDIR
 10
0.0
 20
1.0
 30
0.0
  9
$PUCSORTHOREF
  2

  9
$PUCSORTHOVIEW
 70
     0
  9
$PUCSORGTOP
 10
0.0
 20
0.0
 30
0.0
  9
$PUCSORGBOTTOM
 10
0.0
 20
0.0
 30
0.0
  9
$PUCSORGLEFT
 10
0.0
 20
0.0
 30
0.0
  9
$PUCSORGRIGHT
 10
0.0
 20
0.0
 30
0.0
  9
$PUCSORGFRONT
 10
0.0
 20
0.0
 30
0.0
  9
$PUCSORGBACK
 10
0.0
 20
0.0
 30
0.0
  9
$USERI1
 70
     0
  9
$USERI2
 70
     0
  9
$USERI3
 70
     0
  9
$USERI4
 70
     0
  9
$USERI5
 70
     0
  9
$USERR1
 40
0.0
  9
$USERR2
 40
0.0
  9
$USERR3
 40
0.0
  9
$USERR4
 40
0.0
  9
$USERR5
 40
0.0
  9
$WORLDVIEW
 70
     1
  9
$SHADEDGE
 70
     3
  9
$SHADEDIF
 70
    70
  9
$TILEMODE
 70
     1
  9
$MAXACTVP
 70
    64
  9
$PINSBASE
 10
0.0
 20
0.0
 30
0.0
  9
$PLIMCHECK
 70
     0
  9
$PEXTMIN
 10
1.000000000000000E+20
 20
1.000000000000000E+20
 30
1.000000000000000E+20
  9
$PEXTMAX
 10
-1.000000000000000E+20
 20
-1.000000000000000E+20
 30
-1.000000000000000E+20
  9
$PLIMMIN
 10
0.0
 20
0.0
  9
$PLIMMAX
 10
12.0
 20
9.0
  9
$UNITMODE
 70
     0
  9
$VISRETAIN
 70
     1
  9
$PLINEGEN
 70
     0
  9
$PSLTSCALE
 70
     1
  9
$TREEDEPTH
 70
  3020
  9
$CMLSTYLE
  2
Standard
  9
$CMLJUST
 70
     0
  9
$CMLSCALE
 40
1.0
  9
$PROXYGRAPHICS
 70
     1
  9
$MEASUREMENT
 70
     0
  9
$CELWEIGHT
370
    -1
  9
$ENDCAPS
280
     0
  9
$JOINSTYLE
280
     0
  9
$LWDISPLAY
290
     1
  9
$INSUNITS
 70
     1
  9
$HYPERLINKBASE
  1

  9
$STYLESHEET
  1

  9
$XEDIT
290
     1
  9
$CEPSNTYPE
380
     0
  9
$PSTYLEMODE
290
     1
  9
$FINGERPRINTGUID
  2
{82BE038B-57A7-4B06-BC6D-8B29E5F216D0}
  9
$VERSIONGUID
  2
{FAEB1C32-E019-11D5-929B-00C0DF256EC4}
  9
$EXTNAMES
290
     1
  9
$PSVPSCALE
 40
0.0
  9
$OLESTARTUP
290
     0
  9
$SORTENTS
280
   127
  9
$INDEXCTL
280
     0
  9
$HIDETEXT
280
     1
  9
$XCLIPFRAME
280
     2
  9
$HALOGAP
280
     0
  9
$OBSCOLOR
 70
   257
  9
$OBSLTYPE
280
     0
  9
$INTERSECTIONDISPLAY
280
     0
  9
$INTERSECTIONCOLOR
 70
   257
  9
$DIMASSOC
280
     2
  9
$PROJECTNAME
  1

  9
$CAMERADISPLAY
290
     0
  9
$LENSLENGTH
 40
50.0
  9
$CAMERAHEIGHT
 40
0.0
  9
$STEPSPERSEC
 40
2.0
  9
$STEPSIZE
 40
6.0
  9
$3DDWFPREC
 40
2.0
  9
$PSOLWIDTH
 40
0.25
  9
$PSOLHEIGHT
 40
4.0
  9
$LOFTANG1
 40
1.570796326794897
  9
$LOFTANG2
 40
1.570796326794897
  9
$LOFTMAG1
 40
0.0
  9
$LOFTMAG2
 40
0.0
  9
$LOFTPARAM
 70
     7
  9
$LOFTNORMALS
280
     1
  9
$LATITUDE
 40
37.795
  9
$LONGITUDE
 40
-122.394
  9
$NORTHDIRECTION
 40
0.0
  9
$TIMEZONE
 70
 -8000
  9
$LIGHTGLYPHDISPLAY
280
     1
  9
$TILEMODELIGHTSYNCH
280
     1
  9
$CMATERIAL
347
3C
  9
$SOLIDHIST
280
     1
  9
$SHOWHIST
280
     1
  9
$DWFFRAME
280
     2
  9
$DGNFRAME
280
     2
  9
$REALWORLDSCALE
290
     1
  9
$INTERFERECOLOR
 62
   256
  9
$CSHADOW
280
     0
  9
$SHADOWPLANELOCATION
 40
0.0
  0
ENDSEC
  0
SECTION
  2
CLASSES
  0
CLASS
  1
ACDBDICTIONARYWDFLT
  2
AcDbDictionaryWithDefault
  3
ObjectDBX Classes
 90
        0
 91
        4
280
     0
281
     0
  0
CLASS
  1
VISUALSTYLE
  2
AcDbVisualStyle
  3
ObjectDBX Classes
 90
     4095
 91
        4
280
     0
281
     0
  0
CLASS
  1
MATERIAL
  2
AcDbMaterial
  3
ObjectDBX Classes
 90
     1153
 91
        4
280
     0
281
     0
  0
CLASS
  1
SUN
  2
AcDbSun
  3
SCENEOE
 90
     1024
 91
        4
280
     0
281
     0
  0
ENDSEC
  0
SECTION
  2
TABLES
  0
TABLE
  2
VPORT
  5
8
330
0
100
AcDbSymbolTable
 70
     1
  0
VPORT
  5
29
330
8
100
AcDbSymbolTableRecord
100
AcDbViewportTableRecord
  2
*Active
 70
     0
 10
0.0
 20
0.0
 11
1.0
 21
1.0
 12
0.0
 22
0.0
 13
0.0
 23
0.0
 14
0.5
 24
0.5
 15
0.5
 25
0.5
 16
0.0
 26
0.0
 36
1.0
 17
50.00000455772695
 27
-299.9999996472222
 37
0.0
 40
100.0000116416668
 41
0.9999999747378743
 42
50.0
 43
0.0
 44
0.0
 50
0.0
 51
0.0
 71
     0
 72
   100
 73
     1
 74
     3
 75
     0
 76
     0
 77
     0
 78
     0
281
     0
 65
     1
110
0.0
120
0.0
130
0.0
111
1.0
121
0.0
131
0.0
112
0.0
122
1.0
132
0.0
 79
     0
146
0.0
 60
     3
 61
     5
292
     1
282
     1
141
0.0
142
0.0
 63
   250
361
3F
  0
ENDTAB
  0
TABLE
  2
LTYPE
  5
5
330
0
100
AcDbSymbolTable
 70
     1
  0
LTYPE
  5
14
330
5
100
AcDbSymbolTableRecord
100
AcDbLinetypeTableRecord
  2
ByBlock
 70
     0
  3

 72
    65
 73
     0
 40
0.0
  0
LTYPE
  5
15
330
5
100
AcDbSymbolTableRecord
100
AcDbLinetypeTableRecord
  2
ByLayer
 70
     0
  3

 72
    65
 73
     0
 40
0.0
  0
LTYPE
  5
16
330
5
100
AcDbSymbolTableRecord
100
AcDbLinetypeTableRecord
  2
Continuous
 70
     0
  3
Solid line
 72
    65
 73
     0
 40
0.0
  0
ENDTAB
  0
TABLE
  2
LAYER
  5
2
330
0
100
AcDbSymbolTable
 70
     2
  0
LAYER
  5
10
330
2
100
AcDbSymbolTableRecord
100
AcDbLayerTableRecord
  2
0
 70
     0
 62
     7
  6
Continuous
370
    -3
390
F
347
3E
  0
LAYER
  5
40
330
2
100
AcDbSymbolTableRecord
100
AcDbLayerTableRecord
  2
Layer 1
 70
     0
 62
     7
  6
Continuous
370
    -3
390
F
347
3E
  0
ENDTAB
  0
TABLE
  2
STYLE
  5
3
330
0
100
AcDbSymbolTable
 70
     1
  0
STYLE
  5
11
330
3
100
AcDbSymbolTableRecord
100
AcDbTextStyleTableRecord
  2
Standard
 70
     0
 40
0.0
 41
1.0
 50
0.0
 71
     0
 42
0.2
  3
txt
  4

  0
ENDTAB
  0
TABLE
  2
VIEW
  5
6
330
0
100
AcDbSymbolTable
 70
     0
  0
ENDTAB
  0
TABLE
  2
UCS
  5
7
330
0
100
AcDbSymbolTable
 70
     0
  0
ENDTAB
  0
TABLE
  2
APPID
  5
9
330
0
100
AcDbSymbolTable
 70
     1
  0
APPID
  5
12
330
9
100
AcDbSymbolTableRecord
100
AcDbRegAppTableRecord
  2
ACAD
 70
     0
  0
ENDTAB
  0
TABLE
  2
DIMSTYLE
  5
A
330
0
100
AcDbSymbolTable
 70
     1
100
AcDbDimStyleTable
  0
DIMSTYLE
105
27
330
A
100
AcDbSymbolTableRecord
100
AcDbDimStyleTableRecord
  2
Standard
 70
     0
178
     0
340
11
  0
ENDTAB
  0
TABLE
  2
BLOCK_RECORD
  5
1
330
0
100
AcDbSymbolTable
 70
     2
  0
BLOCK_RECORD
  5
1F
330
1
100
AcDbSymbolTableRecord
100
AcDbBlockTableRecord
  2
*Model_Space
340
22
 70
     0
280
     1
281
     0
  0
BLOCK_RECORD
  5
1B
330
1
100
AcDbSymbolTableRecord
100
AcDbBlockTableRecord
  2
*Paper_Space
340
1E
 70
     0
280
     1
281
     0
  0
BLOCK_RECORD
  5
23
330
1
100
AcDbSymbolTableRecord
100
AcDbBlockTableRecord
  2
*Paper_Space0
340
26
 70
     0
280
     1
281
     0
  0
BLOCK_RECORD
  5
45
330
1
100
AcDbSymbolTableRecord
100
AcDbBlockTableRecord
  2
block 2
340
0
102
{BLKREFS
331
46
102
}
 70
     0
280
     1
281
     0
  0
ENDTAB
  0
ENDSEC
  0
SECTION
  2
BLOCKS
  0
BLOCK
  5
20
330
1F
100
AcDbEntity
  8
0
100
AcDbBlockBegin
  2
*Model_Space
 70
     0
 10
0.0
 20
0.0
 30
0.0
  3
*Model_Space
  1

  0
ENDBLK
  5
21
330
1F
100
AcDbEntity
  8
0
100
AcDbBlockEnd
  0
BLOCK
  5
1C
330
1B
100
AcDbEntity
 67
     1
  8
0
100
AcDbBlockBegin
  2
*Paper_Space
 70
     0
 10
0.0
 20
0.0
 30
0.0
  3
*Paper_Space
  1

  0
ENDBLK
  5
1D
330
1B
100
AcDbEntity
 67
     1
  8
0
100
AcDbBlockEnd
  0
BLOCK
  5
24
330
23
100
AcDbEntity
  8
0
100
AcDbBlockBegin
  2
*Paper_Space0
 70
     0
 10
0.0
 20
0.0
 30
0.0
  3
*Paper_Space0
  1

  0
ENDBLK
  5
25
330
23
100
AcDbEntity
  8
0
100
AcDbBlockEnd
  0
BLOCK
  5
47
330
45
100
AcDbEntity
  8
0
100
AcDbBlockBegin
  2
block 2
 70
     0
 10
0.0
 20
0.0
 30
0.0
  3
block 2
  1

  0
SPLINE
  5
49
330
45
100
AcDbEntity
  8
Layer 1
370
     0
100
AcDbSpline
210
0.0
220
0.0
230
1.0
 70
    11
 71
     3
 72
    17
 73
    13
 74
     0
 42
0.0000000001
 43
0.0000000001
 12
1.0
 22
0.0
 32
0.0
 13
1.0
 23
0.0
 33
0.0
 40
0.0
 40
0.0
 40
0.0
 40
0.0
 40
1.0
 40
1.0
 40
1.0
 40
2.0
 40
2.0
 40
2.0
 40
3.0
 40
3.0
 40
3.0
 40
4.0
 40
4.0
 40
4.0
 40
4.0
 10
33.84920375023744
 20
-310.9666928359714
 30
0.0
 10
33.84920375023744
 20
-310.9666928359714
 30
0.0
 10
36.56580341107311
 20
-310.9666928359714
 30
0.0
 10
36.56580341107311
 20
-310.9666928359714
 30
0.0
 10
36.56580341107311
 20
-310.9666928359714
 30
0.0
 10
36.56580341107311
 20
-310.9643645026384
 30
0.0
 10
36.56580341107311
 20
-310.9643645026384
 30
0.0
 10
36.56580341107311
 20
-310.9643645026384
 30
0.0
 10
33.83414013912946
 20
-310.9643645026384
 30
0.0
 10
33.83414013912946
 20
-310.9643645026384
 30
0.0
 10
33.8394318057946
 20
-310.9645761693048
 30
0.0
 10
33.84384152801598
 20
-310.9666928359714
 30
0.0
 10
33.84920375023744
 20
-310.9666928359714
 30
0.0
  0
HATCH
  5
4A
330
45
100
AcDbEntity
  8
Layer 1
 62
    85
420
  6601542
100
AcDbHatch
 10
0.0
 20
0.0
 30
0.0
210
0.0
220
0.0
230
1.0
  2
SOLID
 70
     1
 71
     0
 91
        1
 92
        1
 93
        1
 72
     4
 94
        3
 73
     0
 74
     1
 95
       17
 96
       13
 40
0.0
 40
0.0
 40
0.0
 40
0.0
 40
1.0
 40
1.0
 40
1.0
 40
2.0
 40
2.0
 40
2.0
 40
3.0
 40
3.0
 40
3.0
 40
4.0
 40
4.0
 40
4.0
 40
4.0
 10
33.84920375023744
 20
-310.9666928359714
 10
33.84920375023744
 20
-310.9666928359714
 10
36.56580341107311
 20
-310.9666928359714
 10
36.56580341107311
 20
-310.9666928359714
 10
36.56580341107311
 20
-310.9666928359714
 10
36.56580341107311
 20
-310.9643645026384
 10
36.56580341107311
 20
-310.9643645026384
 10
36.56580341107311
 20
-310.9643645026384
 10
33.83414013912946
 20
-310.9643645026384
 10
33.83414013912946
 20
-310.9643645026384
 10
33.8394318057946
 20
-310.9645761693048
 10
33.84384152801598
 20
-310.9666928359714
 10
33.84920375023744
 20
-310.9666928359714
 97
        0
 97
        0
 75
     2
 76
     1
 98
        0
  0
SPLINE
  5
4B
330
45
100
AcDbEntity
  8
Layer 1
370
     0
100
AcDbSpline
210
0.0
220
0.0
230
1.0
 70
    11
 71
     3
 72
    17
 73
    13
 74
     0
 42
0.0000000001
 43
0.0000000001
 12
1.0
 22
0.0
 32
0.0
 13
1.0
 23
0.0
 33
0.0
 40
0.0
 40
0.0
 40
0.0
 40
0.0
 40
1.0
 40
1.0
 40
1.0
 40
2.0
 40
2.0
 40
2.0
 40
3.0
 40
3.0
 40
3.0
 40
4.0
 40
4.0
 40
4.0
 40
4.0
 10
36.56580341107311
 20
-307.399015892418
 30
0.0
 10
36.56580341107311
 20
-307.399015892418
 30
0.0
 10
33.60310597252136
 20
-310.3467917250153
 30
0.0
 10
33.60310597252136
 20
-310.3467917250153
 30
0.0
 10
33.6030706947432
 20
-310.3468270027934
 30
0.0
 10
33.6030706947432
 20
-310.3468622805703
 30
0.0
 10
33.60303541696504
 20
-310.3468975583485
 30
0.0
 10
33.60303541696504
 20
-310.3468975583485
 30
0.0
 10
36.56580341107311
 20
-307.399015892418
 30
0.0
 10
36.56580341107311
 20
-307.399015892418
 30
0.0
 10
36.56580341107311
 20
-307.399015892418
 30
0.0
 10
36.56580341107311
 20
-307.399015892418
 30
0.0
 10
36.56580341107311
 20
-307.399015892418
 30
0.0
  0
HATCH
  5
4C
330
45
100
AcDbEntity
  8
Layer 1
 62
    85
420
  6601542
100
AcDbHatch
 10
0.0
 20
0.0
 30
0.0
210
0.0
220
0.0
230
1.0
  2
SOLID
 70
     1
 71
     0
 91
        1
 92
        1
 93
        1
 72
     4
 94
        3
 73
     0
 74
     1
 95
       17
 96
       13
 40
0.0
 40
0.0
 40
0.0
 40
0.0
 40
1.0
 40
1.0
 40
1.0
 40
2.0
 40
2.0
 40
2.0
 40
3.0
 40
3.0
 40
3.0
 40
4.0
 40
4.0
 40
4.0
 40
4.0
 10
36.56580341107311
 20
-307.399015892418
 10
36.56580341107311
 20
-307.399015892418
 10
33.60310597252136
 20
-310.3467917250153
 10
33.60310597252136
 20
-310.3467917250153
 10
33.6030706947432
 20
-310.3468270027934
 10
33.6030706947432
 20
-310.3468622805703
 10
33.60303541696504
 20
-310.3468975583485
 10
33.60303541696504
 20
-310.3468975583485
 10
36.56580341107311
 20
-307.399015892418
 10
36.56580341107311
 20
-307.399015892418
 10
36.56580341107311
 20
-307.399015892418
 10
36.56580341107311
 20
-307.399015892418
 10
36.56580341107311
 20
-307.399015892418
 97
        0
 97
        0
 75
     2
 76
     1
 98
        0
  0
ENDBLK
  5
48
330
45
100
AcDbEntity
  8
0
100
AcDbBlockEnd
  0
ENDSEC
  0
SECTION
  2
ENTITIES
  0
SPLINE
  5
41
330
1F
100
AcDbEntity
  8
Layer 1
370
     0
100
AcDbSpline
210
0.0
220
0.0
230
1.0
 70
    11
 71
     3
 72
    23
 73
    19
 74
     0
 42
0.0000000001
 43
0.0000000001
 12
1.0
 22
0.0
 32
0.0
 13
1.0
 23
0.0
 33
0.0
 40
0.0
 40
0.0
 40
0.0
 40
0.0
 40
1.0
 40
1.0
 40
1.0
 40
2.0
 40
2.0
 40
2.0
 40
3.0
 40
3.0
 40
3.0
 40
4.0
 40
4.0
 40
4.0
 40
5.0
 40
5.0
 40
5.0
 40
6.0
 40
6.0
 40
6.0
 40
6.0
 10
31.48897930638323
 20
-283.6632097872414
 30
0.0
 10
31.48897930638323
 20
-283.6632097872414
 30
0.0
 10
41.43706569278389
 20
-283.6632097872414
 30
0.0
 10
41.43706569278389
 20
-283.6632097872414
 30
0.0
 10
41.63359717067181
 20
-283.6632097872414
 30
0.0
 10
41.79291161105181
 20
-283.5038953428366
 30
0.0
 10
41.79291161105181
 20
-283.3073981206633
 30
0.0
 10
41.79291161105181
 20
-283.3073981206633
 30
0.0
 10
41.79291161105181
 20
-273.1017839565481
 30
0.0
 10
41.79291161105181
 20
-273.1017839565481
 30
0.0
 10
41.79291161105181
 20
-272.7825906232952
 30
0.0
 10
41.40506773205764
 20
-272.6248284011122
 30
0.0
 10
41.18225329329767
 20
-272.8533931232772
 30
0.0
 10
41.18225329329767
 20
-272.8533931232772
 30
0.0
 10
31.23416791755759
 20
-283.0590072873924
 30
0.0
 10
31.23416791755759
 20
-283.0590072873924
 30
0.0
 10
31.01438736205712
 20
-283.2844322873358
 30
0.0
 10
31.17412513979465
 20
-283.6632097872414
 30
0.0
 10
31.48897930638323
 20
-283.6632097872414
 30
0.0
  0
HATCH
  5
42
330
1F
100
AcDbEntity
  8
Layer 1
 62
     7
420
 16777215
100
AcDbHatch
 10
0.0
 20
0.0
 30
0.0
210
0.0
220
0.0
230
1.0
  2
SOLID
 70
     1
 71
     0
 91
        1
 92
        1
 93
        1
 72
     4
 94
        3
 73
     0
 74
     1
 95
       23
 96
       19
 40
0.0
 40
0.0
 40
0.0
 40
0.0
 40
1.0
 40
1.0
 40
1.0
 40
2.0
 40
2.0
 40
2.0
 40
3.0
 40
3.0
 40
3.0
 40
4.0
 40
4.0
 40
4.0
 40
5.0
 40
5.0
 40
5.0
 40
6.0
 40
6.0
 40
6.0
 40
6.0
 10
31.48897930638323
 20
-283.6632097872414
 10
31.48897930638323
 20
-283.6632097872414
 10
41.43706569278389
 20
-283.6632097872414
 10
41.43706569278389
 20
-283.6632097872414
 10
41.63359717067181
 20
-283.6632097872414
 10
41.79291161105181
 20
-283.5038953428366
 10
41.79291161105181
 20
-283.3073981206633
 10
41.79291161105181
 20
-283.3073981206633
 10
41.79291161105181
 20
-273.1017839565481
 10
41.79291161105181
 20
-273.1017839565481
 10
41.79291161105181
 20
-272.7825906232952
 10
41.40506773205764
 20
-272.6248284011122
 10
41.18225329329767
 20
-272.8533931232772
 10
41.18225329329767
 20
-272.8533931232772
 10
31.23416791755759
 20
-283.0590072873924
 10
31.23416791755759
 20
-283.0590072873924
 10
31.01438736205712
 20
-283.2844322873358
 10
31.17412513979465
 20
-283.6632097872414
 10
31.48897930638323
 20
-283.6632097872414
 97
        0
 97
        0
 75
     2
 76
     1
 98
        0
  0
SPLINE
  5
43
330
1F
100
AcDbEntity
  8
Layer 1
370
     0
100
AcDbSpline
210
0.0
220
0.0
230
1.0
 70
    11
 71
     3
 72
    23
 73
    19
 74
     0
 42
0.0000000001
 43
0.0000000001
 12
1.0
 22
0.0
 32
0.0
 13
1.0
 23
0.0
 33
0.0
 40
0.0
 40
0.0
 40
0.0
 40
0.0
 40
1.0
 40
1.0
 40
1.0
 40
2.0
 40
2.0
 40
2.0
 40
3.0
 40
3.0
 40
3.0
 40
4.0
 40
4.0
 40
4.0
 40
5.0
 40
5.0
 40
5.0
 40
6.0
 40
6.0
 40
6.0
 40
6.0
 10
68.44668315327966
 20
-299.8029342276512
 30
0.0
 10
68.44668315327966
 20
-299.8029342276512
 30
0.0
 10
58.49464590717729
 20
-299.8029342276512
 30
0.0
 10
58.49464590717729
 20
-299.8029342276512
 30
0.0
 10
58.29430341228846
 20
-299.8029342276512
 30
0.0
 10
58.13192124416592
 20
-299.9653531164994
 30
0.0
 10
58.13192124416592
 20
-300.1656956164487
 30
0.0
 10
58.13192124416592
 20
-300.1656956164487
 30
0.0
 10
58.13192124416592
 20
-310.590420058287
 30
0.0
 10
58.13192124416592
 20
-310.590420058287
 30
0.0
 10
58.13192124416592
 20
-310.9176567248728
 30
0.0
 10
58.53105257291514
 20
-311.0776061692767
 30
0.0
 10
58.75704346623215
 20
-310.8408922804476
 30
0.0
 10
58.75704346623215
 20
-310.8408922804476
 30
0.0
 10
68.70904397991961
 20
-300.4161678386093
 30
0.0
 10
68.70904397991961
 20
-300.4161678386093
 30
0.0
 10
68.92942425207502
 20
-300.1853453386663
 30
0.0
 10
68.76580592291594
 20
-299.8029342276512
 30
0.0
 10
68.44668315327966
 20
-299.8029342276512
 30
0.0
  0
HATCH
  5
44
330
1F
100
AcDbEntity
  8
Layer 1
 62
     7
420
 16777215
100
AcDbHatch
 10
0.0
 20
0.0
 30
0.0
210
0.0
220
0.0
230
1.0
  2
SOLID
 70
     1
 71
     0
 91
        1
 92
        1
 93
        1
 72
     4
 94
        3
 73
     0
 74
     1
 95
       23
 96
       19
 40
0.0
 40
0.0
 40
0.0
 40
0.0
 40
1.0
 40
1.0
 40
1.0
 40
2.0
 40
2.0
 40
2.0
 40
3.0
 40
3.0
 40
3.0
 40
4.0
 40
4.0
 40
4.0
 40
5.0
 40
5.0
 40
5.0
 40
6.0
 40
6.0
 40
6.0
 40
6.0
 10
68.44668315327966
 20
-299.8029342276512
 10
68.44668315327966
 20
-299.8029342276512
 10
58.49464590717729
 20
-299.8029342276512
 10
58.49464590717729
 20
-299.8029342276512
 10
58.29430341228846
 20
-299.8029342276512
 10
58.13192124416592
 20
-299.9653531164994
 10
58.13192124416592
 20
-300.1656956164487
 10
58.13192124416592
 20
-300.1656956164487
 10
58.13192124416592
 20
-310.590420058287
 10
58.13192124416592
 20
-310.590420058287
 10
58.13192124416592
 20
-310.9176567248728
 10
58.53105257291514
 20
-311.0776061692767
 10
58.75704346623215
 20
-310.8408922804476
 10
58.75704346623215
 20
-310.8408922804476
 10
68.70904397991961
 20
-300.4161678386093
 10
68.70904397991961
 20
-300.4161678386093
 10
68.92942425207502
 20
-300.1853453386663
 10
68.76580592291594
 20
-299.8029342276512
 10
68.44668315327966
 20
-299.8029342276512
 97
        0
 97
        0
 75
     2
 76
     1
 98
        0
  0
INSERT
  5
46
330
1F
100
AcDbEntity
  8
Layer 1
100
AcDbBlockReference
  2
block 2
 10
0.0
 20
0.0
 30
0.0
  0
SPLINE
  5
4D
330
1F
100
AcDbEntity
  8
Layer 1
370
     0
100
AcDbSpline
210
0.0
220
0.0
230
1.0
 70
    11
 71
     3
 72
   218
 73
   214
 74
     0
 42
0.0000000001
 43
0.0000000001
 12
1.0
 22
0.0
 32
0.0
 13
1.0
 23
0.0
 33
0.0
 40
0.0
 40
0.0
 40
0.0
 40
0.0
 40
1.0
 40
1.0
 40
1.0
 40
2.0
 40
2.0
 40
2.0
 40
3.0
 40
3.0
 40
3.0
 40
4.0
 40
4.0
 40
4.0
 40
5.0
 40
5.0
 40
5.0
 40
6.0
 40
6.0
 40
6.0
 40
7.0
 40
7.0
 40
7.0
 40
8.0
 40
8.0
 40
8.0
 40
9.0
 40
9.0
 40
9.0
 40
10.0
 40
10.0
 40
10.0
 40
11.0
 40
11.0
 40
11.0
 40
12.0
 40
12.0
 40
12.0
 40
13.0
 40
13.0
 40
13.0
 40
14.0
 40
14.0
 40
14.0
 40
15.0
 40
15.0
 40
15.0
 40
16.0
 40
16.0
 40
16.0
 40
17.0
 40
17.0
 40
17.0
 40
18.0
 40
18.0
 40
18.0
 40
19.0
 40
19.0
 40
19.0
 40
20.0
 40
20.0
 40
20.0
 40
21.0
 40
21.0
 40
21.0
 40
22.0
 40
22.0
 40
22.0
 40
23.0
 40
23.0
 40
23.0
 40
24.0
 40
24.0
 40
24.0
 40
25.0
 40
25.0
 40
25.0
 40
26.0
 40
26.0
 40
26.0
 40
27.0
 40
27.0
 40
27.0
 40
28.0
 40
28.0
 40
28.0
 40
29.0
 40
29.0
 40
29.0
 40
30.0
 40
30.0
 40
30.0
 40
31.0
 40
31.0
 40
31.0
 40
32.0
 40
32.0
 40
32.0
 40
33.0
 40
33.0
 40
33.0
 40
34.0
 40
34.0
 40
34.0
 40
35.0
 40
35.0
 40
35.0
 40
36.0
 40
36.0
 40
36.0
 40
37.0
 40
37.0
 40
37.0
 40
38.0
 40
38.0
 40
38.0
 40
39.0
 40
39.0
 40
39.0
 40
40.0
 40
40.0
 40
40.0
 40
41.0
 40
41.0
 40
41.0
 40
42.0
 40
42.0
 40
42.0
 40
43.0
 40
43.0
 40
43.0
 40
44.0
 40
44.0
 40
44.0
 40
45.0
 40
45.0
 40
45.0
 40
46.0
 40
46.0
 40
46.0
 40
47.0
 40
47.0
 40
47.0
 40
48.0
 40
48.0
 40
48.0
 40
49.0
 40
49.0
 40
49.0
 40
50.0
 40
50.0
 40
50.0
 40
51.0
 40
51.0
 40
51.0
 40
52.0
 40
52.0
 40
52.0
 40
53.0
 40
53.0
 40
53.0
 40
54.0
 40
54.0
 40
54.0
 40
55.0
 40
55.0
 40
55.0
 40
56.0
 40
56.0
 40
56.0
 40
57.0
 40
57.0
 40
57.0
 40
58.0
 40
58.0
 40
58.0
 40
59.0
 40
59.0
 40
59.0
 40
60.0
 40
60.0
 40
60.0
 40
61.0
 40
61.0
 40
61.0
 40
62.0
 40
62.0
 40
62.0
 40
63.0
 40
63.0
 40
63.0
 40
64.0
 40
64.0
 40
64.0
 40
65.0
 40
65.0
 40
65.0
 40
66.0
 40
66.0
 40
66.0
 40
67.0
 40
67.0
 40
67.0
 40
68.0
 40
68.0
 40
68.0
 40
69.0
 40
69.0
 40
69.0
 40
70.0
 40
70.0
 40
70.0
 40
71.0
 40
71.0
 40
71.0
 40
71.0
 10
68.37267037739011
 20
-275.044495900507
 30
0.0
 10
68.33721621162796
 20
-275.0604414560588
 30
0.0
 10
68.3028909347259
 20
-275.0815375671643
 30
0.0
 10
68.27159954663531
 20
-275.1110650671566
 30
0.0
 10
68.27159954663531
 20
-275.1110650671566
 30
0.0
 10
59.10375200274881
 20
-284.3232570092983
 30
0.0
 10
59.10375200274881
 20
-284.3232570092983
 30
0.0
 10
58.96204117303082
 20
-284.4649325648188
 30
0.0
 10
58.7323122900028
 20
-284.4648972870407
 30
0.0
 10
58.5906367380617
 20
-284.3232217315214
 30
0.0
 10
58.5906367380617
 20
-284.3232217315214
 30
0.0
 10
57.27163593837887
 20
-283.0042208985178
 30
0.0
 10
57.27163593837887
 20
-283.0042208985178
 30
0.0
 10
57.12996038643777
 20
-282.8625453429972
 30
0.0
 10
57.12996038643777
 20
-282.6327811763875
 30
0.0
 10
57.27163593837887
 20
-282.4910703430901
 30
0.0
 10
57.27163593837887
 20
-282.4910703430901
 30
0.0
 10
59.25576394331511
 20
-280.5069775658077
 30
0.0
 10
59.25576394331511
 20
-280.5069775658077
 30
0.0
 10
59.25576394331511
 20
-280.5069775658077
 30
0.0
 10
66.42568987150617
 20
-273.3370867342675
 30
0.0
 10
66.42568987150617
 20
-273.3370867342675
 30
0.0
 10
66.6542898656741
 20
-273.1084867343243
 30
0.0
 10
66.49236486980514
 20
-272.7176442344223
 30
0.0
 10
66.16911460027417
 20
-272.7176442344223
 30
0.0
 10
66.16911460027417
 20
-272.7176442344223
 30
0.0
 10
44.74544986905961
 20
-272.7176442344223
 30
0.0
 10
44.74544986905961
 20
-272.7176442344223
 30
0.0
 10
44.54503791422958
 20
-272.7176442344223
 30
0.0
 10
44.38258265609491
 20
-272.8800984010481
 30
0.0
 10
44.38258265609491
 20
-273.0804761787762
 30
0.0
 10
44.38258265609491
 20
-273.0804761787762
 30
0.0
 10
44.38258265609491
 20
-277.3540261777071
 30
0.0
 10
44.38258265609491
 20
-277.3540261777071
 30
0.0
 10
44.38258265609491
 20
-277.3540261777071
 30
0.0
 10
44.38258265609491
 20
-283.3004836762207
 30
0.0
 10
44.38258265609491
 20
-283.3004836762207
 30
0.0
 10
44.38258265609491
 20
-283.5008967317263
 30
0.0
 10
44.54503791422958
 20
-283.6633861761296
 30
0.0
 10
44.74544986905961
 20
-283.6633861761296
 30
0.0
 10
44.74544986905961
 20
-283.6633861761296
 30
0.0
 10
50.6623091625524
 20
-283.6633861761296
 30
0.0
 10
50.6623091625524
 20
-283.6633861761296
 30
0.0
 10
50.6623091625524
 20
-283.6633861761296
 30
0.0
 10
51.28104609121156
 20
-283.6633861761296
 30
0.0
 10
51.28104609121156
 20
-283.6633861761296
 30
0.0
 10
51.28104609121156
 20
-283.6633861761296
 30
0.0
 10
53.25328548533998
 20
-283.6633861761296
 30
0.0
 10
53.25328548533998
 20
-283.6633861761296
 30
0.0
 10
53.45369853578257
 20
-283.6633861761296
 30
0.0
 10
53.61615269830469
 20
-283.8258403427561
 30
0.0
 10
53.61615269830469
 20
-284.0262181204835
 30
0.0
 10
53.61615269830469
 20
-284.0262181204835
 30
0.0
 10
53.61615269830469
 20
-285.8925889533512
 30
0.0
 10
53.61615269830469
 20
-285.8925889533512
 30
0.0
 10
53.61615269830469
 20
-286.0930020088568
 30
0.0
 10
53.45369853578257
 20
-286.2554914532601
 30
0.0
 10
53.25328548533998
 20
-286.2554914532601
 30
0.0
 10
53.25328548533998
 20
-286.2554914532601
 30
0.0
 10
51.28104609121156
 20
-286.2554914532601
 30
0.0
 10
51.28104609121156
 20
-286.2554914532601
 30
0.0
 10
51.28104609121156
 20
-286.2554914532601
 30
0.0
 10
50.6623091625524
 20
-286.2554914532601
 30
0.0
 10
50.6623091625524
 20
-286.2554914532601
 30
0.0
 10
50.6623091625524
 20
-286.2554914532601
 30
0.0
 10
44.74544986905961
 20
-286.2554914532601
 30
0.0
 10
44.74544986905961
 20
-286.2554914532601
 30
0.0
 10
44.54503791422958
 20
-286.2554914532601
 30
0.0
 10
44.38258265609491
 20
-286.4179456198866
 30
0.0
 10
44.38258265609491
 20
-286.6183233976139
 30
0.0
 10
44.38258265609491
 20
-286.6183233976139
 30
0.0
 10
44.38258265609491
 20
-295.6814667286816
 30
0.0
 10
44.38258265609491
 20
-295.6814667286816
 30
0.0
 10
44.38258265609491
 20
-295.8818797841872
 30
0.0
 10
44.22012958097802
 20
-296.0443692285905
 30
0.0
 10
44.0197154431302
 20
-296.0443692285905
 30
0.0
 10
44.0197154431302
 20
-296.0443692285905
 30
0.0
 10
42.15577882401652
 20
-296.0443692285905
 30
0.0
 10
42.15577882401652
 20
-296.0443692285905
 30
0.0
 10
41.95536577357392
 20
-296.0443692285905
 30
0.0
 10
41.79291161105181
 20
-295.8818797841872
 30
0.0
 10
41.79291161105181
 20
-295.6814667286816
 30
0.0
 10
41.79291161105181
 20
-295.6814667286816
 30
0.0
 10
41.79291161105181
 20
-293.0471339515619
 30
0.0
 10
41.79291161105181
 20
-293.0471339515619
 30
0.0
 10
41.79291161105181
 20
-293.0471339515619
 30
0.0
 10
41.79291161105181
 20
-286.6183233976139
 30
0.0
 10
41.79291161105181
 20
-286.6183233976139
 30
0.0
 10
41.79291161105181
 20
-286.4179456198866
 30
0.0
 10
41.6304574485297
 20
-286.2554914532601
 30
0.0
 10
41.4300443980871
 20
-286.2554914532601
 30
0.0
 10
41.4300443980871
 20
-286.2554914532601
 30
0.0
 10
31.48633347304937
 20
-286.2554914532601
 30
0.0
 10
31.48633347304937
 20
-286.2554914532601
 30
0.0
 10
31.28592041754506
 20
-286.2554914532601
 30
0.0
 10
31.12346625091864
 20
-286.4179456198866
 30
0.0
 10
31.12346625091864
 20
-286.6183233976139
 30
0.0
 10
31.12346625091864
 20
-286.6183233976139
 30
0.0
 10
31.12346625091864
 20
-308.2930253366397
 30
0.0
 10
31.12346625091864
 20
-308.2930253366397
 30
0.0
 10
31.12346625091864
 20
-308.615887558781
 30
0.0
 10
31.51342680637683
 20
-308.7779536698515
 30
0.0
 10
31.74230902854149
 20
-308.5502356143533
 30
0.0
 10
31.74230902854149
 20
-308.5502356143533
 30
0.0
 10
40.89685607835654
 20
-299.4402786721856
 30
0.0
 10
40.89685607835654
 20
-299.4402786721856
 30
0.0
 10
41.03870801918203
 20
-299.2991675611105
 30
0.0
 10
41.26801356888752
 20
-299.2994850611101
 30
0.0
 10
41.40944217639048
 20
-299.4409842277411
 30
0.0
 10
41.40944217639048
 20
-299.4409842277411
 30
0.0
 10
42.7243154761786
 20
-300.7563161718571
 30
0.0
 10
42.7243154761786
 20
-300.7563161718571
 30
0.0
 10
42.86620269478098
 20
-300.8983092273772
 30
0.0
 10
42.86588519478909
 20
-301.1285320050978
 30
0.0
 10
42.72357464286417
 20
-301.2701017272839
 30
0.0
 10
42.72357464286417
 20
-301.2701017272839
 30
0.0
 10
42.3082846534591
 20
-301.6832750605142
 30
0.0
 10
42.3082846534591
 20
-301.6832750605142
 30
0.0
 10
42.3082846534591
 20
-301.6832750605142
 30
0.0
 10
42.30899020899666
 20
-301.684650893847
 30
0.0
 10
42.30899020899666
 20
-301.684650893847
 30
0.0
 10
42.30899020899666
 20
-301.684650893847
 30
0.0
 10
41.0625557963514
 20
-302.9249117268703
 30
0.0
 10
41.0625557963514
 20
-302.9249117268703
 30
0.0
 10
41.0625557963514
 20
-302.9249117268703
 30
0.0
 10
36.56580341107311
 20
-307.399015892418
 30
0.0
 10
36.56580341107311
 20
-307.399015892418
 30
0.0
 10
36.56580341107311
 20
-307.399015892418
 30
0.0
 10
33.60303541696504
 20
-310.3468975583485
 30
0.0
 10
33.60303541696504
 20
-310.3468975583485
 30
0.0
 10
33.37076652813412
 20
-310.5660078360715
 30
0.0
 10
33.52023847254097
 20
-310.9515586693084
 30
0.0
 10
33.83414013912946
 20
-310.9643645026384
 30
0.0
 10
33.83414013912946
 20
-310.9643645026384
 30
0.0
 10
36.56580341107311
 20
-310.9643645026384
 30
0.0
 10
36.56580341107311
 20
-310.9643645026384
 30
0.0
 10
36.56580341107311
 20
-310.9643645026384
 30
0.0
 10
55.17906404732039
 20
-310.9643645026384
 30
0.0
 10
55.17906404732039
 20
-310.9643645026384
 30
0.0
 10
55.37947709776298
 20
-310.9643645026384
 30
0.0
 10
55.5419312602851
 20
-310.801910336012
 30
0.0
 10
55.5419312602851
 20
-310.6014972805064
 30
0.0
 10
55.5419312602851
 20
-310.6014972805064
 30
0.0
 10
55.5419312602851
 20
-300.165801449782
 30
0.0
 10
55.5419312602851
 20
-300.165801449782
 30
0.0
 10
55.5419312602851
 20
-299.9654236720545
 30
0.0
 10
55.37947709776298
 20
-299.8029695054281
 30
0.0
 10
55.17906404732039
 20
-299.8029695054281
 30
0.0
 10
55.17906404732039
 20
-299.8029695054281
 30
0.0
 10
48.537387550097
 20
-299.8029695054281
 30
0.0
 10
48.537387550097
 20
-299.8029695054281
 30
0.0
 10
48.537387550097
 20
-299.8029695054281
 30
0.0
 10
46.48764288016812
 20
-299.8009233943178
 30
0.0
 10
46.48764288016812
 20
-299.8009233943178
 30
0.0
 10
46.28737094083304
 20
-299.8007117276514
 30
0.0
 10
46.125129580501
 20
-299.6383281165813
 30
0.0
 10
46.125129580501
 20
-299.4380561721871
 30
0.0
 10
46.125129580501
 20
-299.4380561721871
 30
0.0
 10
46.125129580501
 20
-297.5757775615411
 30
0.0
 10
46.125129580501
 20
-297.5757775615411
 30
0.0
 10
46.125129580501
 20
-297.3753997838137
 30
0.0
 10
46.28758260749431
 20
-297.2129456171872
 30
0.0
 10
46.4879956579369
 20
-297.2129456171872
 30
0.0
 10
46.4879956579369
 20
-297.2129456171872
 30
0.0
 10
55.17906404732039
 20
-297.2129456171872
 30
0.0
 10
55.17906404732039
 20
-297.2129456171872
 30
0.0
 10
55.37947709776298
 20
-297.2129456171872
 30
0.0
 10
55.5419312602851
 20
-297.050456172784
 30
0.0
 10
55.5419312602851
 20
-296.8500431172783
 30
0.0
 10
55.5419312602851
 20
-296.8500431172783
 30
0.0
 10
55.5419312602851
 20
-291.4099981186379
 30
0.0
 10
55.5419312602851
 20
-291.4099981186379
 30
0.0
 10
55.5419312602851
 20
-291.4099981186379
 30
0.0
 10
55.5419312602851
 20
-290.0429842300908
 30
0.0
 10
55.5419312602851
 20
-290.0429842300908
 30
0.0
 10
55.5419312602851
 20
-290.0429842300908
 30
0.0
 10
55.5419312602851
 20
-288.000506730601
 30
0.0
 10
55.5419312602851
 20
-288.000506730601
 30
0.0
 10
55.5419312602851
 20
-287.8001289528735
 30
0.0
 10
55.70438542280721
 20
-287.6376395084703
 30
0.0
 10
55.90479847324981
 20
-287.6376395084703
 30
0.0
 10
55.90479847324981
 20
-287.6376395084703
 30
0.0
 10
57.76908787013226
 20
-287.6376395084703
 30
0.0
 10
57.76908787013226
 20
-287.6376395084703
 30
0.0
 10
57.96950092057486
 20
-287.6376395084703
 30
0.0
 10
58.13195508309697
 20
-287.8001289528735
 30
0.0
 10
58.13195508309697
 20
-288.000506730601
 30
0.0
 10
58.13195508309697
 20
-288.000506730601
 30
0.0
 10
58.13195508309697
 20
-290.0429842300908
 30
0.0
 10
58.13195508309697
 20
-290.0429842300908
 30
0.0
 10
58.13195508309697
 20
-290.0429842300908
 30
0.0
 10
58.13195508309697
 20
-291.4099981186379
 30
0.0
 10
58.13195508309697
 20
-291.4099981186379
 30
0.0
 10
58.13195508309697
 20
-291.4099981186379
 30
0.0
 10
58.13195508309697
 20
-296.8500431172783
 30
0.0
 10
58.13195508309697
 20
-296.8500431172783
 30
0.0
 10
58.13195508309697
 20
-297.050456172784
 30
0.0
 10
58.29440924561909
 20
-297.2129456171872
 30
0.0
 10
58.49482229606168
 20
-297.2129456171872
 30
0.0
 10
58.49482229606168
 20
-297.2129456171872
 30
0.0
 10
68.51367565157055
 20
-297.2129456171872
 30
0.0
 10
68.51367565157055
 20
-297.2129456171872
 30
0.0
 10
68.71408870201314
 20
-297.2129456171872
 30
0.0
 10
68.87654286453525
 20
-297.050456172784
 30
0.0
 10
68.87654286453525
 20
-296.8500431172783
 30
0.0
 10
68.87654286453525
 20
-296.8500431172783
 30
0.0
 10
68.87654286453525
 20
-284.7246475647537
 30
0.0
 10
68.87654286453525
 20
-284.7246475647537
 30
0.0
 10
68.87654286453525
 20
-284.7246475647537
 30
0.0
 10
68.87654286453525
 20
-275.372155900425
 30
0.0
 10
68.87654286453525
 20
-275.372155900425
 30
0.0
 10
68.87654286453525
 20
-275.100552289382
 30
0.0
 10
68.59654314945642
 20
-274.9438484005323
 30
0.0
 10
68.37267037739011
 20
-275.044495900507
 30
0.0
  0
HATCH
  5
4E
330
1F
100
AcDbEntity
  8
Layer 1
 62
     7
420
 16777215
100
AcDbHatch
 10
0.0
 20
0.0
 30
0.0
210
0.0
220
0.0
230
1.0
  2
SOLID
 70
     1
 71
     0
 91
        1
 92
        1
 93
        1
 72
     4
 94
        3
 73
     0
 74
     1
 95
      218
 96
      214
 40
0.0
 40
0.0
 40
0.0
 40
0.0
 40
1.0
 40
1.0
 40
1.0
 40
2.0
 40
2.0
 40
2.0
 40
3.0
 40
3.0
 40
3.0
 40
4.0
 40
4.0
 40
4.0
 40
5.0
 40
5.0
 40
5.0
 40
6.0
 40
6.0
 40
6.0
 40
7.0
 40
7.0
 40
7.0
 40
8.0
 40
8.0
 40
8.0
 40
9.0
 40
9.0
 40
9.0
 40
10.0
 40
10.0
 40
10.0
 40
11.0
 40
11.0
 40
11.0
 40
12.0
 40
12.0
 40
12.0
 40
13.0
 40
13.0
 40
13.0
 40
14.0
 40
14.0
 40
14.0
 40
15.0
 40
15.0
 40
15.0
 40
16.0
 40
16.0
 40
16.0
 40
17.0
 40
17.0
 40
17.0
 40
18.0
 40
18.0
 40
18.0
 40
19.0
 40
19.0
 40
19.0
 40
20.0
 40
20.0
 40
20.0
 40
21.0
 40
21.0
 40
21.0
 40
22.0
 40
22.0
 40
22.0
 40
23.0
 40
23.0
 40
23.0
 40
24.0
 40
24.0
 40
24.0
 40
25.0
 40
25.0
 40
25.0
 40
26.0
 40
26.0
 40
26.0
 40
27.0
 40
27.0
 40
27.0
 40
28.0
 40
28.0
 40
28.0
 40
29.0
 40
29.0
 40
29.0
 40
30.0
 40
30.0
 40
30.0
 40
31.0
 40
31.0
 40
31.0
 40
32.0
 40
32.0
 40
32.0
 40
33.0
 40
33.0
 40
33.0
 40
34.0
 40
34.0
 40
34.0
 40
35.0
 40
35.0
 40
35.0
 40
36.0
 40
36.0
 40
36.0
 40
37.0
 40
37.0
 40
37.0
 40
38.0
 40
38.0
 40
38.0
 40
39.0
 40
39.0
 40
39.0
 40
40.0
 40
40.0
 40
40.0
 40
41.0
 40
41.0
 40
41.0
 40
42.0
 40
42.0
 40
42.0
 40
43.0
 40
43.0
 40
43.0
 40
44.0
 40
44.0
 40
44.0
 40
45.0
 40
45.0
 40
45.0
 40
46.0
 40
46.0
 40
46.0
 40
47.0
 40
47.0
 40
47.0
 40
48.0
 40
48.0
 40
48.0
 40
49.0
 40
49.0
 40
49.0
 40
50.0
 40
50.0
 40
50.0
 40
51.0
 40
51.0
 40
51.0
 40
52.0
 40
52.0
 40
52.0
 40
53.0
 40
53.0
 40
53.0
 40
54.0
 40
54.0
 40
54.0
 40
55.0
 40
55.0
 40
55.0
 40
56.0
 40
56.0
 40
56.0
 40
57.0
 40
57.0
 40
57.0
 40
58.0
 40
58.0
 40
58.0
 40
59.0
 40
59.0
 40
59.0
 40
60.0
 40
60.0
 40
60.0
 40
61.0
 40
61.0
 40
61.0
 40
62.0
 40
62.0
 40
62.0
 40
63.0
 40
63.0
 40
63.0
 40
64.0
 40
64.0
 40
64.0
 40
65.0
 40
65.0
 40
65.0
 40
66.0
 40
66.0
 40
66.0
 40
67.0
 40
67.0
 40
67.0
 40
68.0
 40
68.0
 40
68.0
 40
69.0
 40
69.0
 40
69.0
 40
70.0
 40
70.0
 40
70.0
 40
71.0
 40
71.0
 40
71.0
 40
71.0
 10
68.37267037739011
 20
-275.044495900507
 10
68.33721621162796
 20
-275.0604414560588
 10
68.3028909347259
 20
-275.0815375671643
 10
68.27159954663531
 20
-275.1110650671566
 10
68.27159954663531
 20
-275.1110650671566
 10
59.10375200274881
 20
-284.3232570092983
 10
59.10375200274881
 20
-284.3232570092983
 10
58.96204117303082
 20
-284.4649325648188
 10
58.7323122900028
 20
-284.4648972870407
 10
58.5906367380617
 20
-284.3232217315214
 10
58.5906367380617
 20
-284.3232217315214
 10
57.27163593837887
 20
-283.0042208985178
 10
57.27163593837887
 20
-283.0042208985178
 10
57.12996038643777
 20
-282.8625453429972
 10
57.12996038643777
 20
-282.6327811763875
 10
57.27163593837887
 20
-282.4910703430901
 10
57.27163593837887
 20
-282.4910703430901
 10
59.25576394331511
 20
-280.5069775658077
 10
59.25576394331511
 20
-280.5069775658077
 10
59.25576394331511
 20
-280.5069775658077
 10
66.42568987150617
 20
-273.3370867342675
 10
66.42568987150617
 20
-273.3370867342675
 10
66.6542898656741
 20
-273.1084867343243
 10
66.49236486980514
 20
-272.7176442344223
 10
66.16911460027417
 20
-272.7176442344223
 10
66.16911460027417
 20
-272.7176442344223
 10
44.74544986905961
 20
-272.7176442344223
 10
44.74544986905961
 20
-272.7176442344223
 10
44.54503791422958
 20
-272.7176442344223
 10
44.38258265609491
 20
-272.8800984010481
 10
44.38258265609491
 20
-273.0804761787762
 10
44.38258265609491
 20
-273.0804761787762
 10
44.38258265609491
 20
-277.3540261777071
 10
44.38258265609491
 20
-277.3540261777071
 10
44.38258265609491
 20
-277.3540261777071
 10
44.38258265609491
 20
-283.3004836762207
 10
44.38258265609491
 20
-283.3004836762207
 10
44.38258265609491
 20
-283.5008967317263
 10
44.54503791422958
 20
-283.6633861761296
 10
44.74544986905961
 20
-283.6633861761296
 10
44.74544986905961
 20
-283.6633861761296
 10
50.6623091625524
 20
-283.6633861761296
 10
50.6623091625524
 20
-283.6633861761296
 10
50.6623091625524
 20
-283.6633861761296
 10
51.28104609121156
 20
-283.6633861761296
 10
51.28104609121156
 20
-283.6633861761296
 10
51.28104609121156
 20
-283.6633861761296
 10
53.25328548533998
 20
-283.6633861761296
 10
53.25328548533998
 20
-283.6633861761296
 10
53.45369853578257
 20
-283.6633861761296
 10
53.61615269830469
 20
-283.8258403427561
 10
53.61615269830469
 20
-284.0262181204835
 10
53.61615269830469
 20
-284.0262181204835
 10
53.61615269830469
 20
-285.8925889533512
 10
53.61615269830469
 20
-285.8925889533512
 10
53.61615269830469
 20
-286.0930020088568
 10
53.45369853578257
 20
-286.2554914532601
 10
53.25328548533998
 20
-286.2554914532601
 10
53.25328548533998
 20
-286.2554914532601
 10
51.28104609121156
 20
-286.2554914532601
 10
51.28104609121156
 20
-286.2554914532601
 10
51.28104609121156
 20
-286.2554914532601
 10
50.6623091625524
 20
-286.2554914532601
 10
50.6623091625524
 20
-286.2554914532601
 10
50.6623091625524
 20
-286.2554914532601
 10
44.74544986905961
 20
-286.2554914532601
 10
44.74544986905961
 20
-286.2554914532601
 10
44.54503791422958
 20
-286.2554914532601
 10
44.38258265609491
 20
-286.4179456198866
 10
44.38258265609491
 20
-286.6183233976139
 10
44.38258265609491
 20
-286.6183233976139
 10
44.38258265609491
 20
-295.6814667286816
 10
44.38258265609491
 20
-295.6814667286816
 10
44.38258265609491
 20
-295.8818797841872
 10
44.22012958097802
 20
-296.0443692285905
 10
44.0197154431302
 20
-296.0443692285905
 10
44.0197154431302
 20
-296.0443692285905
 10
42.15577882401652
 20
-296.0443692285905
 10
42.15577882401652
 20
-296.0443692285905
 10
41.95536577357392
 20
-296.0443692285905
 10
41.79291161105181
 20
-295.8818797841872
 10
41.79291161105181
 20
-295.6814667286816
 10
41.79291161105181
 20
-295.6814667286816
 10
41.79291161105181
 20
-293.0471339515619
 10
41.79291161105181
 20
-293.0471339515619
 10
41.79291161105181
 20
-293.0471339515619
 10
41.79291161105181
 20
-286.6183233976139
 10
41.79291161105181
 20
-286.6183233976139
 10
41.79291161105181
 20
-286.4179456198866
 10
41.6304574485297
 20
-286.2554914532601
 10
41.4300443980871
 20
-286.2554914532601
 10
41.4300443980871
 20
-286.2554914532601
 10
31.48633347304937
 20
-286.2554914532601
 10
31.48633347304937
 20
-286.2554914532601
 10
31.28592041754506
 20
-286.2554914532601
 10
31.12346625091864
 20
-286.4179456198866
 10
31.12346625091864
 20
-286.6183233976139
 10
31.12346625091864
 20
-286.6183233976139
 10
31.12346625091864
 20
-308.2930253366397
 10
31.12346625091864
 20
-308.2930253366397
 10
31.12346625091864
 20
-308.615887558781
 10
31.51342680637683
 20
-308.7779536698515
 10
31.74230902854149
 20
-308.5502356143533
 10
31.74230902854149
 20
-308.5502356143533
 10
40.89685607835654
 20
-299.4402786721856
 10
40.89685607835654
 20
-299.4402786721856
 10
41.03870801918203
 20
-299.2991675611105
 10
41.26801356888752
 20
-299.2994850611101
 10
41.40944217639048
 20
-299.4409842277411
 10
41.40944217639048
 20
-299.4409842277411
 10
42.7243154761786
 20
-300.7563161718571
 10
42.7243154761786
 20
-300.7563161718571
 10
42.86620269478098
 20
-300.8983092273772
 10
42.86588519478909
 20
-301.1285320050978
 10
42.72357464286417
 20
-301.2701017272839
 10
42.72357464286417
 20
-301.2701017272839
 10
42.3082846534591
 20
-301.6832750605142
 10
42.3082846534591
 20
-301.6832750605142
 10
42.3082846534591
 20
-301.6832750605142
 10
42.30899020899666
 20
-301.684650893847
 10
42.30899020899666
 20
-301.684650893847
 10
42.30899020899666
 20
-301.684650893847
 10
41.0625557963514
 20
-302.9249117268703
 10
41.0625557963514
 20
-302.9249117268703
 10
41.0625557963514
 20
-302.9249117268703
 10
36.56580341107311
 20
-307.399015892418
 10
36.56580341107311
 20
-307.399015892418
 10
36.56580341107311
 20
-307.399015892418
 10
33.60303541696504
 20
-310.3468975583485
 10
33.60303541696504
 20
-310.3468975583485
 10
33.37076652813412
 20
-310.5660078360715
 10
33.52023847254097
 20
-310.9515586693084
 10
33.83414013912946
 20
-310.9643645026384
 10
33.83414013912946
 20
-310.9643645026384
 10
36.56580341107311
 20
-310.9643645026384
 10
36.56580341107311
 20
-310.9643645026384
 10
36.56580341107311
 20
-310.9643645026384
 10
55.17906404732039
 20
-310.9643645026384
 10
55.17906404732039
 20
-310.9643645026384
 10
55.37947709776298
 20
-310.9643645026384
 10
55.5419312602851
 20
-310.801910336012
 10
55.5419312602851
 20
-310.6014972805064
 10
55.5419312602851
 20
-310.6014972805064
 10
55.5419312602851
 20
-300.165801449782
 10
55.5419312602851
 20
-300.165801449782
 10
55.5419312602851
 20
-299.9654236720545
 10
55.37947709776298
 20
-299.8029695054281
 10
55.17906404732039
 20
-299.8029695054281
 10
55.17906404732039
 20
-299.8029695054281
 10
48.537387550097
 20
-299.8029695054281
 10
48.537387550097
 20
-299.8029695054281
 10
48.537387550097
 20
-299.8029695054281
 10
46.48764288016812
 20
-299.8009233943178
 10
46.48764288016812
 20
-299.8009233943178
 10
46.28737094083304
 20
-299.8007117276514
 10
46.125129580501
 20
-299.6383281165813
 10
46.125129580501
 20
-299.4380561721871
 10
46.125129580501
 20
-299.4380561721871
 10
46.125129580501
 20
-297.5757775615411
 10
46.125129580501
 20
-297.5757775615411
 10
46.125129580501
 20
-297.3753997838137
 10
46.28758260749431
 20
-297.2129456171872
 10
46.4879956579369
 20
-297.2129456171872
 10
46.4879956579369
 20
-297.2129456171872
 10
55.17906404732039
 20
-297.2129456171872
 10
55.17906404732039
 20
-297.2129456171872
 10
55.37947709776298
 20
-297.2129456171872
 10
55.5419312602851
 20
-297.050456172784
 10
55.5419312602851
 20
-296.8500431172783
 10
55.5419312602851
 20
-296.8500431172783
 10
55.5419312602851
 20
-291.4099981186379
 10
55.5419312602851
 20
-291.4099981186379
 10
55.5419312602851
 20
-291.4099981186379
 10
55.5419312602851
 20
-290.0429842300908
 10
55.5419312602851
 20
-290.0429842300908
 10
55.5419312602851
 20
-290.0429842300908
 10
55.5419312602851
 20
-288.000506730601
 10
55.5419312602851
 20
-288.000506730601
 10
55.5419312602851
 20
-287.8001289528735
 10
55.70438542280721
 20
-287.6376395084703
 10
55.90479847324981
 20
-287.6376395084703
 10
55.90479847324981
 20
-287.6376395084703
 10
57.76908787013226
 20
-287.6376395084703
 10
57.76908787013226
 20
-287.6376395084703
 10
57.96950092057486
 20
-287.6376395084703
 10
58.13195508309697
 20
-287.8001289528735
 10
58.13195508309697
 20
-288.000506730601
 10
58.13195508309697
 20
-288.000506730601
 10
58.13195508309697
 20
-290.0429842300908
 10
58.13195508309697
 20
-290.0429842300908
 10
58.13195508309697
 20
-290.0429842300908
 10
58.13195508309697
 20
-291.4099981186379
 10
58.13195508309697
 20
-291.4099981186379
 10
58.13195508309697
 20
-291.4099981186379
 10
58.13195508309697
 20
-296.8500431172783
 10
58.13195508309697
 20
-296.8500431172783
 10
58.13195508309697
 20
-297.050456172784
 10
58.29440924561909
 20
-297.2129456171872
 10
58.49482229606168
 20
-297.2129456171872
 10
58.49482229606168
 20
-297.2129456171872
 10
68.51367565157055
 20
-297.2129456171872
 10
68.51367565157055
 20
-297.2129456171872
 10
68.71408870201314
 20
-297.2129456171872
 10
68.87654286453525
 20
-297.050456172784
 10
68.87654286453525
 20
-296.8500431172783
 10
68.87654286453525
 20
-296.8500431172783
 10
68.87654286453525
 20
-284.7246475647537
 10
68.87654286453525
 20
-284.7246475647537
 10
68.87654286453525
 20
-284.7246475647537
 10
68.87654286453525
 20
-275.372155900425
 10
68.87654286453525
 20
-275.372155900425
 10
68.87654286453525
 20
-275.100552289382
 10
68.59654314945642
 20
-274.9438484005323
 10
68.37267037739011
 20
-275.044495900507
 97
        0
 97
        0
 75
     2
 76
     1
 98
        0
  0
ENDSEC
  0
SECTION
  2
OBJECTS
  0
DICTIONARY
  5
C
330
0
100
AcDbDictionary
281
     1
  3
ACAD_GROUP
350
D
  3
ACAD_LAYOUT
350
1A
  3
ACAD_MATERIAL
350
3B
  3
ACAD_MLEADERSTYLE
350
50
  3
ACAD_MLINESTYLE
350
17
  3
ACAD_PLOTSETTINGS
350
19
  3
ACAD_PLOTSTYLENAME
350
E
  3
ACAD_TABLESTYLE
350
4F
  3
ACAD_VISUALSTYLE
350
2A
  0
SUN
  5
3F
330
29
100
AcDbSun
 90
        1
290
     0
 63
     7
421
 16777215
 40
1.0
291
     1
 91
  2455826
 92
 54000000
292
     0
 70
     2
 71
   256
280
     1
  0
DICTIONARY
  5
D
102
{ACAD_REACTORS
330
C
102
}
330
C
100
AcDbDictionary
281
     1
  0
DICTIONARY
  5
1A
102
{ACAD_REACTORS
330
C
102
}
330
C
100
AcDbDictionary
281
     1
  3
Layout1
350
1E
  3
Layout2
350
26
  3
Model
350
22
  0
DICTIONARY
  5
3B
102
{ACAD_REACTORS
330
C
102
}
330
C
100
AcDbDictionary
281
     1
  3
ByBlock
350
3D
  3
ByLayer
350
3C
  3
Global
350
3E
  0
DICTIONARY
  5
50
102
{ACAD_REACTORS
330
C
102
}
330
C
100
AcDbDictionary
281
     1
  0
DICTIONARY
  5
17
102
{ACAD_REACTORS
330
C
102
}
330
C
100
AcDbDictionary
281
     1
  3
Standard
350
18
  0
DICTIONARY
  5
19
102
{ACAD_REACTORS
330
C
102
}
330
C
100
AcDbDictionary
281
     1
  0
ACDBDICTIONARYWDFLT
  5
E
102
{ACAD_REACTORS
330
C
102
}
330
C
100
AcDbDictionary
281
     1
  3
Normal
350
F
100
AcDbDictionaryWithDefault
340
F
  0
DICTIONARY
  5
4F
102
{ACAD_REACTORS
330
C
102
}
330
C
100
AcDbDictionary
281
     1
  0
DICTIONARY
  5
2A
102
{ACAD_REACTORS
330
C
102
}
330
C
100
AcDbDictionary
281
     1
  3
2dWireframe
350
2F
  3
3D Hidden
350
31
  3
3dWireframe
350
30
  3
Basic
350
32
  3
Brighten
350
36
  3
ColorChange
350
3A
  3
Conceptual
350
34
  3
Dim
350
35
  3
Facepattern
350
39
  3
Flat
350
2B
  3
FlatWithEdges
350
2C
  3
Gouraud
350
2D
  3
GouraudWithEdges
350
2E
  3
Linepattern
350
38
  3
Realistic
350
33
  3
Thicken
350
37
  0
LAYOUT
  5
1E
102
{ACAD_REACTORS
330
1A
102
}
330
1A
100
AcDbPlotSettings
  1

  2
none_device
  4

  6

 40
0.0
 41
0.0
 42
0.0
 43
0.0
 44
0.0
 45
0.0
 46
0.0
 47
0.0
 48
0.0
 49
0.0
140
0.0
141
0.0
142
1.0
143
1.0
 70
   688
 72
     0
 73
     0
 74
     5
  7

 75
    16
 76
     0
 77
     2
 78
   300
147
1.0
148
0.0
149
0.0
100
AcDbLayout
  1
Layout1
 70
     1
 71
     1
 10
0.0
 20
0.0
 11
12.0
 21
9.0
 12
0.0
 22
0.0
 32
0.0
 14
1.000000000000000E+20
 24
1.000000000000000E+20
 34
1.000000000000000E+20
 15
-1.000000000000000E+20
 25
-1.000000000000000E+20
 35
-1.000000000000000E+20
146
0.0
 13
0.0
 23
0.0
 33
0.0
 16
1.0
 26
0.0
 36
0.0
 17
0.0
 27
1.0
 37
0.0
 76
     0
330
1B
  0
LAYOUT
  5
26
102
{ACAD_REACTORS
330
1A
102
}
330
1A
100
AcDbPlotSettings
  1

  2
none_device
  4

  6

 40
0.0
 41
0.0
 42
0.0
 43
0.0
 44
0.0
 45
0.0
 46
0.0
 47
0.0
 48
0.0
 49
0.0
140
0.0
141
0.0
142
1.0
143
1.0
 70
   688
 72
     0
 73
     0
 74
     5
  7

 75
    16
 76
     0
 77
     2
 78
   300
147
1.0
148
0.0
149
0.0
100
AcDbLayout
  1
Layout2
 70
     1
 71
     2
 10
0.0
 20
0.0
 11
0.0
 21
0.0
 12
0.0
 22
0.0
 32
0.0
 14
0.0
 24
0.0
 34
0.0
 15
0.0
 25
0.0
 35
0.0
146
0.0
 13
0.0
 23
0.0
 33
0.0
 16
1.0
 26
0.0
 36
0.0
 17
0.0
 27
1.0
 37
0.0
 76
     0
330
23
  0
LAYOUT
  5
22
102
{ACAD_REACTORS
330
1A
102
}
330
1A
100
AcDbPlotSettings
  1

  2
none_device
  4

  6

 40
0.0
 41
0.0
 42
0.0
 43
0.0
 44
0.0
 45
0.0
 46
0.0
 47
0.0
 48
0.0
 49
0.0
140
0.0
141
0.0
142
1.0
143
1.0
 70
  1712
 72
     0
 73
     0
 74
     0
  7

 75
     0
 76
     0
 77
     2
 78
   300
147
1.0
148
0.0
149
0.0
100
AcDbLayout
  1
Model
 70
     1
 71
     0
 10
0.0
 20
0.0
 11
12.0
 21
9.0
 12
0.0
 22
0.0
 32
0.0
 14
1.000000000000000E+20
 24
1.000000000000000E+20
 34
1.000000000000000E+20
 15
-1.000000000000000E+20
 25
-1.000000000000000E+20
 35
-1.000000000000000E+20
146
0.0
 13
0.0
 23
0.0
 33
0.0
 16
1.0
 26
0.0
 36
0.0
 17
0.0
 27
1.0
 37
0.0
 76
     0
330
1F
331
29
  0
MATERIAL
  5
3D
102
{ACAD_REACTORS
330
3B
102
}
330
3B
100
AcDbMaterial
  1
ByBlock
 72
     1
 94
      127
  0
MATERIAL
  5
3C
102
{ACAD_REACTORS
330
3B
102
}
330
3B
100
AcDbMaterial
  1
ByLayer
 72
     1
 94
      127
  0
MATERIAL
  5
3E
102
{ACAD_REACTORS
330
3B
102
}
330
3B
100
AcDbMaterial
  1
Global
 72
     1
 94
      127
  0
MLINESTYLE
  5
18
102
{ACAD_REACTORS
330
17
102
}
330
17
100
AcDbMlineStyle
  2
Standard
 70
     0
  3

 62
   256
 51
90.0
 52
90.0
 71
     2
 49
0.5
 62
   256
  6
BYLAYER
 49
-0.5
 62
   256
  6
BYLAYER
  0
ACDBPLACEHOLDER
  5
F
102
{ACAD_REACTORS
330
E
102
}
330
E
  0
VISUALSTYLE
  5
2F
102
{ACAD_REACTORS
330
2A
102
}
330
2A
100
AcDbVisualStyle
  2
2dWireframe
 70
     4
177
     2
291
     0
 71
     0
176
     1
 72
     2
176
     1
 73
     0
176
     1
 90
        0
176
     1
 40
-0.6
176
     1
 41
-30.0
176
     1
 62
     5
 63
     7
421
 16777215
176
     1
 74
     1
176
     1
 91
        4
176
     1
 64
     7
176
     1
 65
   257
176
     1
 75
     1
176
     1
175
     1
176
     1
 42
1.0
176
     1
 92
        0
176
     1
 66
   257
176
     1
 43
1.0
176
     1
 76
     1
176
     1
 77
     6
176
     1
 78
     2
176
     1
 67
     7
176
     1
 79
     5
176
     1
170
     0
176
     1
171
     0
176
     1
290
     0
176
     1
 93
        1
176
     1
 44
0.0
176
     1
173
     0
176
     1
  0
VISUALSTYLE
  5
31
102
{ACAD_REACTORS
330
2A
102
}
330
2A
100
AcDbVisualStyle
  2
3D Hidden
 70
     6
177
     2
291
     0
 71
     1
176
     1
 72
     2
176
     1
 73
     2
176
     1
 90
        0
176
     1
 40
-0.6
176
     1
 41
-30.0
176
     1
 62
     5
 63
     7
421
 16777215
176
     1
 74
     2
176
     1
 91
        2
176
     1
 64
     7
176
     1
 65
   257
176
     1
 75
     2
176
     1
175
     1
176
     1
 42
40.0
176
     1
 92
        0
176
     1
 66
   257
176
     1
 43
1.0
176
     1
 76
     1
176
     1
 77
     6
176
     1
 78
     2
176
     1
 67
     7
176
     1
 79
     3
176
     1
170
     0
176
     1
171
     0
176
     1
290
     0
176
     1
 93
        1
176
     1
 44
0.0
176
     1
173
     0
176
     1
  0
VISUALSTYLE
  5
30
102
{ACAD_REACTORS
330
2A
102
}
330
2A
100
AcDbVisualStyle
  2
3dWireframe
 70
     5
177
     2
291
     0
 71
     0
176
     1
 72
     2
176
     1
 73
     0
176
     1
 90
        0
176
     1
 40
-0.6
176
     1
 41
-30.0
176
     1
 62
     5
 63
     7
421
 16777215
176
     1
 74
     1
176
     1
 91
        4
176
     1
 64
     7
176
     1
 65
   257
176
     1
 75
     1
176
     1
175
     1
176
     1
 42
1.0
176
     1
 92
        0
176
     1
 66
   257
176
     1
 43
1.0
176
     1
 76
     1
176
     1
 77
     6
176
     1
 78
     2
176
     1
 67
     7
176
     1
 79
     5
176
     1
170
     0
176
     1
171
     0
176
     1
290
     0
176
     1
 93
        1
176
     1
 44
0.0
176
     1
173
     0
176
     1
  0
VISUALSTYLE
  5
32
102
{ACAD_REACTORS
330
2A
102
}
330
2A
100
AcDbVisualStyle
  2
Basic
 70
     7
177
     2
291
     1
 71
     1
176
     1
 72
     0
176
     1
 73
     1
176
     1
 90
        0
176
     1
 40
-0.6
176
     1
 41
-30.0
176
     1
 62
     5
 63
     7
421
 16777215
176
     1
 74
     0
176
     1
 91
        4
176
     1
 64
     7
176
     1
 65
   257
176
     1
 75
     1
176
     1
175
     1
176
     1
 42
1.0
176
     1
 92
        8
176
     1
 66
     7
176
     1
 43
1.0
176
     1
 76
     1
176
     1
 77
     6
176
     1
 78
     2
176
     1
 67
     7
176
     1
 79
     5
176
     1
170
     0
176
     1
171
     0
176
     1
290
     0
176
     1
 93
        1
176
     1
 44
0.0
176
     1
173
     0
176
     1
  0
VISUALSTYLE
  5
36
102
{ACAD_REACTORS
330
2A
102
}
330
2A
100
AcDbVisualStyle
  2
Brighten
 70
    12
177
     2
291
     1
 71
     2
176
     1
 72
     2
176
     1
 73
     0
176
     1
 90
        0
176
     1
 40
-0.6
176
     1
 41
-30.0
176
     1
 62
     5
 63
     7
421
 16777215
176
     1
 74
     1
176
     1
 91
        4
176
     1
 64
     7
176
     1
 65
   257
176
     1
 75
     1
176
     1
175
     1
176
     1
 42
1.0
176
     1
 92
        8
176
     1
 66
     7
176
     1
 43
1.0
176
     1
 76
     1
176
     1
 77
     6
176
     1
 78
     2
176
     1
 67
     7
176
     1
 79
     5
176
     1
170
     0
176
     1
171
     0
176
     1
290
     0
176
     1
 93
        1
176
     1
 44
50.0
176
     1
173
     0
176
     1
  0
VISUALSTYLE
  5
3A
102
{ACAD_REACTORS
330
2A
102
}
330
2A
100
AcDbVisualStyle
  2
ColorChange
 70
    16
177
     2
291
     1
 71
     2
176
     1
 72
     2
176
     1
 73
     3
176
     1
 90
        0
176
     1
 40
-0.6
176
     1
 41
-30.0
176
     1
 62
     5
 63
     8
421
  8421504
176
     1
 74
     1
176
     1
 91
        4
176
     1
 64
     7
176
     1
 65
   257
176
     1
 75
     1
176
     1
175
     1
176
     1
 42
1.0
176
     1
 92
        8
176
     1
 66
     8
424
  8421504
176
     1
 43
1.0
176
     1
 76
     1
176
     1
 77
     6
176
     1
 78
     2
176
     1
 67
     7
176
     1
 79
     5
176
     1
170
     0
176
     1
171
     0
176
     1
290
     0
176
     1
 93
        1
176
     1
 44
0.0
176
     1
173
     0
176
     1
  0
VISUALSTYLE
  5
34
102
{ACAD_REACTORS
330
2A
102
}
330
2A
100
AcDbVisualStyle
  2
Conceptual
 70
     9
177
     2
291
     0
 71
     3
176
     1
 72
     2
176
     1
 73
     0
176
     1
 90
        0
176
     1
 40
-0.6
176
     1
 41
-30.0
176
     1
 62
     5
 63
     7
421
 16777215
176
     1
 74
     2
176
     1
 91
        2
176
     1
 64
     7
176
     1
 65
   257
176
     1
 75
     1
176
     1
175
     1
176
     1
 42
40.0
176
     1
 92
        8
176
     1
 66
     7
176
     1
 43
1.0
176
     1
 76
     1
176
     1
 77
     6
176
     1
 78
     2
176
     1
 67
     7
176
     1
 79
     3
176
     1
170
     0
176
     1
171
     0
176
     1
290
     0
176
     1
 93
        1
176
     1
 44
0.0
176
     1
173
     0
176
     1
  0
VISUALSTYLE
  5
35
102
{ACAD_REACTORS
330
2A
102
}
330
2A
100
AcDbVisualStyle
  2
Dim
 70
    11
177
     2
291
     1
 71
     2
176
     1
 72
     2
176
     1
 73
     0
176
     1
 90
        0
176
     1
 40
-0.6
176
     1
 41
-30.0
176
     1
 62
     5
 63
     7
421
 16777215
176
     1
 74
     1
176
     1
 91
        4
176
     1
 64
     7
176
     1
 65
   257
176
     1
 75
     1
176
     1
175
     1
176
     1
 42
1.0
176
     1
 92
        8
176
     1
 66
     7
176
     1
 43
1.0
176
     1
 76
     1
176
     1
 77
     6
176
     1
 78
     2
176
     1
 67
     7
176
     1
 79
     5
176
     1
170
     0
176
     1
171
     0
176
     1
290
     0
176
     1
 93
        1
176
     1
 44
-50.0
176
     1
173
     0
176
     1
  0
VISUALSTYLE
  5
39
102
{ACAD_REACTORS
330
2A
102
}
330
2A
100
AcDbVisualStyle
  2
Facepattern
 70
    15
177
     2
291
     1
 71
     2
176
     1
 72
     2
176
     1
 73
     0
176
     1
 90
        0
176
     1
 40
-0.6
176
     1
 41
-30.0
176
     1
 62
     5
 63
     7
421
 16777215
176
     1
 74
     1
176
     1
 91
        4
176
     1
 64
     7
176
     1
 65
   257
176
     1
 75
     1
176
     1
175
     1
176
     1
 42
1.0
176
     1
 92
        8
176
     1
 66
     7
176
     1
 43
1.0
176
     1
 76
     1
176
     1
 77
     6
176
     1
 78
     2
176
     1
 67
     7
176
     1
 79
     5
176
     1
170
     0
176
     1
171
     0
176
     1
290
     0
176
     1
 93
        1
176
     1
 44
0.0
176
     1
173
     0
176
     1
  0
VISUALSTYLE
  5
2B
102
{ACAD_REACTORS
330
2A
102
}
330
2A
100
AcDbVisualStyle
  2
Flat
 70
     0
177
     2
291
     1
 71
     2
176
     1
 72
     1
176
     1
 73
     1
176
     1
 90
        2
176
     1
 40
-0.6
176
     1
 41
30.0
176
     1
 62
     5
 63
     7
421
 16777215
176
     1
 74
     0
176
     1
 91
        4
176
     1
 64
     7
176
     1
 65
   257
176
     1
 75
     1
176
     1
175
     1
176
     1
 42
1.0
176
     1
 92
        8
176
     1
 66
     7
176
     1
 43
1.0
176
     1
 76
     1
176
     1
 77
     6
176
     1
 78
     2
176
     1
 67
     7
176
     1
 79
     5
176
     1
170
     0
176
     1
171
     0
176
     1
290
     0
176
     1
 93
       13
176
     1
 44
0.0
176
     1
173
     0
176
     1
  0
VISUALSTYLE
  5
2C
102
{ACAD_REACTORS
330
2A
102
}
330
2A
100
AcDbVisualStyle
  2
FlatWithEdges
 70
     1
177
     2
291
     1
 71
     2
176
     1
 72
     1
176
     1
 73
     1
176
     1
 90
        2
176
     1
 40
-0.6
176
     1
 41
30.0
176
     1
 62
     5
 63
     7
421
 16777215
176
     1
 74
     1
176
     1
 91
        4
176
     1
 64
     7
176
     1
 65
   257
176
     1
 75
     1
176
     1
175
     1
176
     1
 42
1.0
176
     1
 92
        0
176
     1
 66
   257
176
     1
 43
1.0
176
     1
 76
     1
176
     1
 77
     6
176
     1
 78
     2
176
     1
 67
     7
176
     1
 79
     5
176
     1
170
     0
176
     1
171
     0
176
     1
290
     0
176
     1
 93
       13
176
     1
 44
0.0
176
     1
173
     0
176
     1
  0
VISUALSTYLE
  5
2D
102
{ACAD_REACTORS
330
2A
102
}
330
2A
100
AcDbVisualStyle
  2
Gouraud
 70
     2
177
     2
291
     1
 71
     2
176
     1
 72
     2
176
     1
 73
     1
176
     1
 90
        2
176
     1
 40
-0.6
176
     1
 41
30.0
176
     1
 62
     5
 63
     7
421
 16777215
176
     1
 74
     0
176
     1
 91
        4
176
     1
 64
     7
176
     1
 65
   257
176
     1
 75
     1
176
     1
175
     1
176
     1
 42
1.0
176
     1
 92
        0
176
     1
 66
     7
176
     1
 43
1.0
176
     1
 76
     1
176
     1
 77
     6
176
     1
 78
     2
176
     1
 67
     7
176
     1
 79
     5
176
     1
170
     0
176
     1
171
     0
176
     1
290
     0
176
     1
 93
       13
176
     1
 44
0.0
176
     1
173
     0
176
     1
  0
VISUALSTYLE
  5
2E
102
{ACAD_REACTORS
330
2A
102
}
330
2A
100
AcDbVisualStyle
  2
GouraudWithEdges
 70
     3
177
     2
291
     1
 71
     2
176
     1
 72
     2
176
     1
 73
     1
176
     1
 90
        2
176
     1
 40
-0.6
176
     1
 41
30.0
176
     1
 62
     5
 63
     7
421
 16777215
176
     1
 74
     1
176
     1
 91
        4
176
     1
 64
     7
176
     1
 65
   257
176
     1
 75
     1
176
     1
175
     1
176
     1
 42
1.0
176
     1
 92
        0
176
     1
 66
   257
176
     1
 43
1.0
176
     1
 76
     1
176
     1
 77
     6
176
     1
 78
     2
176
     1
 67
     7
176
     1
 79
     5
176
     1
170
     0
176
     1
171
     0
176
     1
290
     0
176
     1
 93
       13
176
     1
 44
0.0
176
     1
173
     0
176
     1
  0
VISUALSTYLE
  5
38
102
{ACAD_REACTORS
330
2A
102
}
330
2A
100
AcDbVisualStyle
  2
Linepattern
 70
    14
177
     2
291
     1
 71
     2
176
     1
 72
     2
176
     1
 73
     0
176
     1
 90
        0
176
     1
 40
-0.6
176
     1
 41
-30.0
176
     1
 62
     5
 63
     7
421
 16777215
176
     1
 74
     1
176
     1
 91
        4
176
     1
 64
     7
176
     1
 65
   257
176
     1
 75
     7
176
     1
175
     7
176
     1
 42
1.0
176
     1
 92
        8
176
     1
 66
     7
176
     1
 43
1.0
176
     1
 76
     1
176
     1
 77
     6
176
     1
 78
     2
176
     1
 67
     7
176
     1
 79
     5
176
     1
170
     0
176
     1
171
     0
176
     1
290
     0
176
     1
 93
        1
176
     1
 44
0.0
176
     1
173
     0
176
     1
  0
VISUALSTYLE
  5
33
102
{ACAD_REACTORS
330
2A
102
}
330
2A
100
AcDbVisualStyle
  2
Realistic
 70
     8
177
     2
291
     0
 71
     2
176
     1
 72
     2
176
     1
 73
     0
176
     1
 90
        0
176
     1
 40
-0.6
176
     1
 41
-30.0
176
     1
 62
     5
 63
     7
421
 16777215
176
     1
 74
     1
176
     1
 91
        0
176
     1
 64
     7
176
     1
 65
   257
176
     1
 75
     1
176
     1
175
     1
176
     1
 42
1.0
176
     1
 92
        8
176
     1
 66
     8
424
  7895160
176
     1
 43
1.0
176
     1
 76
     1
176
     1
 77
     6
176
     1
 78
     2
176
     1
 67
     7
176
     1
 79
     5
176
     1
170
     0
176
     1
171
     0
176
     1
290
     0
176
     1
 93
       13
176
     1
 44
0.0
176
     1
173
     0
176
     1
  0
VISUALSTYLE
  5
37
102
{ACAD_REACTORS
330
2A
102
}
330
2A
100
AcDbVisualStyle
  2
Thicken
 70
    13
177
     2
291
     1
 71
     2
176
     1
 72
     2
176
     1
 73
     0
176
     1
 90
        0
176
     1
 40
-0.6
176
     1
 41
-30.0
176
     1
 62
     5
 63
     7
421
 16777215
176
     1
 74
     1
176
     1
 91
        4
176
     1
 64
     7
176
     1
 65
   257
176
     1
 75
     1
176
     1
175
     1
176
     1
 42
1.0
176
     1
 92
       12
176
     1
 66
     7
176
     1
 43
1.0
176
     1
 76
     1
176
     1
 77
     6
176
     1
 78
     2
176
     1
 67
     7
176
     1
 79
     5
176
     1
170
     0
176
     1
171
     0
176
     1
290
     0
176
     1
 93
        1
176
     1
 44
0.0
176
     1
173
     0
176
     1
  0
ENDSEC
  0
EOF
