  0
SECTION
  2
HEADER
  9
$ACADVER
  1
AC1012
  9
$DWGCODEPAGE
  3
ansi_949
  9
$INSBASE
 10
0.0
 20
0.0
 30
0.0
  9
$EXTMIN
 10
1.000000000000000E+20
 20
1.000000000000000E+20
 30
1.000000000000000E+20
  9
$EXTMAX
 10
-1.000000000000000E+20
 20
-1.000000000000000E+20
 30
-1.000000000000000E+20
  9
$LIMMIN
 10
0.0
 20
0.0
  9
$LIMMAX
 10
12.0
 20
9.0
  9
$ORTHOMODE
 70
     0
  9
$REGENMODE
 70
     1
  9
$FILLMODE
 70
     1
  9
$QTEXTMODE
 70
     0
  9
$MIRRTEXT
 70
     1
  9
$DRAGMODE
 70
     2
  9
$LTSCALE
 40
1.0
  9
$OSMODE
 70
    37
  9
$ATTMODE
 70
     1
  9
$TEXTSIZE
 40
0.2
  9
$TRACEWID
 40
0.05
  9
$TEXTSTYLE
  7
STANDARD
  9
$CLAYER
  8
0
  9
$CELTYPE
  6
BYLAYER
  9
$CECOLOR
 62
   256
  9
$CELTSCALE
 40
1.0
  9
$DELOBJ
 70
     1
  9
$DISPSILH
 70
     0
  9
$DIMSCALE
 40
1.0
  9
$DIMASZ
 40
0.18
  9
$DIMEXO
 40
0.0625
  9
$DIMDLI
 40
0.38
  9
$DIMRND
 40
0.0
  9
$DIMDLE
 40
0.0
  9
$DIMEXE
 40
0.18
  9
$DIMTP
 40
0.0
  9
$DIMTM
 40
0.0
  9
$DIMTXT
 40
0.18
  9
$DIMCEN
 40
0.09
  9
$DIMTSZ
 40
0.0
  9
$DIMTOL
 70
     0
  9
$DIMLIM
 70
     0
  9
$DIMTIH
 70
     1
  9
$DIMTOH
 70
     1
  9
$DIMSE1
 70
     0
  9
$DIMSE2
 70
     0
  9
$DIMTAD
 70
     0
  9
$DIMZIN
 70
     0
  9
$DIMBLK
  1

  9
$DIMASO
 70
     1
  9
$DIMSHO
 70
     1
  9
$DIMPOST
  1

  9
$DIMAPOST
  1

  9
$DIMALT
 70
     0
  9
$DIMALTD
 70
     2
  9
$DIMALTF
 40
25.4
  9
$DIMLFAC
 40
1.0
  9
$DIMTOFL
 70
     0
  9
$DIMTVP
 40
0.0
  9
$DIMTIX
 70
     0
  9
$DIMSOXD
 70
     0
  9
$DIMSAH
 70
     0
  9
$DIMBLK1
  1

  9
$DIMBLK2
  1

  9
$DIMSTYLE
  2
STANDARD
  9
$DIMCLRD
 70
     0
  9
$DIMCLRE
 70
     0
  9
$DIMCLRT
 70
     0
  9
$DIMTFAC
 40
1.0
  9
$DIMGAP
 40
0.09
  9
$DIMJUST
 70
     0
  9
$DIMSD1
 70
     0
  9
$DIMSD2
 70
     0
  9
$DIMTOLJ
 70
     1
  9
$DIMTZIN
 70
     0
  9
$DIMALTZ
 70
     0
  9
$DIMALTTZ
 70
     0
  9
$DIMFIT
 70
     3
  9
$DIMUPT
 70
     0
  9
$DIMUNIT
 70
     2
  9
$DIMDEC
 70
     4
  9
$DIMTDEC
 70
     4
  9
$DIMALTU
 70
     2
  9
$DIMALTTD
 70
     2
  9
$DIMTXSTY
  7
STANDARD
  9
$DIMAUNIT
 70
     0
  9
$LUNITS
 70
     2
  9
$LUPREC
 70
     4
  9
$SKETCHINC
 40
0.1
  9
$FILLETRAD
 40
0.5
  9
$AUNITS
 70
     0
  9
$AUPREC
 70
     0
  9
$MENU
  1
.
  9
$ELEVATION
 40
0.0
  9
$PELEVATION
 40
0.0
  9
$THICKNESS
 40
0.0
  9
$LIMCHECK
 70
     0
  9
$CHAMFERA
 40
0.5
  9
$CHAMFERB
 40
0.5
  9
$CHAMFERC
 40
1.0
  9
$CHAMFERD
 40
0.0
  9
$SKPOLY
 70
     0
  9
$TDCREATE
 40
2458984.483582014
  9
$TDUPDATE
 40
2458984.483582407
  9
$TDINDWG
 40
0.0000000116
  9
$TDUSRTIMER
 40
0.0000000116
  9
$USRTIMER
 70
     1
  9
$ANGBASE
 50
0.0
  9
$ANGDIR
 70
     0
  9
$PDMODE
 70
     0
  9
$PDSIZE
 40
0.0
  9
$PLINEWID
 40
0.0
  9
$COORDS
 70
     1
  9
$SPLFRAME
 70
     0
  9
$SPLINETYPE
 70
     6
  9
$SPLINESEGS
 70
     8
  9
$ATTDIA
 70
     0
  9
$ATTREQ
 70
     1
  9
$HANDLING
 70
     1
  9
$HANDSEED
  5
94F
  9
$SURFTAB1
 70
     6
  9
$SURFTAB2
 70
     6
  9
$SURFTYPE
 70
     6
  9
$SURFU
 70
     6
  9
$SURFV
 70
     6
  9
$UCSNAME
  2

  9
$UCSORG
 10
0.0
 20
0.0
 30
0.0
  9
$UCSXDIR
 10
1.0
 20
0.0
 30
0.0
  9
$UCSYDIR
 10
0.0
 20
1.0
 30
0.0
  9
$PUCSNAME
  2

  9
$PUCSORG
 10
0.0
 20
0.0
 30
0.0
  9
$PUCSXDIR
 10
1.0
 20
0.0
 30
0.0
  9
$PUCSYDIR
 10
0.0
 20
1.0
 30
0.0
  9
$USERI1
 70
     0
  9
$USERI2
 70
     0
  9
$USERI3
 70
     0
  9
$USERI4
 70
     0
  9
$USERI5
 70
     0
  9
$USERR1
 40
0.0
  9
$USERR2
 40
0.0
  9
$USERR3
 40
0.0
  9
$USERR4
 40
0.0
  9
$USERR5
 40
0.0
  9
$WORLDVIEW
 70
     1
  9
$SHADEDGE
 70
     3
  9
$SHADEDIF
 70
    70
  9
$TILEMODE
 70
     1
  9
$MAXACTVP
 70
    64
  9
$PINSBASE
 10
0.0
 20
0.0
 30
0.0
  9
$PLIMCHECK
 70
     0
  9
$PEXTMIN
 10
1.000000000000000E+20
 20
1.000000000000000E+20
 30
1.000000000000000E+20
  9
$PEXTMAX
 10
-1.000000000000000E+20
 20
-1.000000000000000E+20
 30
-1.000000000000000E+20
  9
$PLIMMIN
 10
0.0
 20
0.0
  9
$PLIMMAX
 10
12.0
 20
9.0
  9
$UNITMODE
 70
     0
  9
$VISRETAIN
 70
     1
  9
$PLINEGEN
 70
     0
  9
$PSLTSCALE
 70
     1
  9
$TREEDEPTH
 70
  3020
  9
$PICKSTYLE
 70
     1
  9
$CMLSTYLE
  2
STANDARD
  9
$CMLJUST
 70
     0
  9
$CMLSCALE
 40
1.0
  9
$SAVEIMAGES
 70
     1
  0
ENDSEC
  0
SECTION
  2
CLASSES
  0
CLASS
  1
ACDBDICTIONARYWDFLT
  2
AcDbDictionaryWithDefault
  3
ObjectDBX Classes
 90
    32768
280
     0
281
     0
  0
CLASS
  1
VISUALSTYLE
  2
AcDbVisualStyle
  3
ObjectDBX Classes
 90
     4095
280
     0
281
     0
  0
CLASS
  1
MATERIAL
  2
AcDbMaterial
  3
ObjectDBX Classes
 90
     1153
280
     0
281
     0
  0
CLASS
  1
SUN
  2
AcDbSun
  3
SCENEOE
 90
     1024
280
     0
281
     0
  0
CLASS
  1
DICTIONARYVAR
  2
AcDbDictionaryVar
  3
ObjectDBX Classes
 90
        0
280
     0
281
     0
  0
CLASS
  1
XRECORD
  2
AcDbXrecord
  3
AutoCAD 2000
 90
    32768
280
     0
281
     0
  0
CLASS
  1
LWPOLYLINE
  2
AcDbPolyline
  3
AutoCAD 2000
 90
    32768
280
     0
281
     1
  0
CLASS
  1
HATCH
  2
AcDbHatch
  3
AutoCAD 2000
 90
    32768
280
     0
281
     1
  0
CLASS
  1
ACDBPLACEHOLDER
  2
AcDbPlaceHolder
  3
ObjectDBX Classes
 90
        0
280
     0
281
     0
  0
CLASS
  1
LAYOUT
  2
AcDbLayout
  3
ObjectDBX Classes
 90
        0
280
     0
281
     0
  0
ENDSEC
  0
SECTION
  2
TABLES
  0
TABLE
  2
VPORT
  5
8
330
0
100
AcDbSymbolTable
 70
     1
  0
VPORT
  5
29
330
8
100
AcDbSymbolTableRecord
100
AcDbViewportTableRecord
  2
*ACTIVE
 70
     0
 10
0.0
 20
0.0
 11
1.0
 21
1.0
 12
0.0
 22
0.0
 13
0.0
 23
0.0
 14
0.5
 24
0.5
 15
0.5
 25
0.5
 16
0.0
 26
0.0
 36
1.0
 17
449.9999998874991
 27
449.9999998874991
 37
0.0
 40
899.9999997749982
 41
1.0
 42
50.0
 43
0.0
 44
0.0
 50
0.0
 51
0.0
 71
     0
 72
   100
 73
     1
 74
     3
 75
     0
 76
     0
 77
     0
 78
     0
  0
ENDTAB
  0
TABLE
  2
LTYPE
  5
5
330
0
100
AcDbSymbolTable
 70
     1
  0
LTYPE
  5
14
330
5
100
AcDbSymbolTableRecord
100
AcDbLinetypeTableRecord
  2
BYBLOCK
 70
     0
  3

 72
    65
 73
     0
 40
0.0
  0
LTYPE
  5
15
330
5
100
AcDbSymbolTableRecord
100
AcDbLinetypeTableRecord
  2
BYLAYER
 70
     0
  3

 72
    65
 73
     0
 40
0.0
  0
LTYPE
  5
16
330
5
100
AcDbSymbolTableRecord
100
AcDbLinetypeTableRecord
  2
CONTINUOUS
 70
     0
  3
Solid line
 72
    65
 73
     0
 40
0.0
  0
ENDTAB
  0
TABLE
  2
LAYER
  5
2
330
0
100
AcDbSymbolTable
 70
     1
  0
LAYER
  5
10
330
2
100
AcDbSymbolTableRecord
100
AcDbLayerTableRecord
  2
0
 70
     0
 62
     7
  6
CONTINUOUS
  0
ENDTAB
  0
TABLE
  2
STYLE
  5
3
330
0
100
AcDbSymbolTable
 70
     1
  0
STYLE
  5
11
330
3
100
AcDbSymbolTableRecord
100
AcDbTextStyleTableRecord
  2
STANDARD
 70
     0
 40
0.0
 41
1.0
 50
0.0
 71
     0
 42
0.2
  3
txt
  4

  0
ENDTAB
  0
TABLE
  2
VIEW
  5
6
330
0
100
AcDbSymbolTable
 70
     0
  0
ENDTAB
  0
TABLE
  2
UCS
  5
7
330
0
100
AcDbSymbolTable
 70
     0
  0
ENDTAB
  0
TABLE
  2
APPID
  5
9
330
0
100
AcDbSymbolTable
 70
     1
  0
APPID
  5
12
330
9
100
AcDbSymbolTableRecord
100
AcDbRegAppTableRecord
  2
ACAD
 70
     0
  0
ENDTAB
  0
TABLE
  2
DIMSTYLE
  5
A
330
0
100
AcDbSymbolTable
 70
     1
  0
DIMSTYLE
105
27
330
A
100
AcDbSymbolTableRecord
100
AcDbDimStyleTableRecord
  2
STANDARD
 70
     0
  3

  4

  5

  6

  7

 40
1.0
 41
0.18
 42
0.0625
 43
0.38
 44
0.18
 45
0.0
 46
0.0
 47
0.0
 48
0.0
140
0.18
141
0.09
142
0.0
143
25.4
144
1.0
145
0.0
146
1.0
147
0.09
 71
     0
 72
     0
 73
     1
 74
     1
 75
     0
 76
     0
 77
     0
 78
     0
170
     0
171
     2
172
     0
173
     0
174
     0
175
     0
176
     0
177
     0
178
     0
270
     2
271
     4
272
     4
273
     2
274
     2
340
11
275
     0
280
     0
281
     0
282
     0
283
     1
284
     0
285
     0
286
     0
287
     3
288
     0
  0
ENDTAB
  0
TABLE
  2
BLOCK_RECORD
  5
1
330
0
100
AcDbSymbolTable
 70
   286
  0
BLOCK_RECORD
  5
1F
330
1
100
AcDbSymbolTableRecord
100
AcDbBlockTableRecord
  2
*MODEL_SPACE
  0
BLOCK_RECORD
  5
1B
330
1
100
AcDbSymbolTableRecord
100
AcDbBlockTableRecord
  2
*PAPER_SPACE
  0
BLOCK_RECORD
  5
40
330
1
100
AcDbSymbolTableRecord
100
AcDbBlockTableRecord
  2
BLOCK_2
  0
BLOCK_RECORD
  5
4B
330
1
100
AcDbSymbolTableRecord
100
AcDbBlockTableRecord
  2
BLOCK_3
  0
BLOCK_RECORD
  5
50
330
1
100
AcDbSymbolTableRecord
100
AcDbBlockTableRecord
  2
BLOCK_4
  0
BLOCK_RECORD
  5
55
330
1
100
AcDbSymbolTableRecord
100
AcDbBlockTableRecord
  2
BLOCK_5
  0
BLOCK_RECORD
  5
5A
330
1
100
AcDbSymbolTableRecord
100
AcDbBlockTableRecord
  2
BLOCK_6
  0
BLOCK_RECORD
  5
5F
330
1
100
AcDbSymbolTableRecord
100
AcDbBlockTableRecord
  2
BLOCK_7
  0
BLOCK_RECORD
  5
64
330
1
100
AcDbSymbolTableRecord
100
AcDbBlockTableRecord
  2
BLOCK_8
  0
BLOCK_RECORD
  5
69
330
1
100
AcDbSymbolTableRecord
100
AcDbBlockTableRecord
  2
BLOCK_9
  0
BLOCK_RECORD
  5
6E
330
1
100
AcDbSymbolTableRecord
100
AcDbBlockTableRecord
  2
BLOCK_10
  0
BLOCK_RECORD
  5
73
330
1
100
AcDbSymbolTableRecord
100
AcDbBlockTableRecord
  2
BLOCK_11
  0
BLOCK_RECORD
  5
78
330
1
100
AcDbSymbolTableRecord
100
AcDbBlockTableRecord
  2
BLOCK_12
  0
BLOCK_RECORD
  5
83
330
1
100
AcDbSymbolTableRecord
100
AcDbBlockTableRecord
  2
BLOCK_13
  0
BLOCK_RECORD
  5
9A
330
1
100
AcDbSymbolTableRecord
100
AcDbBlockTableRecord
  2
BLOCK_14
  0
BLOCK_RECORD
  5
A2
330
1
100
AcDbSymbolTableRecord
100
AcDbBlockTableRecord
  2
BLOCK_15
  0
BLOCK_RECORD
  5
AA
330
1
100
AcDbSymbolTableRecord
100
AcDbBlockTableRecord
  2
BLOCK_16
  0
BLOCK_RECORD
  5
B2
330
1
100
AcDbSymbolTableRecord
100
AcDbBlockTableRecord
  2
BLOCK_17
  0
BLOCK_RECORD
  5
BA
330
1
100
AcDbSymbolTableRecord
100
AcDbBlockTableRecord
  2
BLOCK_18
  0
BLOCK_RECORD
  5
C2
330
1
100
AcDbSymbolTableRecord
100
AcDbBlockTableRecord
  2
BLOCK_19
  0
BLOCK_RECORD
  5
CA
330
1
100
AcDbSymbolTableRecord
100
AcDbBlockTableRecord
  2
BLOCK_20
  0
BLOCK_RECORD
  5
D2
330
1
100
AcDbSymbolTableRecord
100
AcDbBlockTableRecord
  2
BLOCK_21
  0
BLOCK_RECORD
  5
DA
330
1
100
AcDbSymbolTableRecord
100
AcDbBlockTableRecord
  2
BLOCK_22
  0
BLOCK_RECORD
  5
E2
330
1
100
AcDbSymbolTableRecord
100
AcDbBlockTableRecord
  2
BLOCK_23
  0
BLOCK_RECORD
  5
EA
330
1
100
AcDbSymbolTableRecord
100
AcDbBlockTableRecord
  2
BLOCK_24
  0
BLOCK_RECORD
  5
F2
330
1
100
AcDbSymbolTableRecord
100
AcDbBlockTableRecord
  2
BLOCK_25
  0
BLOCK_RECORD
  5
FA
330
1
100
AcDbSymbolTableRecord
100
AcDbBlockTableRecord
  2
BLOCK_26
  0
BLOCK_RECORD
  5
102
330
1
100
AcDbSymbolTableRecord
100
AcDbBlockTableRecord
  2
BLOCK_27
  0
BLOCK_RECORD
  5
10A
330
1
100
AcDbSymbolTableRecord
100
AcDbBlockTableRecord
  2
BLOCK_28
  0
BLOCK_RECORD
  5
112
330
1
100
AcDbSymbolTableRecord
100
AcDbBlockTableRecord
  2
BLOCK_29
  0
BLOCK_RECORD
  5
11A
330
1
100
AcDbSymbolTableRecord
100
AcDbBlockTableRecord
  2
BLOCK_30
  0
BLOCK_RECORD
  5
125
330
1
100
AcDbSymbolTableRecord
100
AcDbBlockTableRecord
  2
BLOCK_31
  0
BLOCK_RECORD
  5
12D
330
1
100
AcDbSymbolTableRecord
100
AcDbBlockTableRecord
  2
BLOCK_32
  0
BLOCK_RECORD
  5
135
330
1
100
AcDbSymbolTableRecord
100
AcDbBlockTableRecord
  2
BLOCK_33
  0
BLOCK_RECORD
  5
13D
330
1
100
AcDbSymbolTableRecord
100
AcDbBlockTableRecord
  2
BLOCK_34
  0
BLOCK_RECORD
  5
145
330
1
100
AcDbSymbolTableRecord
100
AcDbBlockTableRecord
  2
BLOCK_35
  0
BLOCK_RECORD
  5
14D
330
1
100
AcDbSymbolTableRecord
100
AcDbBlockTableRecord
  2
BLOCK_36
  0
BLOCK_RECORD
  5
155
330
1
100
AcDbSymbolTableRecord
100
AcDbBlockTableRecord
  2
BLOCK_37
  0
BLOCK_RECORD
  5
15D
330
1
100
AcDbSymbolTableRecord
100
AcDbBlockTableRecord
  2
BLOCK_38
  0
BLOCK_RECORD
  5
165
330
1
100
AcDbSymbolTableRecord
100
AcDbBlockTableRecord
  2
BLOCK_39
  0
BLOCK_RECORD
  5
16D
330
1
100
AcDbSymbolTableRecord
100
AcDbBlockTableRecord
  2
BLOCK_40
  0
BLOCK_RECORD
  5
175
330
1
100
AcDbSymbolTableRecord
100
AcDbBlockTableRecord
  2
BLOCK_41
  0
BLOCK_RECORD
  5
17D
330
1
100
AcDbSymbolTableRecord
100
AcDbBlockTableRecord
  2
BLOCK_42
  0
BLOCK_RECORD
  5
185
330
1
100
AcDbSymbolTableRecord
100
AcDbBlockTableRecord
  2
BLOCK_43
  0
BLOCK_RECORD
  5
18D
330
1
100
AcDbSymbolTableRecord
100
AcDbBlockTableRecord
  2
BLOCK_44
  0
BLOCK_RECORD
  5
195
330
1
100
AcDbSymbolTableRecord
100
AcDbBlockTableRecord
  2
BLOCK_45
  0
BLOCK_RECORD
  5
19D
330
1
100
AcDbSymbolTableRecord
100
AcDbBlockTableRecord
  2
BLOCK_46
  0
BLOCK_RECORD
  5
1A5
330
1
100
AcDbSymbolTableRecord
100
AcDbBlockTableRecord
  2
BLOCK_47
  0
BLOCK_RECORD
  5
1AD
330
1
100
AcDbSymbolTableRecord
100
AcDbBlockTableRecord
  2
BLOCK_48
  0
BLOCK_RECORD
  5
1B5
330
1
100
AcDbSymbolTableRecord
100
AcDbBlockTableRecord
  2
BLOCK_49
  0
BLOCK_RECORD
  5
1BD
330
1
100
AcDbSymbolTableRecord
100
AcDbBlockTableRecord
  2
BLOCK_50
  0
BLOCK_RECORD
  5
1C5
330
1
100
AcDbSymbolTableRecord
100
AcDbBlockTableRecord
  2
BLOCK_51
  0
BLOCK_RECORD
  5
1CD
330
1
100
AcDbSymbolTableRecord
100
AcDbBlockTableRecord
  2
BLOCK_52
  0
BLOCK_RECORD
  5
1D5
330
1
100
AcDbSymbolTableRecord
100
AcDbBlockTableRecord
  2
BLOCK_53
  0
BLOCK_RECORD
  5
1DD
330
1
100
AcDbSymbolTableRecord
100
AcDbBlockTableRecord
  2
BLOCK_54
  0
BLOCK_RECORD
  5
1E5
330
1
100
AcDbSymbolTableRecord
100
AcDbBlockTableRecord
  2
BLOCK_55
  0
BLOCK_RECORD
  5
1ED
330
1
100
AcDbSymbolTableRecord
100
AcDbBlockTableRecord
  2
BLOCK_56
  0
BLOCK_RECORD
  5
1F5
330
1
100
AcDbSymbolTableRecord
100
AcDbBlockTableRecord
  2
BLOCK_57
  0
BLOCK_RECORD
  5
1FD
330
1
100
AcDbSymbolTableRecord
100
AcDbBlockTableRecord
  2
BLOCK_58
  0
BLOCK_RECORD
  5
205
330
1
100
AcDbSymbolTableRecord
100
AcDbBlockTableRecord
  2
BLOCK_59
  0
BLOCK_RECORD
  5
20D
330
1
100
AcDbSymbolTableRecord
100
AcDbBlockTableRecord
  2
BLOCK_60
  0
BLOCK_RECORD
  5
215
330
1
100
AcDbSymbolTableRecord
100
AcDbBlockTableRecord
  2
BLOCK_61
  0
BLOCK_RECORD
  5
21D
330
1
100
AcDbSymbolTableRecord
100
AcDbBlockTableRecord
  2
BLOCK_62
  0
BLOCK_RECORD
  5
225
330
1
100
AcDbSymbolTableRecord
100
AcDbBlockTableRecord
  2
BLOCK_63
  0
BLOCK_RECORD
  5
22D
330
1
100
AcDbSymbolTableRecord
100
AcDbBlockTableRecord
  2
BLOCK_64
  0
BLOCK_RECORD
  5
235
330
1
100
AcDbSymbolTableRecord
100
AcDbBlockTableRecord
  2
BLOCK_65
  0
BLOCK_RECORD
  5
23D
330
1
100
AcDbSymbolTableRecord
100
AcDbBlockTableRecord
  2
BLOCK_66
  0
BLOCK_RECORD
  5
245
330
1
100
AcDbSymbolTableRecord
100
AcDbBlockTableRecord
  2
BLOCK_67
  0
BLOCK_RECORD
  5
24D
330
1
100
AcDbSymbolTableRecord
100
AcDbBlockTableRecord
  2
BLOCK_68
  0
BLOCK_RECORD
  5
255
330
1
100
AcDbSymbolTableRecord
100
AcDbBlockTableRecord
  2
BLOCK_69
  0
BLOCK_RECORD
  5
25D
330
1
100
AcDbSymbolTableRecord
100
AcDbBlockTableRecord
  2
BLOCK_70
  0
BLOCK_RECORD
  5
265
330
1
100
AcDbSymbolTableRecord
100
AcDbBlockTableRecord
  2
BLOCK_71
  0
BLOCK_RECORD
  5
26D
330
1
100
AcDbSymbolTableRecord
100
AcDbBlockTableRecord
  2
BLOCK_72
  0
BLOCK_RECORD
  5
275
330
1
100
AcDbSymbolTableRecord
100
AcDbBlockTableRecord
  2
BLOCK_73
  0
BLOCK_RECORD
  5
27D
330
1
100
AcDbSymbolTableRecord
100
AcDbBlockTableRecord
  2
BLOCK_74
  0
BLOCK_RECORD
  5
285
330
1
100
AcDbSymbolTableRecord
100
AcDbBlockTableRecord
  2
BLOCK_75
  0
BLOCK_RECORD
  5
28D
330
1
100
AcDbSymbolTableRecord
100
AcDbBlockTableRecord
  2
BLOCK_76
  0
BLOCK_RECORD
  5
295
330
1
100
AcDbSymbolTableRecord
100
AcDbBlockTableRecord
  2
BLOCK_77
  0
BLOCK_RECORD
  5
29D
330
1
100
AcDbSymbolTableRecord
100
AcDbBlockTableRecord
  2
BLOCK_78
  0
BLOCK_RECORD
  5
2A5
330
1
100
AcDbSymbolTableRecord
100
AcDbBlockTableRecord
  2
BLOCK_79
  0
BLOCK_RECORD
  5
2AD
330
1
100
AcDbSymbolTableRecord
100
AcDbBlockTableRecord
  2
BLOCK_80
  0
BLOCK_RECORD
  5
2B5
330
1
100
AcDbSymbolTableRecord
100
AcDbBlockTableRecord
  2
BLOCK_81
  0
BLOCK_RECORD
  5
2BD
330
1
100
AcDbSymbolTableRecord
100
AcDbBlockTableRecord
  2
BLOCK_82
  0
BLOCK_RECORD
  5
2C5
330
1
100
AcDbSymbolTableRecord
100
AcDbBlockTableRecord
  2
BLOCK_83
  0
BLOCK_RECORD
  5
2CD
330
1
100
AcDbSymbolTableRecord
100
AcDbBlockTableRecord
  2
BLOCK_84
  0
BLOCK_RECORD
  5
2D5
330
1
100
AcDbSymbolTableRecord
100
AcDbBlockTableRecord
  2
BLOCK_85
  0
BLOCK_RECORD
  5
2DD
330
1
100
AcDbSymbolTableRecord
100
AcDbBlockTableRecord
  2
BLOCK_86
  0
BLOCK_RECORD
  5
2E5
330
1
100
AcDbSymbolTableRecord
100
AcDbBlockTableRecord
  2
BLOCK_87
  0
BLOCK_RECORD
  5
2ED
330
1
100
AcDbSymbolTableRecord
100
AcDbBlockTableRecord
  2
BLOCK_88
  0
BLOCK_RECORD
  5
2F5
330
1
100
AcDbSymbolTableRecord
100
AcDbBlockTableRecord
  2
BLOCK_89
  0
BLOCK_RECORD
  5
2FD
330
1
100
AcDbSymbolTableRecord
100
AcDbBlockTableRecord
  2
BLOCK_90
  0
BLOCK_RECORD
  5
305
330
1
100
AcDbSymbolTableRecord
100
AcDbBlockTableRecord
  2
BLOCK_91
  0
BLOCK_RECORD
  5
30D
330
1
100
AcDbSymbolTableRecord
100
AcDbBlockTableRecord
  2
BLOCK_92
  0
BLOCK_RECORD
  5
315
330
1
100
AcDbSymbolTableRecord
100
AcDbBlockTableRecord
  2
BLOCK_93
  0
BLOCK_RECORD
  5
31D
330
1
100
AcDbSymbolTableRecord
100
AcDbBlockTableRecord
  2
BLOCK_94
  0
BLOCK_RECORD
  5
325
330
1
100
AcDbSymbolTableRecord
100
AcDbBlockTableRecord
  2
BLOCK_95
  0
BLOCK_RECORD
  5
32D
330
1
100
AcDbSymbolTableRecord
100
AcDbBlockTableRecord
  2
BLOCK_96
  0
BLOCK_RECORD
  5
335
330
1
100
AcDbSymbolTableRecord
100
AcDbBlockTableRecord
  2
BLOCK_97
  0
BLOCK_RECORD
  5
33D
330
1
100
AcDbSymbolTableRecord
100
AcDbBlockTableRecord
  2
BLOCK_98
  0
BLOCK_RECORD
  5
345
330
1
100
AcDbSymbolTableRecord
100
AcDbBlockTableRecord
  2
BLOCK_99
  0
BLOCK_RECORD
  5
34D
330
1
100
AcDbSymbolTableRecord
100
AcDbBlockTableRecord
  2
BLOCK_100
  0
BLOCK_RECORD
  5
355
330
1
100
AcDbSymbolTableRecord
100
AcDbBlockTableRecord
  2
BLOCK_101
  0
BLOCK_RECORD
  5
35D
330
1
100
AcDbSymbolTableRecord
100
AcDbBlockTableRecord
  2
BLOCK_102
  0
BLOCK_RECORD
  5
365
330
1
100
AcDbSymbolTableRecord
100
AcDbBlockTableRecord
  2
BLOCK_103
  0
BLOCK_RECORD
  5
36D
330
1
100
AcDbSymbolTableRecord
100
AcDbBlockTableRecord
  2
BLOCK_104
  0
BLOCK_RECORD
  5
375
330
1
100
AcDbSymbolTableRecord
100
AcDbBlockTableRecord
  2
BLOCK_105
  0
BLOCK_RECORD
  5
37D
330
1
100
AcDbSymbolTableRecord
100
AcDbBlockTableRecord
  2
BLOCK_106
  0
BLOCK_RECORD
  5
385
330
1
100
AcDbSymbolTableRecord
100
AcDbBlockTableRecord
  2
BLOCK_107
  0
BLOCK_RECORD
  5
38D
330
1
100
AcDbSymbolTableRecord
100
AcDbBlockTableRecord
  2
BLOCK_108
  0
BLOCK_RECORD
  5
395
330
1
100
AcDbSymbolTableRecord
100
AcDbBlockTableRecord
  2
BLOCK_109
  0
BLOCK_RECORD
  5
39D
330
1
100
AcDbSymbolTableRecord
100
AcDbBlockTableRecord
  2
BLOCK_110
  0
BLOCK_RECORD
  5
3A5
330
1
100
AcDbSymbolTableRecord
100
AcDbBlockTableRecord
  2
BLOCK_111
  0
BLOCK_RECORD
  5
3AD
330
1
100
AcDbSymbolTableRecord
100
AcDbBlockTableRecord
  2
BLOCK_112
  0
BLOCK_RECORD
  5
3B5
330
1
100
AcDbSymbolTableRecord
100
AcDbBlockTableRecord
  2
BLOCK_113
  0
BLOCK_RECORD
  5
3BD
330
1
100
AcDbSymbolTableRecord
100
AcDbBlockTableRecord
  2
BLOCK_114
  0
BLOCK_RECORD
  5
3C5
330
1
100
AcDbSymbolTableRecord
100
AcDbBlockTableRecord
  2
BLOCK_115
  0
BLOCK_RECORD
  5
3CD
330
1
100
AcDbSymbolTableRecord
100
AcDbBlockTableRecord
  2
BLOCK_116
  0
BLOCK_RECORD
  5
3D5
330
1
100
AcDbSymbolTableRecord
100
AcDbBlockTableRecord
  2
BLOCK_117
  0
BLOCK_RECORD
  5
3DD
330
1
100
AcDbSymbolTableRecord
100
AcDbBlockTableRecord
  2
BLOCK_118
  0
BLOCK_RECORD
  5
3E5
330
1
100
AcDbSymbolTableRecord
100
AcDbBlockTableRecord
  2
BLOCK_119
  0
BLOCK_RECORD
  5
3ED
330
1
100
AcDbSymbolTableRecord
100
AcDbBlockTableRecord
  2
BLOCK_120
  0
BLOCK_RECORD
  5
3F5
330
1
100
AcDbSymbolTableRecord
100
AcDbBlockTableRecord
  2
BLOCK_121
  0
BLOCK_RECORD
  5
3FD
330
1
100
AcDbSymbolTableRecord
100
AcDbBlockTableRecord
  2
BLOCK_122
  0
BLOCK_RECORD
  5
405
330
1
100
AcDbSymbolTableRecord
100
AcDbBlockTableRecord
  2
BLOCK_123
  0
BLOCK_RECORD
  5
40D
330
1
100
AcDbSymbolTableRecord
100
AcDbBlockTableRecord
  2
BLOCK_124
  0
BLOCK_RECORD
  5
415
330
1
100
AcDbSymbolTableRecord
100
AcDbBlockTableRecord
  2
BLOCK_125
  0
BLOCK_RECORD
  5
41D
330
1
100
AcDbSymbolTableRecord
100
AcDbBlockTableRecord
  2
BLOCK_126
  0
BLOCK_RECORD
  5
425
330
1
100
AcDbSymbolTableRecord
100
AcDbBlockTableRecord
  2
BLOCK_127
  0
BLOCK_RECORD
  5
42D
330
1
100
AcDbSymbolTableRecord
100
AcDbBlockTableRecord
  2
BLOCK_128
  0
BLOCK_RECORD
  5
435
330
1
100
AcDbSymbolTableRecord
100
AcDbBlockTableRecord
  2
BLOCK_129
  0
BLOCK_RECORD
  5
43D
330
1
100
AcDbSymbolTableRecord
100
AcDbBlockTableRecord
  2
BLOCK_130
  0
BLOCK_RECORD
  5
445
330
1
100
AcDbSymbolTableRecord
100
AcDbBlockTableRecord
  2
BLOCK_131
  0
BLOCK_RECORD
  5
450
330
1
100
AcDbSymbolTableRecord
100
AcDbBlockTableRecord
  2
BLOCK_132
  0
BLOCK_RECORD
  5
45B
330
1
100
AcDbSymbolTableRecord
100
AcDbBlockTableRecord
  2
BLOCK_133
  0
BLOCK_RECORD
  5
466
330
1
100
AcDbSymbolTableRecord
100
AcDbBlockTableRecord
  2
BLOCK_134
  0
BLOCK_RECORD
  5
471
330
1
100
AcDbSymbolTableRecord
100
AcDbBlockTableRecord
  2
BLOCK_135
  0
BLOCK_RECORD
  5
47C
330
1
100
AcDbSymbolTableRecord
100
AcDbBlockTableRecord
  2
BLOCK_136
  0
BLOCK_RECORD
  5
484
330
1
100
AcDbSymbolTableRecord
100
AcDbBlockTableRecord
  2
BLOCK_137
  0
BLOCK_RECORD
  5
48C
330
1
100
AcDbSymbolTableRecord
100
AcDbBlockTableRecord
  2
BLOCK_138
  0
BLOCK_RECORD
  5
494
330
1
100
AcDbSymbolTableRecord
100
AcDbBlockTableRecord
  2
BLOCK_139
  0
BLOCK_RECORD
  5
49C
330
1
100
AcDbSymbolTableRecord
100
AcDbBlockTableRecord
  2
BLOCK_140
  0
BLOCK_RECORD
  5
4A4
330
1
100
AcDbSymbolTableRecord
100
AcDbBlockTableRecord
  2
BLOCK_141
  0
BLOCK_RECORD
  5
4AF
330
1
100
AcDbSymbolTableRecord
100
AcDbBlockTableRecord
  2
BLOCK_142
  0
BLOCK_RECORD
  5
4BA
330
1
100
AcDbSymbolTableRecord
100
AcDbBlockTableRecord
  2
BLOCK_143
  0
BLOCK_RECORD
  5
4BF
330
1
100
AcDbSymbolTableRecord
100
AcDbBlockTableRecord
  2
BLOCK_144
  0
BLOCK_RECORD
  5
4C7
330
1
100
AcDbSymbolTableRecord
100
AcDbBlockTableRecord
  2
BLOCK_145
  0
BLOCK_RECORD
  5
4CF
330
1
100
AcDbSymbolTableRecord
100
AcDbBlockTableRecord
  2
BLOCK_146
  0
BLOCK_RECORD
  5
4D7
330
1
100
AcDbSymbolTableRecord
100
AcDbBlockTableRecord
  2
BLOCK_147
  0
BLOCK_RECORD
  5
4E2
330
1
100
AcDbSymbolTableRecord
100
AcDbBlockTableRecord
  2
BLOCK_148
  0
BLOCK_RECORD
  5
4ED
330
1
100
AcDbSymbolTableRecord
100
AcDbBlockTableRecord
  2
BLOCK_149
  0
BLOCK_RECORD
  5
4F5
330
1
100
AcDbSymbolTableRecord
100
AcDbBlockTableRecord
  2
BLOCK_150
  0
BLOCK_RECORD
  5
4FD
330
1
100
AcDbSymbolTableRecord
100
AcDbBlockTableRecord
  2
BLOCK_151
  0
BLOCK_RECORD
  5
505
330
1
100
AcDbSymbolTableRecord
100
AcDbBlockTableRecord
  2
BLOCK_152
  0
BLOCK_RECORD
  5
50D
330
1
100
AcDbSymbolTableRecord
100
AcDbBlockTableRecord
  2
BLOCK_153
  0
BLOCK_RECORD
  5
515
330
1
100
AcDbSymbolTableRecord
100
AcDbBlockTableRecord
  2
BLOCK_154
  0
BLOCK_RECORD
  5
51D
330
1
100
AcDbSymbolTableRecord
100
AcDbBlockTableRecord
  2
BLOCK_155
  0
BLOCK_RECORD
  5
525
330
1
100
AcDbSymbolTableRecord
100
AcDbBlockTableRecord
  2
BLOCK_156
  0
BLOCK_RECORD
  5
52D
330
1
100
AcDbSymbolTableRecord
100
AcDbBlockTableRecord
  2
BLOCK_157
  0
BLOCK_RECORD
  5
535
330
1
100
AcDbSymbolTableRecord
100
AcDbBlockTableRecord
  2
BLOCK_158
  0
BLOCK_RECORD
  5
53D
330
1
100
AcDbSymbolTableRecord
100
AcDbBlockTableRecord
  2
BLOCK_159
  0
BLOCK_RECORD
  5
545
330
1
100
AcDbSymbolTableRecord
100
AcDbBlockTableRecord
  2
BLOCK_160
  0
BLOCK_RECORD
  5
54D
330
1
100
AcDbSymbolTableRecord
100
AcDbBlockTableRecord
  2
BLOCK_161
  0
BLOCK_RECORD
  5
555
330
1
100
AcDbSymbolTableRecord
100
AcDbBlockTableRecord
  2
BLOCK_162
  0
BLOCK_RECORD
  5
560
330
1
100
AcDbSymbolTableRecord
100
AcDbBlockTableRecord
  2
BLOCK_163
  0
BLOCK_RECORD
  5
568
330
1
100
AcDbSymbolTableRecord
100
AcDbBlockTableRecord
  2
BLOCK_164
  0
BLOCK_RECORD
  5
570
330
1
100
AcDbSymbolTableRecord
100
AcDbBlockTableRecord
  2
BLOCK_165
  0
BLOCK_RECORD
  5
578
330
1
100
AcDbSymbolTableRecord
100
AcDbBlockTableRecord
  2
BLOCK_166
  0
BLOCK_RECORD
  5
580
330
1
100
AcDbSymbolTableRecord
100
AcDbBlockTableRecord
  2
BLOCK_167
  0
BLOCK_RECORD
  5
588
330
1
100
AcDbSymbolTableRecord
100
AcDbBlockTableRecord
  2
BLOCK_168
  0
BLOCK_RECORD
  5
590
330
1
100
AcDbSymbolTableRecord
100
AcDbBlockTableRecord
  2
BLOCK_169
  0
BLOCK_RECORD
  5
598
330
1
100
AcDbSymbolTableRecord
100
AcDbBlockTableRecord
  2
BLOCK_170
  0
BLOCK_RECORD
  5
5A0
330
1
100
AcDbSymbolTableRecord
100
AcDbBlockTableRecord
  2
BLOCK_171
  0
BLOCK_RECORD
  5
5A8
330
1
100
AcDbSymbolTableRecord
100
AcDbBlockTableRecord
  2
BLOCK_172
  0
BLOCK_RECORD
  5
5B0
330
1
100
AcDbSymbolTableRecord
100
AcDbBlockTableRecord
  2
BLOCK_173
  0
BLOCK_RECORD
  5
5B8
330
1
100
AcDbSymbolTableRecord
100
AcDbBlockTableRecord
  2
BLOCK_174
  0
BLOCK_RECORD
  5
5C0
330
1
100
AcDbSymbolTableRecord
100
AcDbBlockTableRecord
  2
BLOCK_175
  0
BLOCK_RECORD
  5
5C8
330
1
100
AcDbSymbolTableRecord
100
AcDbBlockTableRecord
  2
BLOCK_176
  0
BLOCK_RECORD
  5
5D0
330
1
100
AcDbSymbolTableRecord
100
AcDbBlockTableRecord
  2
BLOCK_177
  0
BLOCK_RECORD
  5
5D8
330
1
100
AcDbSymbolTableRecord
100
AcDbBlockTableRecord
  2
BLOCK_178
  0
BLOCK_RECORD
  5
5E0
330
1
100
AcDbSymbolTableRecord
100
AcDbBlockTableRecord
  2
BLOCK_179
  0
BLOCK_RECORD
  5
5E8
330
1
100
AcDbSymbolTableRecord
100
AcDbBlockTableRecord
  2
BLOCK_180
  0
BLOCK_RECORD
  5
5F0
330
1
100
AcDbSymbolTableRecord
100
AcDbBlockTableRecord
  2
BLOCK_181
  0
BLOCK_RECORD
  5
5F8
330
1
100
AcDbSymbolTableRecord
100
AcDbBlockTableRecord
  2
BLOCK_182
  0
BLOCK_RECORD
  5
603
330
1
100
AcDbSymbolTableRecord
100
AcDbBlockTableRecord
  2
BLOCK_183
  0
BLOCK_RECORD
  5
60B
330
1
100
AcDbSymbolTableRecord
100
AcDbBlockTableRecord
  2
BLOCK_184
  0
BLOCK_RECORD
  5
613
330
1
100
AcDbSymbolTableRecord
100
AcDbBlockTableRecord
  2
BLOCK_185
  0
BLOCK_RECORD
  5
61B
330
1
100
AcDbSymbolTableRecord
100
AcDbBlockTableRecord
  2
BLOCK_186
  0
BLOCK_RECORD
  5
623
330
1
100
AcDbSymbolTableRecord
100
AcDbBlockTableRecord
  2
BLOCK_187
  0
BLOCK_RECORD
  5
62B
330
1
100
AcDbSymbolTableRecord
100
AcDbBlockTableRecord
  2
BLOCK_188
  0
BLOCK_RECORD
  5
633
330
1
100
AcDbSymbolTableRecord
100
AcDbBlockTableRecord
  2
BLOCK_189
  0
BLOCK_RECORD
  5
63B
330
1
100
AcDbSymbolTableRecord
100
AcDbBlockTableRecord
  2
BLOCK_190
  0
BLOCK_RECORD
  5
643
330
1
100
AcDbSymbolTableRecord
100
AcDbBlockTableRecord
  2
BLOCK_191
  0
BLOCK_RECORD
  5
64B
330
1
100
AcDbSymbolTableRecord
100
AcDbBlockTableRecord
  2
BLOCK_192
  0
BLOCK_RECORD
  5
653
330
1
100
AcDbSymbolTableRecord
100
AcDbBlockTableRecord
  2
BLOCK_193
  0
BLOCK_RECORD
  5
65B
330
1
100
AcDbSymbolTableRecord
100
AcDbBlockTableRecord
  2
BLOCK_194
  0
BLOCK_RECORD
  5
663
330
1
100
AcDbSymbolTableRecord
100
AcDbBlockTableRecord
  2
BLOCK_195
  0
BLOCK_RECORD
  5
66B
330
1
100
AcDbSymbolTableRecord
100
AcDbBlockTableRecord
  2
BLOCK_196
  0
BLOCK_RECORD
  5
673
330
1
100
AcDbSymbolTableRecord
100
AcDbBlockTableRecord
  2
BLOCK_197
  0
BLOCK_RECORD
  5
67B
330
1
100
AcDbSymbolTableRecord
100
AcDbBlockTableRecord
  2
BLOCK_198
  0
BLOCK_RECORD
  5
683
330
1
100
AcDbSymbolTableRecord
100
AcDbBlockTableRecord
  2
BLOCK_199
  0
BLOCK_RECORD
  5
68B
330
1
100
AcDbSymbolTableRecord
100
AcDbBlockTableRecord
  2
BLOCK_200
  0
BLOCK_RECORD
  5
693
330
1
100
AcDbSymbolTableRecord
100
AcDbBlockTableRecord
  2
BLOCK_201
  0
BLOCK_RECORD
  5
69B
330
1
100
AcDbSymbolTableRecord
100
AcDbBlockTableRecord
  2
BLOCK_202
  0
BLOCK_RECORD
  5
6A3
330
1
100
AcDbSymbolTableRecord
100
AcDbBlockTableRecord
  2
BLOCK_203
  0
BLOCK_RECORD
  5
6AB
330
1
100
AcDbSymbolTableRecord
100
AcDbBlockTableRecord
  2
BLOCK_204
  0
BLOCK_RECORD
  5
6B3
330
1
100
AcDbSymbolTableRecord
100
AcDbBlockTableRecord
  2
BLOCK_205
  0
BLOCK_RECORD
  5
6BB
330
1
100
AcDbSymbolTableRecord
100
AcDbBlockTableRecord
  2
BLOCK_206
  0
BLOCK_RECORD
  5
6C3
330
1
100
AcDbSymbolTableRecord
100
AcDbBlockTableRecord
  2
BLOCK_207
  0
BLOCK_RECORD
  5
6CB
330
1
100
AcDbSymbolTableRecord
100
AcDbBlockTableRecord
  2
BLOCK_208
  0
BLOCK_RECORD
  5
6D3
330
1
100
AcDbSymbolTableRecord
100
AcDbBlockTableRecord
  2
BLOCK_209
  0
BLOCK_RECORD
  5
6DB
330
1
100
AcDbSymbolTableRecord
100
AcDbBlockTableRecord
  2
BLOCK_210
  0
BLOCK_RECORD
  5
6E3
330
1
100
AcDbSymbolTableRecord
100
AcDbBlockTableRecord
  2
BLOCK_211
  0
BLOCK_RECORD
  5
6EB
330
1
100
AcDbSymbolTableRecord
100
AcDbBlockTableRecord
  2
BLOCK_212
  0
BLOCK_RECORD
  5
6F3
330
1
100
AcDbSymbolTableRecord
100
AcDbBlockTableRecord
  2
BLOCK_213
  0
BLOCK_RECORD
  5
6FB
330
1
100
AcDbSymbolTableRecord
100
AcDbBlockTableRecord
  2
BLOCK_214
  0
BLOCK_RECORD
  5
703
330
1
100
AcDbSymbolTableRecord
100
AcDbBlockTableRecord
  2
BLOCK_215
  0
BLOCK_RECORD
  5
70B
330
1
100
AcDbSymbolTableRecord
100
AcDbBlockTableRecord
  2
BLOCK_216
  0
BLOCK_RECORD
  5
713
330
1
100
AcDbSymbolTableRecord
100
AcDbBlockTableRecord
  2
BLOCK_217
  0
BLOCK_RECORD
  5
71B
330
1
100
AcDbSymbolTableRecord
100
AcDbBlockTableRecord
  2
BLOCK_218
  0
BLOCK_RECORD
  5
723
330
1
100
AcDbSymbolTableRecord
100
AcDbBlockTableRecord
  2
BLOCK_219
  0
BLOCK_RECORD
  5
72B
330
1
100
AcDbSymbolTableRecord
100
AcDbBlockTableRecord
  2
BLOCK_220
  0
BLOCK_RECORD
  5
733
330
1
100
AcDbSymbolTableRecord
100
AcDbBlockTableRecord
  2
BLOCK_221
  0
BLOCK_RECORD
  5
73B
330
1
100
AcDbSymbolTableRecord
100
AcDbBlockTableRecord
  2
BLOCK_222
  0
BLOCK_RECORD
  5
743
330
1
100
AcDbSymbolTableRecord
100
AcDbBlockTableRecord
  2
BLOCK_223
  0
BLOCK_RECORD
  5
74B
330
1
100
AcDbSymbolTableRecord
100
AcDbBlockTableRecord
  2
BLOCK_224
  0
BLOCK_RECORD
  5
753
330
1
100
AcDbSymbolTableRecord
100
AcDbBlockTableRecord
  2
BLOCK_225
  0
BLOCK_RECORD
  5
75B
330
1
100
AcDbSymbolTableRecord
100
AcDbBlockTableRecord
  2
BLOCK_226
  0
BLOCK_RECORD
  5
763
330
1
100
AcDbSymbolTableRecord
100
AcDbBlockTableRecord
  2
BLOCK_227
  0
BLOCK_RECORD
  5
76B
330
1
100
AcDbSymbolTableRecord
100
AcDbBlockTableRecord
  2
BLOCK_228
  0
BLOCK_RECORD
  5
773
330
1
100
AcDbSymbolTableRecord
100
AcDbBlockTableRecord
  2
BLOCK_229
  0
BLOCK_RECORD
  5
77B
330
1
100
AcDbSymbolTableRecord
100
AcDbBlockTableRecord
  2
BLOCK_230
  0
BLOCK_RECORD
  5
783
330
1
100
AcDbSymbolTableRecord
100
AcDbBlockTableRecord
  2
BLOCK_231
  0
BLOCK_RECORD
  5
78B
330
1
100
AcDbSymbolTableRecord
100
AcDbBlockTableRecord
  2
BLOCK_232
  0
BLOCK_RECORD
  5
793
330
1
100
AcDbSymbolTableRecord
100
AcDbBlockTableRecord
  2
BLOCK_233
  0
BLOCK_RECORD
  5
79B
330
1
100
AcDbSymbolTableRecord
100
AcDbBlockTableRecord
  2
BLOCK_234
  0
BLOCK_RECORD
  5
7A3
330
1
100
AcDbSymbolTableRecord
100
AcDbBlockTableRecord
  2
BLOCK_235
  0
BLOCK_RECORD
  5
7AB
330
1
100
AcDbSymbolTableRecord
100
AcDbBlockTableRecord
  2
BLOCK_236
  0
BLOCK_RECORD
  5
7B3
330
1
100
AcDbSymbolTableRecord
100
AcDbBlockTableRecord
  2
BLOCK_237
  0
BLOCK_RECORD
  5
7BB
330
1
100
AcDbSymbolTableRecord
100
AcDbBlockTableRecord
  2
BLOCK_238
  0
BLOCK_RECORD
  5
7C3
330
1
100
AcDbSymbolTableRecord
100
AcDbBlockTableRecord
  2
BLOCK_239
  0
BLOCK_RECORD
  5
7CB
330
1
100
AcDbSymbolTableRecord
100
AcDbBlockTableRecord
  2
BLOCK_240
  0
BLOCK_RECORD
  5
7D3
330
1
100
AcDbSymbolTableRecord
100
AcDbBlockTableRecord
  2
BLOCK_241
  0
BLOCK_RECORD
  5
7DB
330
1
100
AcDbSymbolTableRecord
100
AcDbBlockTableRecord
  2
BLOCK_242
  0
BLOCK_RECORD
  5
7E3
330
1
100
AcDbSymbolTableRecord
100
AcDbBlockTableRecord
  2
BLOCK_243
  0
BLOCK_RECORD
  5
7EB
330
1
100
AcDbSymbolTableRecord
100
AcDbBlockTableRecord
  2
BLOCK_244
  0
BLOCK_RECORD
  5
7F3
330
1
100
AcDbSymbolTableRecord
100
AcDbBlockTableRecord
  2
BLOCK_245
  0
BLOCK_RECORD
  5
7FB
330
1
100
AcDbSymbolTableRecord
100
AcDbBlockTableRecord
  2
BLOCK_246
  0
BLOCK_RECORD
  5
803
330
1
100
AcDbSymbolTableRecord
100
AcDbBlockTableRecord
  2
BLOCK_247
  0
BLOCK_RECORD
  5
80B
330
1
100
AcDbSymbolTableRecord
100
AcDbBlockTableRecord
  2
BLOCK_248
  0
BLOCK_RECORD
  5
813
330
1
100
AcDbSymbolTableRecord
100
AcDbBlockTableRecord
  2
BLOCK_249
  0
BLOCK_RECORD
  5
81B
330
1
100
AcDbSymbolTableRecord
100
AcDbBlockTableRecord
  2
BLOCK_250
  0
BLOCK_RECORD
  5
823
330
1
100
AcDbSymbolTableRecord
100
AcDbBlockTableRecord
  2
BLOCK_251
  0
BLOCK_RECORD
  5
82B
330
1
100
AcDbSymbolTableRecord
100
AcDbBlockTableRecord
  2
BLOCK_252
  0
BLOCK_RECORD
  5
833
330
1
100
AcDbSymbolTableRecord
100
AcDbBlockTableRecord
  2
BLOCK_253
  0
BLOCK_RECORD
  5
83B
330
1
100
AcDbSymbolTableRecord
100
AcDbBlockTableRecord
  2
BLOCK_254
  0
BLOCK_RECORD
  5
843
330
1
100
AcDbSymbolTableRecord
100
AcDbBlockTableRecord
  2
BLOCK_255
  0
BLOCK_RECORD
  5
84B
330
1
100
AcDbSymbolTableRecord
100
AcDbBlockTableRecord
  2
BLOCK_256
  0
BLOCK_RECORD
  5
853
330
1
100
AcDbSymbolTableRecord
100
AcDbBlockTableRecord
  2
BLOCK_257
  0
BLOCK_RECORD
  5
85B
330
1
100
AcDbSymbolTableRecord
100
AcDbBlockTableRecord
  2
BLOCK_258
  0
BLOCK_RECORD
  5
863
330
1
100
AcDbSymbolTableRecord
100
AcDbBlockTableRecord
  2
BLOCK_259
  0
BLOCK_RECORD
  5
86B
330
1
100
AcDbSymbolTableRecord
100
AcDbBlockTableRecord
  2
BLOCK_260
  0
BLOCK_RECORD
  5
873
330
1
100
AcDbSymbolTableRecord
100
AcDbBlockTableRecord
  2
BLOCK_261
  0
BLOCK_RECORD
  5
87B
330
1
100
AcDbSymbolTableRecord
100
AcDbBlockTableRecord
  2
BLOCK_262
  0
BLOCK_RECORD
  5
883
330
1
100
AcDbSymbolTableRecord
100
AcDbBlockTableRecord
  2
BLOCK_263
  0
BLOCK_RECORD
  5
88B
330
1
100
AcDbSymbolTableRecord
100
AcDbBlockTableRecord
  2
BLOCK_264
  0
BLOCK_RECORD
  5
893
330
1
100
AcDbSymbolTableRecord
100
AcDbBlockTableRecord
  2
BLOCK_265
  0
BLOCK_RECORD
  5
89B
330
1
100
AcDbSymbolTableRecord
100
AcDbBlockTableRecord
  2
BLOCK_266
  0
BLOCK_RECORD
  5
8A3
330
1
100
AcDbSymbolTableRecord
100
AcDbBlockTableRecord
  2
BLOCK_267
  0
BLOCK_RECORD
  5
8AB
330
1
100
AcDbSymbolTableRecord
100
AcDbBlockTableRecord
  2
BLOCK_268
  0
BLOCK_RECORD
  5
8B3
330
1
100
AcDbSymbolTableRecord
100
AcDbBlockTableRecord
  2
BLOCK_269
  0
BLOCK_RECORD
  5
8BB
330
1
100
AcDbSymbolTableRecord
100
AcDbBlockTableRecord
  2
BLOCK_270
  0
BLOCK_RECORD
  5
8C3
330
1
100
AcDbSymbolTableRecord
100
AcDbBlockTableRecord
  2
BLOCK_271
  0
BLOCK_RECORD
  5
8CB
330
1
100
AcDbSymbolTableRecord
100
AcDbBlockTableRecord
  2
BLOCK_272
  0
BLOCK_RECORD
  5
8D3
330
1
100
AcDbSymbolTableRecord
100
AcDbBlockTableRecord
  2
BLOCK_273
  0
BLOCK_RECORD
  5
8DB
330
1
100
AcDbSymbolTableRecord
100
AcDbBlockTableRecord
  2
BLOCK_274
  0
BLOCK_RECORD
  5
8E3
330
1
100
AcDbSymbolTableRecord
100
AcDbBlockTableRecord
  2
BLOCK_275
  0
BLOCK_RECORD
  5
8EB
330
1
100
AcDbSymbolTableRecord
100
AcDbBlockTableRecord
  2
BLOCK_276
  0
BLOCK_RECORD
  5
8F3
330
1
100
AcDbSymbolTableRecord
100
AcDbBlockTableRecord
  2
BLOCK_277
  0
BLOCK_RECORD
  5
8FB
330
1
100
AcDbSymbolTableRecord
100
AcDbBlockTableRecord
  2
BLOCK_278
  0
BLOCK_RECORD
  5
903
330
1
100
AcDbSymbolTableRecord
100
AcDbBlockTableRecord
  2
BLOCK_279
  0
BLOCK_RECORD
  5
90B
330
1
100
AcDbSymbolTableRecord
100
AcDbBlockTableRecord
  2
BLOCK_280
  0
BLOCK_RECORD
  5
913
330
1
100
AcDbSymbolTableRecord
100
AcDbBlockTableRecord
  2
BLOCK_281
  0
BLOCK_RECORD
  5
91B
330
1
100
AcDbSymbolTableRecord
100
AcDbBlockTableRecord
  2
BLOCK_282
  0
BLOCK_RECORD
  5
923
330
1
100
AcDbSymbolTableRecord
100
AcDbBlockTableRecord
  2
BLOCK_283
  0
BLOCK_RECORD
  5
92B
330
1
100
AcDbSymbolTableRecord
100
AcDbBlockTableRecord
  2
BLOCK_284
  0
BLOCK_RECORD
  5
933
330
1
100
AcDbSymbolTableRecord
100
AcDbBlockTableRecord
  2
BLOCK_285
  0
BLOCK_RECORD
  5
93B
330
1
100
AcDbSymbolTableRecord
100
AcDbBlockTableRecord
  2
BLOCK_286
  0
ENDTAB
  0
ENDSEC
  0
SECTION
  2
BLOCKS
  0
BLOCK
  5
20
330
1F
100
AcDbEntity
  8
0
100
AcDbBlockBegin
  2
*MODEL_SPACE
 70
     0
 10
0.0
 20
0.0
 30
0.0
  3
*MODEL_SPACE
  1

  0
ENDBLK
  5
21
330
1F
100
AcDbEntity
  8
0
100
AcDbBlockEnd
  0
BLOCK
  5
1C
330
1B
100
AcDbEntity
 67
     1
  8
0
100
AcDbBlockBegin
  2
*PAPER_SPACE
 70
     0
 10
0.0
 20
0.0
 30
0.0
  3
*PAPER_SPACE
  1

  0
ENDBLK
  5
1D
330
1B
100
AcDbEntity
 67
     1
  8
0
100
AcDbBlockEnd
  0
BLOCK
  5
42
330
40
100
AcDbEntity
  8
0
100
AcDbBlockBegin
  2
BLOCK_2
 70
     0
 10
0.0
 20
0.0
 30
0.0
  3
BLOCK_2
  1

  0
POLYLINE
  5
44
330
40
100
AcDbEntity
  8
0
 62
     7
100
AcDb2dPolyline
 66
     1
 10
0.0
 20
0.0
 30
0.0
  0
VERTEX
  5
45
330
44
100
AcDbEntity
  8
0
 62
     7
100
AcDbVertex
100
AcDb2dVertex
 10
370.7251884605832
 20
485.3208332207531
 30
0.0
  0
VERTEX
  5
46
330
44
100
AcDbEntity
  8
0
 62
     7
100
AcDbVertex
100
AcDb2dVertex
 10
170.7251884605832
 20
485.3208332207531
 30
0.0
  0
VERTEX
  5
47
330
44
100
AcDbEntity
  8
0
 62
     7
100
AcDbVertex
100
AcDb2dVertex
 10
170.7251884605832
 20
345.3208332207533
 30
0.0
  0
VERTEX
  5
48
330
44
100
AcDbEntity
  8
0
 62
     7
100
AcDbVertex
100
AcDb2dVertex
 10
370.7251884605832
 20
345.3208332207533
 30
0.0
  0
VERTEX
  5
49
330
44
100
AcDbEntity
  8
0
 62
     7
100
AcDbVertex
100
AcDb2dVertex
 10
370.7251884605832
 20
485.3208332207531
 30
0.0
  0
SEQEND
  5
4A
330
44
100
AcDbEntity
  8
0
 62
     7
  0
ENDBLK
  5
43
330
40
100
AcDbEntity
  8
0
100
AcDbBlockEnd
  0
BLOCK
  5
4D
330
4B
100
AcDbEntity
  8
0
100
AcDbBlockBegin
  2
BLOCK_3
 70
     0
 10
0.0
 20
0.0
 30
0.0
  3
BLOCK_3
  1

  0
SPLINE
  5
4F
330
4B
100
AcDbEntity
  8
0
 62
     7
100
AcDbSpline
210
0.0
220
0.0
230
1.0
 70
    11
 71
     3
 72
    20
 73
    16
 74
     0
 42
0.0000000001
 43
0.0000000001
 12
1.0
 22
0.0
 32
0.0
 13
1.0
 23
0.0
 33
0.0
 40
0.0
 40
0.0
 40
0.0
 40
0.0
 40
1.0
 40
1.0
 40
1.0
 40
2.0
 40
2.0
 40
2.0
 40
3.0
 40
3.0
 40
3.0
 40
4.0
 40
4.0
 40
4.0
 40
5.0
 40
5.0
 40
5.0
 40
5.0
 10
185.2250970135706
 20
361.3208514274324
 30
0.0
 10
185.2250970135706
 20
362.1492785645228
 30
0.0
 10
185.8966698988315
 20
362.8208514497837
 30
0.0
 10
186.7250970359223
 20
362.8208514497837
 30
0.0
 10
187.5535241730131
 20
362.8208514497837
 30
0.0
 10
188.225097058274
 20
362.1492785645228
 30
0.0
 10
188.225097058274
 20
361.3208514274324
 30
0.0
 10
188.225097058274
 20
360.4924242903413
 30
0.0
 10
187.5535241730131
 20
359.8208514050803
 30
0.0
 10
186.7250970359223
 20
359.8208514050803
 30
0.0
 10
185.8966698988315
 20
359.8208514050803
 30
0.0
 10
185.2250970135706
 20
360.4924242903413
 30
0.0
 10
185.2250970135706
 20
361.3208514274324
 30
0.0
 10
185.2250970135706
 20
361.3208514274324
 30
0.0
 10
185.2250970135706
 20
361.3208514274324
 30
0.0
 10
185.2250970135706
 20
361.3208514274324
 30
0.0
  0
ENDBLK
  5
4E
330
4B
100
AcDbEntity
  8
0
100
AcDbBlockEnd
  0
BLOCK
  5
52
330
50
100
AcDbEntity
  8
0
100
AcDbBlockBegin
  2
BLOCK_4
 70
     0
 10
0.0
 20
0.0
 30
0.0
  3
BLOCK_4
  1

  0
SPLINE
  5
54
330
50
100
AcDbEntity
  8
0
 62
     7
100
AcDbSpline
210
0.0
220
0.0
230
1.0
 70
    11
 71
     3
 72
    20
 73
    16
 74
     0
 42
0.0000000001
 43
0.0000000001
 12
1.0
 22
0.0
 32
0.0
 13
1.0
 23
0.0
 33
0.0
 40
0.0
 40
0.0
 40
0.0
 40
0.0
 40
1.0
 40
1.0
 40
1.0
 40
2.0
 40
2.0
 40
2.0
 40
3.0
 40
3.0
 40
3.0
 40
4.0
 40
4.0
 40
4.0
 40
5.0
 40
5.0
 40
5.0
 40
5.0
 10
185.2250970135706
 20
415.3208522320947
 30
0.0
 10
185.2250970135706
 20
416.1492793691858
 30
0.0
 10
185.8966698988315
 20
416.8208522544467
 30
0.0
 10
186.7250970359223
 20
416.8208522544467
 30
0.0
 10
187.5535241730131
 20
416.8208522544467
 30
0.0
 10
188.225097058274
 20
416.1492793691858
 30
0.0
 10
188.225097058274
 20
415.3208522320947
 30
0.0
 10
188.225097058274
 20
414.4924250950043
 30
0.0
 10
187.5535241730131
 20
413.8208522097433
 30
0.0
 10
186.7250970359223
 20
413.8208522097433
 30
0.0
 10
185.8966698988315
 20
413.8208522097433
 30
0.0
 10
185.2250970135706
 20
414.4924250950043
 30
0.0
 10
185.2250970135706
 20
415.3208522320947
 30
0.0
 10
185.2250970135706
 20
415.3208522320947
 30
0.0
 10
185.2250970135706
 20
415.3208522320947
 30
0.0
 10
185.2250970135706
 20
415.3208522320947
 30
0.0
  0
ENDBLK
  5
53
330
50
100
AcDbEntity
  8
0
100
AcDbBlockEnd
  0
BLOCK
  5
57
330
55
100
AcDbEntity
  8
0
100
AcDbBlockBegin
  2
BLOCK_5
 70
     0
 10
0.0
 20
0.0
 30
0.0
  3
BLOCK_5
  1

  0
SPLINE
  5
59
330
55
100
AcDbEntity
  8
0
 62
     7
100
AcDbSpline
210
0.0
220
0.0
230
1.0
 70
    11
 71
     3
 72
    20
 73
    16
 74
     0
 42
0.0000000001
 43
0.0000000001
 12
1.0
 22
0.0
 32
0.0
 13
1.0
 23
0.0
 33
0.0
 40
0.0
 40
0.0
 40
0.0
 40
0.0
 40
1.0
 40
1.0
 40
1.0
 40
2.0
 40
2.0
 40
2.0
 40
3.0
 40
3.0
 40
3.0
 40
4.0
 40
4.0
 40
4.0
 40
5.0
 40
5.0
 40
5.0
 40
5.0
 10
269.2250982652682
 20
469.3208530367573
 30
0.0
 10
269.2250982652682
 20
470.1492801738482
 30
0.0
 10
269.8966711505291
 20
470.8208530591091
 30
0.0
 10
270.7250982876199
 20
470.8208530591091
 30
0.0
 10
271.5535254247107
 20
470.8208530591091
 30
0.0
 10
272.2250983099716
 20
470.1492801738482
 30
0.0
 10
272.2250983099716
 20
469.3208530367573
 30
0.0
 10
272.2250983099716
 20
468.4924258996666
 30
0.0
 10
271.5535254247107
 20
467.8208530144057
 30
0.0
 10
270.7250982876199
 20
467.8208530144057
 30
0.0
 10
269.8966711505291
 20
467.8208530144057
 30
0.0
 10
269.2250982652682
 20
468.4924258996666
 30
0.0
 10
269.2250982652682
 20
469.3208530367573
 30
0.0
 10
269.2250982652682
 20
469.3208530367573
 30
0.0
 10
269.2250982652682
 20
469.3208530367573
 30
0.0
 10
269.2250982652682
 20
469.3208530367573
 30
0.0
  0
ENDBLK
  5
58
330
55
100
AcDbEntity
  8
0
100
AcDbBlockEnd
  0
BLOCK
  5
5C
330
5A
100
AcDbEntity
  8
0
100
AcDbBlockBegin
  2
BLOCK_6
 70
     0
 10
0.0
 20
0.0
 30
0.0
  3
BLOCK_6
  1

  0
SPLINE
  5
5E
330
5A
100
AcDbEntity
  8
0
 62
     7
100
AcDbSpline
210
0.0
220
0.0
230
1.0
 70
    11
 71
     3
 72
    20
 73
    16
 74
     0
 42
0.0000000001
 43
0.0000000001
 12
1.0
 22
0.0
 32
0.0
 13
1.0
 23
0.0
 33
0.0
 40
0.0
 40
0.0
 40
0.0
 40
0.0
 40
1.0
 40
1.0
 40
1.0
 40
2.0
 40
2.0
 40
2.0
 40
3.0
 40
3.0
 40
3.0
 40
4.0
 40
4.0
 40
4.0
 40
5.0
 40
5.0
 40
5.0
 40
5.0
 10
269.2250982652678
 20
361.3208514274324
 30
0.0
 10
269.2250982652678
 20
362.1492785645228
 30
0.0
 10
269.8966711505291
 20
362.8208514497837
 30
0.0
 10
270.7250982876196
 20
362.8208514497837
 30
0.0
 10
271.5535254247104
 20
362.8208514497837
 30
0.0
 10
272.2250983099716
 20
362.1492785645228
 30
0.0
 10
272.2250983099716
 20
361.3208514274324
 30
0.0
 10
272.2250983099716
 20
360.4924242903413
 30
0.0
 10
271.5535254247104
 20
359.8208514050803
 30
0.0
 10
270.7250982876196
 20
359.8208514050803
 30
0.0
 10
269.8966711505291
 20
359.8208514050803
 30
0.0
 10
269.2250982652678
 20
360.4924242903413
 30
0.0
 10
269.2250982652678
 20
361.3208514274324
 30
0.0
 10
269.2250982652678
 20
361.3208514274324
 30
0.0
 10
269.2250982652678
 20
361.3208514274324
 30
0.0
 10
269.2250982652678
 20
361.3208514274324
 30
0.0
  0
ENDBLK
  5
5D
330
5A
100
AcDbEntity
  8
0
100
AcDbBlockEnd
  0
BLOCK
  5
61
330
5F
100
AcDbEntity
  8
0
100
AcDbBlockBegin
  2
BLOCK_7
 70
     0
 10
0.0
 20
0.0
 30
0.0
  3
BLOCK_7
  1

  0
SPLINE
  5
63
330
5F
100
AcDbEntity
  8
0
 62
     7
100
AcDbSpline
210
0.0
220
0.0
230
1.0
 70
    11
 71
     3
 72
    20
 73
    16
 74
     0
 42
0.0000000001
 43
0.0000000001
 12
1.0
 22
0.0
 32
0.0
 13
1.0
 23
0.0
 33
0.0
 40
0.0
 40
0.0
 40
0.0
 40
0.0
 40
1.0
 40
1.0
 40
1.0
 40
2.0
 40
2.0
 40
2.0
 40
3.0
 40
3.0
 40
3.0
 40
4.0
 40
4.0
 40
4.0
 40
5.0
 40
5.0
 40
5.0
 40
5.0
 10
353.2250995169654
 20
469.3208530367573
 30
0.0
 10
353.2250995169654
 20
470.1492801738482
 30
0.0
 10
353.8966724022267
 20
470.8208530591091
 30
0.0
 10
354.7250995393171
 20
470.8208530591091
 30
0.0
 10
355.553526676408
 20
470.8208530591091
 30
0.0
 10
356.2250995616689
 20
470.1492801738482
 30
0.0
 10
356.2250995616689
 20
469.3208530367573
 30
0.0
 10
356.2250995616689
 20
468.4924258996666
 30
0.0
 10
355.553526676408
 20
467.8208530144057
 30
0.0
 10
354.7250995393171
 20
467.8208530144057
 30
0.0
 10
353.8966724022267
 20
467.8208530144057
 30
0.0
 10
353.2250995169654
 20
468.4924258996666
 30
0.0
 10
353.2250995169654
 20
469.3208530367573
 30
0.0
 10
353.2250995169654
 20
469.3208530367573
 30
0.0
 10
353.2250995169654
 20
469.3208530367573
 30
0.0
 10
353.2250995169654
 20
469.3208530367573
 30
0.0
  0
ENDBLK
  5
62
330
5F
100
AcDbEntity
  8
0
100
AcDbBlockEnd
  0
BLOCK
  5
66
330
64
100
AcDbEntity
  8
0
100
AcDbBlockBegin
  2
BLOCK_8
 70
     0
 10
0.0
 20
0.0
 30
0.0
  3
BLOCK_8
  1

  0
SPLINE
  5
68
330
64
100
AcDbEntity
  8
0
 62
     7
100
AcDbSpline
210
0.0
220
0.0
230
1.0
 70
    11
 71
     3
 72
    20
 73
    16
 74
     0
 42
0.0000000001
 43
0.0000000001
 12
1.0
 22
0.0
 32
0.0
 13
1.0
 23
0.0
 33
0.0
 40
0.0
 40
0.0
 40
0.0
 40
0.0
 40
1.0
 40
1.0
 40
1.0
 40
2.0
 40
2.0
 40
2.0
 40
3.0
 40
3.0
 40
3.0
 40
4.0
 40
4.0
 40
4.0
 40
5.0
 40
5.0
 40
5.0
 40
5.0
 10
353.2250995169654
 20
415.3208522320947
 30
0.0
 10
353.2250995169654
 20
416.1492793691852
 30
0.0
 10
353.8966724022263
 20
416.8208522544461
 30
0.0
 10
354.7250995393171
 20
416.8208522544461
 30
0.0
 10
355.553526676408
 20
416.8208522544461
 30
0.0
 10
356.2250995616689
 20
416.1492793691852
 30
0.0
 10
356.2250995616689
 20
415.3208522320947
 30
0.0
 10
356.2250995616689
 20
414.4924250950036
 30
0.0
 10
355.553526676408
 20
413.8208522097427
 30
0.0
 10
354.7250995393171
 20
413.8208522097427
 30
0.0
 10
353.8966724022263
 20
413.8208522097427
 30
0.0
 10
353.2250995169654
 20
414.4924250950036
 30
0.0
 10
353.2250995169654
 20
415.3208522320947
 30
0.0
 10
353.2250995169654
 20
415.3208522320947
 30
0.0
 10
353.2250995169654
 20
415.3208522320947
 30
0.0
 10
353.2250995169654
 20
415.3208522320947
 30
0.0
  0
ENDBLK
  5
67
330
64
100
AcDbEntity
  8
0
100
AcDbBlockEnd
  0
BLOCK
  5
6B
330
69
100
AcDbEntity
  8
0
100
AcDbBlockBegin
  2
BLOCK_9
 70
     0
 10
0.0
 20
0.0
 30
0.0
  3
BLOCK_9
  1

  0
SPLINE
  5
6D
330
69
100
AcDbEntity
  8
0
 62
     7
100
AcDbSpline
210
0.0
220
0.0
230
1.0
 70
    11
 71
     3
 72
    20
 73
    16
 74
     0
 42
0.0000000001
 43
0.0000000001
 12
1.0
 22
0.0
 32
0.0
 13
1.0
 23
0.0
 33
0.0
 40
0.0
 40
0.0
 40
0.0
 40
0.0
 40
1.0
 40
1.0
 40
1.0
 40
2.0
 40
2.0
 40
2.0
 40
3.0
 40
3.0
 40
3.0
 40
4.0
 40
4.0
 40
4.0
 40
5.0
 40
5.0
 40
5.0
 40
5.0
 10
353.2251001688842
 20
361.3208514274324
 30
0.0
 10
353.2251001688842
 20
362.1492782044783
 30
0.0
 10
353.8966727622712
 20
362.820850797865
 30
0.0
 10
354.7250995393171
 20
362.820850797865
 30
0.0
 10
355.5535263163631
 20
362.820850797865
 30
0.0
 10
356.2250989097501
 20
362.1492782044783
 30
0.0
 10
356.2250989097501
 20
361.3208514274324
 30
0.0
 10
356.2250989097501
 20
360.4924246503864
 30
0.0
 10
355.5535263163631
 20
359.8208520569991
 30
0.0
 10
354.7250995393171
 20
359.8208520569991
 30
0.0
 10
353.8966727622712
 20
359.8208520569991
 30
0.0
 10
353.2251001688842
 20
360.4924246503864
 30
0.0
 10
353.2251001688842
 20
361.3208514274324
 30
0.0
 10
353.2251001688842
 20
361.3208514274324
 30
0.0
 10
353.2251001688842
 20
361.3208514274324
 30
0.0
 10
353.2251001688842
 20
361.3208514274324
 30
0.0
  0
ENDBLK
  5
6C
330
69
100
AcDbEntity
  8
0
100
AcDbBlockEnd
  0
BLOCK
  5
70
330
6E
100
AcDbEntity
  8
0
100
AcDbBlockBegin
  2
BLOCK_10
 70
     0
 10
0.0
 20
0.0
 30
0.0
  3
BLOCK_10
  1

  0
SPLINE
  5
72
330
6E
100
AcDbEntity
  8
0
 62
     7
100
AcDbSpline
210
0.0
220
0.0
230
1.0
 70
    11
 71
     3
 72
    20
 73
    16
 74
     0
 42
0.0000000001
 43
0.0000000001
 12
1.0
 22
0.0
 32
0.0
 13
1.0
 23
0.0
 33
0.0
 40
0.0
 40
0.0
 40
0.0
 40
0.0
 40
1.0
 40
1.0
 40
1.0
 40
2.0
 40
2.0
 40
2.0
 40
3.0
 40
3.0
 40
3.0
 40
4.0
 40
4.0
 40
4.0
 40
5.0
 40
5.0
 40
5.0
 40
5.0
 10
353.2251001688842
 20
361.3208514274324
 30
0.0
 10
353.2251001688842
 20
362.1492782044783
 30
0.0
 10
353.8966727622712
 20
362.820850797865
 30
0.0
 10
354.7250995393171
 20
362.820850797865
 30
0.0
 10
355.5535263163631
 20
362.820850797865
 30
0.0
 10
356.2250989097501
 20
362.1492782044783
 30
0.0
 10
356.2250989097501
 20
361.3208514274324
 30
0.0
 10
356.2250989097501
 20
360.4924246503864
 30
0.0
 10
355.5535263163631
 20
359.8208520569991
 30
0.0
 10
354.7250995393171
 20
359.8208520569991
 30
0.0
 10
353.8966727622712
 20
359.8208520569991
 30
0.0
 10
353.2251001688842
 20
360.4924246503864
 30
0.0
 10
353.2251001688842
 20
361.3208514274324
 30
0.0
 10
353.2251001688842
 20
361.3208514274324
 30
0.0
 10
353.2251001688842
 20
361.3208514274324
 30
0.0
 10
353.2251001688842
 20
361.3208514274324
 30
0.0
  0
ENDBLK
  5
71
330
6E
100
AcDbEntity
  8
0
100
AcDbBlockEnd
  0
BLOCK
  5
75
330
73
100
AcDbEntity
  8
0
100
AcDbBlockBegin
  2
BLOCK_11
 70
     0
 10
0.0
 20
0.0
 30
0.0
  3
BLOCK_11
  1

  0
SPLINE
  5
77
330
73
100
AcDbEntity
  8
0
 62
     7
100
AcDbSpline
210
0.0
220
0.0
230
1.0
 70
    11
 71
     3
 72
    20
 73
    16
 74
     0
 42
0.0000000001
 43
0.0000000001
 12
1.0
 22
0.0
 32
0.0
 13
1.0
 23
0.0
 33
0.0
 40
0.0
 40
0.0
 40
0.0
 40
0.0
 40
1.0
 40
1.0
 40
1.0
 40
2.0
 40
2.0
 40
2.0
 40
3.0
 40
3.0
 40
3.0
 40
4.0
 40
4.0
 40
4.0
 40
5.0
 40
5.0
 40
5.0
 40
5.0
 10
185.2250970135706
 20
469.3208530367573
 30
0.0
 10
185.2250970135706
 20
470.1492801738482
 30
0.0
 10
185.8966698988318
 20
470.8208530591091
 30
0.0
 10
186.7250970359223
 20
470.8208530591091
 30
0.0
 10
187.5535241730131
 20
470.8208530591091
 30
0.0
 10
188.225097058274
 20
470.1492801738482
 30
0.0
 10
188.225097058274
 20
469.3208530367573
 30
0.0
 10
188.225097058274
 20
468.4924258996666
 30
0.0
 10
187.5535241730131
 20
467.8208530144057
 30
0.0
 10
186.7250970359223
 20
467.8208530144057
 30
0.0
 10
185.8966698988318
 20
467.8208530144057
 30
0.0
 10
185.2250970135706
 20
468.4924258996666
 30
0.0
 10
185.2250970135706
 20
469.3208530367573
 30
0.0
 10
185.2250970135706
 20
469.3208530367573
 30
0.0
 10
185.2250970135706
 20
469.3208530367573
 30
0.0
 10
185.2250970135706
 20
469.3208530367573
 30
0.0
  0
ENDBLK
  5
76
330
73
100
AcDbEntity
  8
0
100
AcDbBlockEnd
  0
BLOCK
  5
7A
330
78
100
AcDbEntity
  8
0
100
AcDbBlockBegin
  2
BLOCK_12
 70
     0
 10
0.0
 20
0.0
 30
0.0
  3
BLOCK_12
  1

  0
POLYLINE
  5
7C
330
78
100
AcDbEntity
  8
0
 62
     7
100
AcDb2dPolyline
 66
     1
 10
0.0
 20
0.0
 30
0.0
  0
VERTEX
  5
7D
330
7C
100
AcDbEntity
  8
0
 62
     7
100
AcDbVertex
100
AcDb2dVertex
 10
564.5391125084099
 20
347.534456905278
 30
0.0
  0
VERTEX
  5
7E
330
7C
100
AcDbEntity
  8
0
 62
     7
100
AcDbVertex
100
AcDb2dVertex
 10
384.53911250841
 20
347.534456905278
 30
0.0
  0
VERTEX
  5
7F
330
7C
100
AcDbEntity
  8
0
 62
     7
100
AcDbVertex
100
AcDb2dVertex
 10
384.53911250841
 20
467.5344569052781
 30
0.0
  0
VERTEX
  5
80
330
7C
100
AcDbEntity
  8
0
 62
     7
100
AcDbVertex
100
AcDb2dVertex
 10
564.5391125084099
 20
467.5344569052781
 30
0.0
  0
VERTEX
  5
81
330
7C
100
AcDbEntity
  8
0
 62
     7
100
AcDbVertex
100
AcDb2dVertex
 10
564.5391125084099
 20
347.534456905278
 30
0.0
  0
SEQEND
  5
82
330
7C
100
AcDbEntity
  8
0
 62
     7
  0
ENDBLK
  5
7B
330
78
100
AcDbEntity
  8
0
100
AcDbBlockEnd
  0
BLOCK
  5
85
330
83
100
AcDbEntity
  8
0
100
AcDbBlockBegin
  2
BLOCK_13
 70
     0
 10
0.0
 20
0.0
 30
0.0
  3
BLOCK_13
  1

  0
POLYLINE
  5
87
330
83
100
AcDbEntity
  8
0
 62
     7
100
AcDb2dPolyline
 66
     1
 10
0.0
 20
0.0
 30
0.0
  0
VERTEX
  5
88
330
87
100
AcDbEntity
  8
0
 62
     7
100
AcDbVertex
100
AcDb2dVertex
 10
555.5391137154038
 20
356.5344561453186
 30
0.0
  0
VERTEX
  5
89
330
87
100
AcDbEntity
  8
0
 62
     7
100
AcDbVertex
100
AcDb2dVertex
 10
393.5391113014158
 20
356.5344561453186
 30
0.0
  0
VERTEX
  5
8A
330
87
100
AcDbEntity
  8
0
 62
     7
100
AcDbVertex
100
AcDb2dVertex
 10
388.5391113014159
 20
356.5344561453186
 30
0.0
  0
VERTEX
  5
8B
330
87
100
AcDbEntity
  8
0
 62
     7
100
AcDbVertex
100
AcDb2dVertex
 10
388.5391113014159
 20
362.5344561453189
 30
0.0
  0
VERTEX
  5
8C
330
87
100
AcDbEntity
  8
0
 62
     7
100
AcDbVertex
100
AcDb2dVertex
 10
393.5391113014161
 20
362.5344561453189
 30
0.0
  0
VERTEX
  5
8D
330
87
100
AcDbEntity
  8
0
 62
     7
100
AcDbVertex
100
AcDb2dVertex
 10
393.5391113014158
 20
452.5344576652373
 30
0.0
  0
VERTEX
  5
8E
330
87
100
AcDbEntity
  8
0
 62
     7
100
AcDbVertex
100
AcDb2dVertex
 10
388.5391113014159
 20
452.5344576652373
 30
0.0
  0
VERTEX
  5
8F
330
87
100
AcDbEntity
  8
0
 62
     7
100
AcDbVertex
100
AcDb2dVertex
 10
388.5391113014159
 20
458.5344576652371
 30
0.0
  0
VERTEX
  5
90
330
87
100
AcDbEntity
  8
0
 62
     7
100
AcDbVertex
100
AcDb2dVertex
 10
393.5391113014161
 20
458.5344576652371
 30
0.0
  0
VERTEX
  5
91
330
87
100
AcDbEntity
  8
0
 62
     7
100
AcDbVertex
100
AcDb2dVertex
 10
555.5391137154038
 20
458.5344576652371
 30
0.0
  0
VERTEX
  5
92
330
87
100
AcDbEntity
  8
0
 62
     7
100
AcDbVertex
100
AcDb2dVertex
 10
560.5391137154039
 20
458.5344576652371
 30
0.0
  0
VERTEX
  5
93
330
87
100
AcDbEntity
  8
0
 62
     7
100
AcDbVertex
100
AcDb2dVertex
 10
560.5391137154039
 20
452.5344576652373
 30
0.0
  0
VERTEX
  5
94
330
87
100
AcDbEntity
  8
0
 62
     7
100
AcDbVertex
100
AcDb2dVertex
 10
555.5391137154038
 20
452.5344576652373
 30
0.0
  0
VERTEX
  5
95
330
87
100
AcDbEntity
  8
0
 62
     7
100
AcDbVertex
100
AcDb2dVertex
 10
555.5391137154038
 20
362.5344561453189
 30
0.0
  0
VERTEX
  5
96
330
87
100
AcDbEntity
  8
0
 62
     7
100
AcDbVertex
100
AcDb2dVertex
 10
560.5391137154039
 20
362.5344561453189
 30
0.0
  0
VERTEX
  5
97
330
87
100
AcDbEntity
  8
0
 62
     7
100
AcDbVertex
100
AcDb2dVertex
 10
560.5391137154039
 20
356.5344561453186
 30
0.0
  0
VERTEX
  5
98
330
87
100
AcDbEntity
  8
0
 62
     7
100
AcDbVertex
100
AcDb2dVertex
 10
555.5391137154038
 20
356.5344561453186
 30
0.0
  0
SEQEND
  5
99
330
87
100
AcDbEntity
  8
0
 62
     7
  0
ENDBLK
  5
86
330
83
100
AcDbEntity
  8
0
100
AcDbBlockEnd
  0
BLOCK
  5
9C
330
9A
100
AcDbEntity
  8
0
100
AcDbBlockBegin
  2
BLOCK_14
 70
     0
 10
0.0
 20
0.0
 30
0.0
  3
BLOCK_14
  1

  0
POLYLINE
  5
9E
330
9A
100
AcDbEntity
  8
0
 62
     7
100
AcDb2dPolyline
 66
     1
 10
0.0
 20
0.0
 30
0.0
  0
VERTEX
  5
9F
330
9E
100
AcDbEntity
  8
0
 62
     7
100
AcDbVertex
100
AcDb2dVertex
 10
555.5391137154038
 20
362.5344561453189
 30
0.0
  0
VERTEX
  5
A0
330
9E
100
AcDbEntity
  8
0
 62
     7
100
AcDbVertex
100
AcDb2dVertex
 10
555.5391137154038
 20
452.5344576652373
 30
0.0
  0
SEQEND
  5
A1
330
9E
100
AcDbEntity
  8
0
 62
     7
  0
ENDBLK
  5
9D
330
9A
100
AcDbEntity
  8
0
100
AcDbBlockEnd
  0
BLOCK
  5
A4
330
A2
100
AcDbEntity
  8
0
100
AcDbBlockBegin
  2
BLOCK_15
 70
     0
 10
0.0
 20
0.0
 30
0.0
  3
BLOCK_15
  1

  0
POLYLINE
  5
A6
330
A2
100
AcDbEntity
  8
0
 62
     7
100
AcDb2dPolyline
 66
     1
 10
0.0
 20
0.0
 30
0.0
  0
VERTEX
  5
A7
330
A6
100
AcDbEntity
  8
0
 62
     7
100
AcDbVertex
100
AcDb2dVertex
 10
555.5391137154038
 20
458.5344576652371
 30
0.0
  0
VERTEX
  5
A8
330
A6
100
AcDbEntity
  8
0
 62
     7
100
AcDbVertex
100
AcDb2dVertex
 10
393.5391113014158
 20
458.5344576652371
 30
0.0
  0
SEQEND
  5
A9
330
A6
100
AcDbEntity
  8
0
 62
     7
  0
ENDBLK
  5
A5
330
A2
100
AcDbEntity
  8
0
100
AcDbBlockEnd
  0
BLOCK
  5
AC
330
AA
100
AcDbEntity
  8
0
100
AcDbBlockBegin
  2
BLOCK_16
 70
     0
 10
0.0
 20
0.0
 30
0.0
  3
BLOCK_16
  1

  0
POLYLINE
  5
AE
330
AA
100
AcDbEntity
  8
0
 62
     7
100
AcDb2dPolyline
 66
     1
 10
0.0
 20
0.0
 30
0.0
  0
VERTEX
  5
AF
330
AE
100
AcDbEntity
  8
0
 62
     7
100
AcDbVertex
100
AcDb2dVertex
 10
555.5391137154038
 20
356.5344561453186
 30
0.0
  0
VERTEX
  5
B0
330
AE
100
AcDbEntity
  8
0
 62
     7
100
AcDbVertex
100
AcDb2dVertex
 10
393.5391113014158
 20
356.5344561453186
 30
0.0
  0
SEQEND
  5
B1
330
AE
100
AcDbEntity
  8
0
 62
     7
  0
ENDBLK
  5
AD
330
AA
100
AcDbEntity
  8
0
100
AcDbBlockEnd
  0
BLOCK
  5
B4
330
B2
100
AcDbEntity
  8
0
100
AcDbBlockBegin
  2
BLOCK_17
 70
     0
 10
0.0
 20
0.0
 30
0.0
  3
BLOCK_17
  1

  0
POLYLINE
  5
B6
330
B2
100
AcDbEntity
  8
0
 62
     7
100
AcDb2dPolyline
 66
     1
 10
0.0
 20
0.0
 30
0.0
  0
VERTEX
  5
B7
330
B6
100
AcDbEntity
  8
0
 62
     7
100
AcDbVertex
100
AcDb2dVertex
 10
393.5391113014158
 20
362.5344561453189
 30
0.0
  0
VERTEX
  5
B8
330
B6
100
AcDbEntity
  8
0
 62
     7
100
AcDbVertex
100
AcDb2dVertex
 10
393.5391113014158
 20
452.5344576652373
 30
0.0
  0
SEQEND
  5
B9
330
B6
100
AcDbEntity
  8
0
 62
     7
  0
ENDBLK
  5
B5
330
B2
100
AcDbEntity
  8
0
100
AcDbBlockEnd
  0
BLOCK
  5
BC
330
BA
100
AcDbEntity
  8
0
100
AcDbBlockBegin
  2
BLOCK_18
 70
     0
 10
0.0
 20
0.0
 30
0.0
  3
BLOCK_18
  1

  0
POLYLINE
  5
BE
330
BA
100
AcDbEntity
  8
0
 62
     7
100
AcDb2dPolyline
 66
     1
 10
0.0
 20
0.0
 30
0.0
  0
VERTEX
  5
BF
330
BE
100
AcDbEntity
  8
0
 62
     7
100
AcDbVertex
100
AcDb2dVertex
 10
520.7251884605834
 20
495.3208332207531
 30
0.0
  0
VERTEX
  5
C0
330
BE
100
AcDbEntity
  8
0
 62
     7
100
AcDbVertex
100
AcDb2dVertex
 10
520.7251884605834
 20
555.320833220753
 30
0.0
  0
SEQEND
  5
C1
330
BE
100
AcDbEntity
  8
0
 62
     7
  0
ENDBLK
  5
BD
330
BA
100
AcDbEntity
  8
0
100
AcDbBlockEnd
  0
BLOCK
  5
C4
330
C2
100
AcDbEntity
  8
0
100
AcDbBlockBegin
  2
BLOCK_19
 70
     0
 10
0.0
 20
0.0
 30
0.0
  3
BLOCK_19
  1

  0
POLYLINE
  5
C6
330
C2
100
AcDbEntity
  8
0
 62
     7
100
AcDb2dPolyline
 66
     1
 10
0.0
 20
0.0
 30
0.0
  0
VERTEX
  5
C7
330
C6
100
AcDbEntity
  8
0
 62
     7
100
AcDbVertex
100
AcDb2dVertex
 10
520.7251884605834
 20
555.320833220753
 30
0.0
  0
VERTEX
  5
C8
330
C6
100
AcDbEntity
  8
0
 62
     7
100
AcDbVertex
100
AcDb2dVertex
 10
348.7251884605831
 20
555.320833220753
 30
0.0
  0
SEQEND
  5
C9
330
C6
100
AcDbEntity
  8
0
 62
     7
  0
ENDBLK
  5
C5
330
C2
100
AcDbEntity
  8
0
100
AcDbBlockEnd
  0
BLOCK
  5
CC
330
CA
100
AcDbEntity
  8
0
100
AcDbBlockBegin
  2
BLOCK_20
 70
     0
 10
0.0
 20
0.0
 30
0.0
  3
BLOCK_20
  1

  0
POLYLINE
  5
CE
330
CA
100
AcDbEntity
  8
0
 62
     7
100
AcDb2dPolyline
 66
     1
 10
0.0
 20
0.0
 30
0.0
  0
VERTEX
  5
CF
330
CE
100
AcDbEntity
  8
0
 62
     7
100
AcDbVertex
100
AcDb2dVertex
 10
348.7251884605831
 20
555.320833220753
 30
0.0
  0
VERTEX
  5
D0
330
CE
100
AcDbEntity
  8
0
 62
     7
100
AcDbVertex
100
AcDb2dVertex
 10
348.7251884605831
 20
495.3208332207531
 30
0.0
  0
SEQEND
  5
D1
330
CE
100
AcDbEntity
  8
0
 62
     7
  0
ENDBLK
  5
CD
330
CA
100
AcDbEntity
  8
0
100
AcDbBlockEnd
  0
BLOCK
  5
D4
330
D2
100
AcDbEntity
  8
0
100
AcDbBlockBegin
  2
BLOCK_21
 70
     0
 10
0.0
 20
0.0
 30
0.0
  3
BLOCK_21
  1

  0
POLYLINE
  5
D6
330
D2
100
AcDbEntity
  8
0
 62
     7
100
AcDb2dPolyline
 66
     1
 10
0.0
 20
0.0
 30
0.0
  0
VERTEX
  5
D7
330
D6
100
AcDbEntity
  8
0
 62
     7
100
AcDbVertex
100
AcDb2dVertex
 10
348.7251884605831
 20
495.3208332207531
 30
0.0
  0
VERTEX
  5
D8
330
D6
100
AcDbEntity
  8
0
 62
     7
100
AcDbVertex
100
AcDb2dVertex
 10
353.7251911874958
 20
495.3208332207531
 30
0.0
  0
SEQEND
  5
D9
330
D6
100
AcDbEntity
  8
0
 62
     7
  0
ENDBLK
  5
D5
330
D2
100
AcDbEntity
  8
0
100
AcDbBlockEnd
  0
BLOCK
  5
DC
330
DA
100
AcDbEntity
  8
0
100
AcDbBlockBegin
  2
BLOCK_22
 70
     0
 10
0.0
 20
0.0
 30
0.0
  3
BLOCK_22
  1

  0
POLYLINE
  5
DE
330
DA
100
AcDbEntity
  8
0
 62
     7
100
AcDb2dPolyline
 66
     1
 10
0.0
 20
0.0
 30
0.0
  0
VERTEX
  5
DF
330
DE
100
AcDbEntity
  8
0
 62
     7
100
AcDbVertex
100
AcDb2dVertex
 10
353.7251911874958
 20
495.3208332207531
 30
0.0
  0
VERTEX
  5
E0
330
DE
100
AcDbEntity
  8
0
 62
     7
100
AcDbVertex
100
AcDb2dVertex
 10
353.7251911874958
 20
500.3208355304332
 30
0.0
  0
SEQEND
  5
E1
330
DE
100
AcDbEntity
  8
0
 62
     7
  0
ENDBLK
  5
DD
330
DA
100
AcDbEntity
  8
0
100
AcDbBlockEnd
  0
BLOCK
  5
E4
330
E2
100
AcDbEntity
  8
0
100
AcDbBlockBegin
  2
BLOCK_23
 70
     0
 10
0.0
 20
0.0
 30
0.0
  3
BLOCK_23
  1

  0
POLYLINE
  5
E6
330
E2
100
AcDbEntity
  8
0
 62
     7
100
AcDb2dPolyline
 66
     1
 10
0.0
 20
0.0
 30
0.0
  0
VERTEX
  5
E7
330
E6
100
AcDbEntity
  8
0
 62
     7
100
AcDbVertex
100
AcDb2dVertex
 10
348.7251884605831
 20
500.3208355304332
 30
0.0
  0
VERTEX
  5
E8
330
E6
100
AcDbEntity
  8
0
 62
     7
100
AcDbVertex
100
AcDb2dVertex
 10
348.7251884605831
 20
495.3208332207531
 30
0.0
  0
SEQEND
  5
E9
330
E6
100
AcDbEntity
  8
0
 62
     7
  0
ENDBLK
  5
E5
330
E2
100
AcDbEntity
  8
0
100
AcDbBlockEnd
  0
BLOCK
  5
EC
330
EA
100
AcDbEntity
  8
0
100
AcDbBlockBegin
  2
BLOCK_24
 70
     0
 10
0.0
 20
0.0
 30
0.0
  3
BLOCK_24
  1

  0
POLYLINE
  5
EE
330
EA
100
AcDbEntity
  8
0
 62
     7
100
AcDb2dPolyline
 66
     1
 10
0.0
 20
0.0
 30
0.0
  0
VERTEX
  5
EF
330
EE
100
AcDbEntity
  8
0
 62
     7
100
AcDbVertex
100
AcDb2dVertex
 10
353.7251911874958
 20
499.3208355155319
 30
0.0
  0
VERTEX
  5
F0
330
EE
100
AcDbEntity
  8
0
 62
     7
100
AcDbVertex
100
AcDb2dVertex
 10
353.7251911874958
 20
495.3208332207531
 30
0.0
  0
SEQEND
  5
F1
330
EE
100
AcDbEntity
  8
0
 62
     7
  0
ENDBLK
  5
ED
330
EA
100
AcDbEntity
  8
0
100
AcDbBlockEnd
  0
BLOCK
  5
F4
330
F2
100
AcDbEntity
  8
0
100
AcDbBlockBegin
  2
BLOCK_25
 70
     0
 10
0.0
 20
0.0
 30
0.0
  3
BLOCK_25
  1

  0
POLYLINE
  5
F6
330
F2
100
AcDbEntity
  8
0
 62
     7
100
AcDb2dPolyline
 66
     1
 10
0.0
 20
0.0
 30
0.0
  0
VERTEX
  5
F7
330
F6
100
AcDbEntity
  8
0
 62
     7
100
AcDbVertex
100
AcDb2dVertex
 10
359.7251912769027
 20
495.3208332207531
 30
0.0
  0
VERTEX
  5
F8
330
F6
100
AcDbEntity
  8
0
 62
     7
100
AcDbVertex
100
AcDb2dVertex
 10
359.7251912769027
 20
499.3208355155319
 30
0.0
  0
SEQEND
  5
F9
330
F6
100
AcDbEntity
  8
0
 62
     7
  0
ENDBLK
  5
F5
330
F2
100
AcDbEntity
  8
0
100
AcDbBlockEnd
  0
BLOCK
  5
FC
330
FA
100
AcDbEntity
  8
0
100
AcDbBlockBegin
  2
BLOCK_26
 70
     0
 10
0.0
 20
0.0
 30
0.0
  3
BLOCK_26
  1

  0
POLYLINE
  5
FE
330
FA
100
AcDbEntity
  8
0
 62
     7
100
AcDb2dPolyline
 66
     1
 10
0.0
 20
0.0
 30
0.0
  0
VERTEX
  5
FF
330
FE
100
AcDbEntity
  8
0
 62
     7
100
AcDbVertex
100
AcDb2dVertex
 10
520.7251884605834
 20
555.320833220753
 30
0.0
  0
VERTEX
  5
100
330
FE
100
AcDbEntity
  8
0
 62
     7
100
AcDbVertex
100
AcDb2dVertex
 10
515.7251936014839
 20
555.320833220753
 30
0.0
  0
SEQEND
  5
101
330
FE
100
AcDbEntity
  8
0
 62
     7
  0
ENDBLK
  5
FD
330
FA
100
AcDbEntity
  8
0
100
AcDbBlockEnd
  0
BLOCK
  5
104
330
102
100
AcDbEntity
  8
0
100
AcDbBlockBegin
  2
BLOCK_27
 70
     0
 10
0.0
 20
0.0
 30
0.0
  3
BLOCK_27
  1

  0
POLYLINE
  5
106
330
102
100
AcDbEntity
  8
0
 62
     7
100
AcDb2dPolyline
 66
     1
 10
0.0
 20
0.0
 30
0.0
  0
VERTEX
  5
107
330
106
100
AcDbEntity
  8
0
 62
     7
100
AcDbVertex
100
AcDb2dVertex
 10
520.7251884605834
 20
551.3208362903924
 30
0.0
  0
VERTEX
  5
108
330
106
100
AcDbEntity
  8
0
 62
     7
100
AcDbVertex
100
AcDb2dVertex
 10
520.7251884605834
 20
555.320833220753
 30
0.0
  0
SEQEND
  5
109
330
106
100
AcDbEntity
  8
0
 62
     7
  0
ENDBLK
  5
105
330
102
100
AcDbEntity
  8
0
100
AcDbBlockEnd
  0
BLOCK
  5
10C
330
10A
100
AcDbEntity
  8
0
100
AcDbBlockBegin
  2
BLOCK_28
 70
     0
 10
0.0
 20
0.0
 30
0.0
  3
BLOCK_28
  1

  0
POLYLINE
  5
10E
330
10A
100
AcDbEntity
  8
0
 62
     7
100
AcDb2dPolyline
 66
     1
 10
0.0
 20
0.0
 30
0.0
  0
VERTEX
  5
10F
330
10E
100
AcDbEntity
  8
0
 62
     7
100
AcDbVertex
100
AcDb2dVertex
 10
515.7251936014839
 20
555.320833220753
 30
0.0
  0
VERTEX
  5
110
330
10E
100
AcDbEntity
  8
0
 62
     7
100
AcDbVertex
100
AcDb2dVertex
 10
509.7251935120769
 20
555.320833220753
 30
0.0
  0
SEQEND
  5
111
330
10E
100
AcDbEntity
  8
0
 62
     7
  0
ENDBLK
  5
10D
330
10A
100
AcDbEntity
  8
0
100
AcDbBlockEnd
  0
BLOCK
  5
114
330
112
100
AcDbEntity
  8
0
100
AcDbBlockBegin
  2
BLOCK_29
 70
     0
 10
0.0
 20
0.0
 30
0.0
  3
BLOCK_29
  1

  0
POLYLINE
  5
116
330
112
100
AcDbEntity
  8
0
 62
     7
100
AcDb2dPolyline
 66
     1
 10
0.0
 20
0.0
 30
0.0
  0
VERTEX
  5
117
330
116
100
AcDbEntity
  8
0
 62
     7
100
AcDbVertex
100
AcDb2dVertex
 10
353.7251911874958
 20
555.320833220753
 30
0.0
  0
VERTEX
  5
118
330
116
100
AcDbEntity
  8
0
 62
     7
100
AcDbVertex
100
AcDb2dVertex
 10
359.7251912769027
 20
555.320833220753
 30
0.0
  0
SEQEND
  5
119
330
116
100
AcDbEntity
  8
0
 62
     7
  0
ENDBLK
  5
115
330
112
100
AcDbEntity
  8
0
100
AcDbBlockEnd
  0
BLOCK
  5
11C
330
11A
100
AcDbEntity
  8
0
100
AcDbBlockBegin
  2
BLOCK_30
 70
     0
 10
0.0
 20
0.0
 30
0.0
  3
BLOCK_30
  1

  0
POLYLINE
  5
11E
330
11A
100
AcDbEntity
  8
0
 62
     7
100
AcDb2dPolyline
 66
     1
 10
0.0
 20
0.0
 30
0.0
  0
VERTEX
  5
11F
330
11E
100
AcDbEntity
  8
0
 62
     7
100
AcDbVertex
100
AcDb2dVertex
 10
353.7251911874958
 20
550.3208362754912
 30
0.0
  0
VERTEX
  5
120
330
11E
100
AcDbEntity
  8
0
 62
     7
100
AcDbVertex
100
AcDb2dVertex
 10
359.7251912769027
 20
550.3208362754912
 30
0.0
  0
VERTEX
  5
121
330
11E
100
AcDbEntity
  8
0
 62
     7
100
AcDbVertex
100
AcDb2dVertex
 10
359.7251912769027
 20
545.3208362009852
 30
0.0
  0
VERTEX
  5
122
330
11E
100
AcDbEntity
  8
0
 62
     7
100
AcDbVertex
100
AcDb2dVertex
 10
353.7251911874958
 20
545.3208362009852
 30
0.0
  0
VERTEX
  5
123
330
11E
100
AcDbEntity
  8
0
 62
     7
100
AcDbVertex
100
AcDb2dVertex
 10
353.7251911874958
 20
550.3208362754912
 30
0.0
  0
SEQEND
  5
124
330
11E
100
AcDbEntity
  8
0
 62
     7
  0
ENDBLK
  5
11D
330
11A
100
AcDbEntity
  8
0
100
AcDbBlockEnd
  0
BLOCK
  5
127
330
125
100
AcDbEntity
  8
0
100
AcDbBlockBegin
  2
BLOCK_31
 70
     0
 10
0.0
 20
0.0
 30
0.0
  3
BLOCK_31
  1

  0
POLYLINE
  5
129
330
125
100
AcDbEntity
  8
0
 62
     7
100
AcDb2dPolyline
 66
     1
 10
0.0
 20
0.0
 30
0.0
  0
VERTEX
  5
12A
330
129
100
AcDbEntity
  8
0
 62
     7
100
AcDbVertex
100
AcDb2dVertex
 10
353.7251911874958
 20
550.3208362754912
 30
0.0
  0
VERTEX
  5
12B
330
129
100
AcDbEntity
  8
0
 62
     7
100
AcDbVertex
100
AcDb2dVertex
 10
359.7251912769027
 20
550.3208362754912
 30
0.0
  0
SEQEND
  5
12C
330
129
100
AcDbEntity
  8
0
 62
     7
  0
ENDBLK
  5
128
330
125
100
AcDbEntity
  8
0
100
AcDbBlockEnd
  0
BLOCK
  5
12F
330
12D
100
AcDbEntity
  8
0
100
AcDbBlockBegin
  2
BLOCK_32
 70
     0
 10
0.0
 20
0.0
 30
0.0
  3
BLOCK_32
  1

  0
POLYLINE
  5
131
330
12D
100
AcDbEntity
  8
0
 62
     7
100
AcDb2dPolyline
 66
     1
 10
0.0
 20
0.0
 30
0.0
  0
VERTEX
  5
132
330
131
100
AcDbEntity
  8
0
 62
     7
100
AcDbVertex
100
AcDb2dVertex
 10
353.7251911874958
 20
545.3208362009852
 30
0.0
  0
VERTEX
  5
133
330
131
100
AcDbEntity
  8
0
 62
     7
100
AcDbVertex
100
AcDb2dVertex
 10
359.7251912769027
 20
545.3208362009852
 30
0.0
  0
SEQEND
  5
134
330
131
100
AcDbEntity
  8
0
 62
     7
  0
ENDBLK
  5
130
330
12D
100
AcDbEntity
  8
0
100
AcDbBlockEnd
  0
BLOCK
  5
137
330
135
100
AcDbEntity
  8
0
100
AcDbBlockBegin
  2
BLOCK_33
 70
     0
 10
0.0
 20
0.0
 30
0.0
  3
BLOCK_33
  1

  0
POLYLINE
  5
139
330
135
100
AcDbEntity
  8
0
 62
     7
100
AcDb2dPolyline
 66
     1
 10
0.0
 20
0.0
 30
0.0
  0
VERTEX
  5
13A
330
139
100
AcDbEntity
  8
0
 62
     7
100
AcDbVertex
100
AcDb2dVertex
 10
359.7251912769027
 20
540.3208361264797
 30
0.0
  0
VERTEX
  5
13B
330
139
100
AcDbEntity
  8
0
 62
     7
100
AcDbVertex
100
AcDb2dVertex
 10
353.7251911874958
 20
540.3208361264797
 30
0.0
  0
SEQEND
  5
13C
330
139
100
AcDbEntity
  8
0
 62
     7
  0
ENDBLK
  5
138
330
135
100
AcDbEntity
  8
0
100
AcDbBlockEnd
  0
BLOCK
  5
13F
330
13D
100
AcDbEntity
  8
0
100
AcDbBlockBegin
  2
BLOCK_34
 70
     0
 10
0.0
 20
0.0
 30
0.0
  3
BLOCK_34
  1

  0
POLYLINE
  5
141
330
13D
100
AcDbEntity
  8
0
 62
     7
100
AcDb2dPolyline
 66
     1
 10
0.0
 20
0.0
 30
0.0
  0
VERTEX
  5
142
330
141
100
AcDbEntity
  8
0
 62
     7
100
AcDbVertex
100
AcDb2dVertex
 10
353.7251911874958
 20
540.3208361264797
 30
0.0
  0
VERTEX
  5
143
330
141
100
AcDbEntity
  8
0
 62
     7
100
AcDbVertex
100
AcDb2dVertex
 10
359.7251912769027
 20
540.3208361264797
 30
0.0
  0
SEQEND
  5
144
330
141
100
AcDbEntity
  8
0
 62
     7
  0
ENDBLK
  5
140
330
13D
100
AcDbEntity
  8
0
100
AcDbBlockEnd
  0
BLOCK
  5
147
330
145
100
AcDbEntity
  8
0
100
AcDbBlockBegin
  2
BLOCK_35
 70
     0
 10
0.0
 20
0.0
 30
0.0
  3
BLOCK_35
  1

  0
POLYLINE
  5
149
330
145
100
AcDbEntity
  8
0
 62
     7
100
AcDb2dPolyline
 66
     1
 10
0.0
 20
0.0
 30
0.0
  0
VERTEX
  5
14A
330
149
100
AcDbEntity
  8
0
 62
     7
100
AcDbVertex
100
AcDb2dVertex
 10
359.7251912769027
 20
540.3208361264797
 30
0.0
  0
VERTEX
  5
14B
330
149
100
AcDbEntity
  8
0
 62
     7
100
AcDbVertex
100
AcDb2dVertex
 10
359.7251912769027
 20
535.3208360519737
 30
0.0
  0
SEQEND
  5
14C
330
149
100
AcDbEntity
  8
0
 62
     7
  0
ENDBLK
  5
148
330
145
100
AcDbEntity
  8
0
100
AcDbBlockEnd
  0
BLOCK
  5
14F
330
14D
100
AcDbEntity
  8
0
100
AcDbBlockBegin
  2
BLOCK_36
 70
     0
 10
0.0
 20
0.0
 30
0.0
  3
BLOCK_36
  1

  0
POLYLINE
  5
151
330
14D
100
AcDbEntity
  8
0
 62
     7
100
AcDb2dPolyline
 66
     1
 10
0.0
 20
0.0
 30
0.0
  0
VERTEX
  5
152
330
151
100
AcDbEntity
  8
0
 62
     7
100
AcDbVertex
100
AcDb2dVertex
 10
359.7251912769027
 20
535.3208360519737
 30
0.0
  0
VERTEX
  5
153
330
151
100
AcDbEntity
  8
0
 62
     7
100
AcDbVertex
100
AcDb2dVertex
 10
353.7251911874958
 20
535.3208360519737
 30
0.0
  0
SEQEND
  5
154
330
151
100
AcDbEntity
  8
0
 62
     7
  0
ENDBLK
  5
150
330
14D
100
AcDbEntity
  8
0
100
AcDbBlockEnd
  0
BLOCK
  5
157
330
155
100
AcDbEntity
  8
0
100
AcDbBlockBegin
  2
BLOCK_37
 70
     0
 10
0.0
 20
0.0
 30
0.0
  3
BLOCK_37
  1

  0
POLYLINE
  5
159
330
155
100
AcDbEntity
  8
0
 62
     7
100
AcDb2dPolyline
 66
     1
 10
0.0
 20
0.0
 30
0.0
  0
VERTEX
  5
15A
330
159
100
AcDbEntity
  8
0
 62
     7
100
AcDbVertex
100
AcDb2dVertex
 10
353.7251911874958
 20
535.3208360519737
 30
0.0
  0
VERTEX
  5
15B
330
159
100
AcDbEntity
  8
0
 62
     7
100
AcDbVertex
100
AcDb2dVertex
 10
353.7251911874958
 20
540.3208361264797
 30
0.0
  0
SEQEND
  5
15C
330
159
100
AcDbEntity
  8
0
 62
     7
  0
ENDBLK
  5
158
330
155
100
AcDbEntity
  8
0
100
AcDbBlockEnd
  0
BLOCK
  5
15F
330
15D
100
AcDbEntity
  8
0
100
AcDbBlockBegin
  2
BLOCK_38
 70
     0
 10
0.0
 20
0.0
 30
0.0
  3
BLOCK_38
  1

  0
POLYLINE
  5
161
330
15D
100
AcDbEntity
  8
0
 62
     7
100
AcDb2dPolyline
 66
     1
 10
0.0
 20
0.0
 30
0.0
  0
VERTEX
  5
162
330
161
100
AcDbEntity
  8
0
 62
     7
100
AcDbVertex
100
AcDb2dVertex
 10
353.7251911874958
 20
535.3208360519737
 30
0.0
  0
VERTEX
  5
163
330
161
100
AcDbEntity
  8
0
 62
     7
100
AcDbVertex
100
AcDb2dVertex
 10
359.7251912769027
 20
535.3208360519737
 30
0.0
  0
SEQEND
  5
164
330
161
100
AcDbEntity
  8
0
 62
     7
  0
ENDBLK
  5
160
330
15D
100
AcDbEntity
  8
0
100
AcDbBlockEnd
  0
BLOCK
  5
167
330
165
100
AcDbEntity
  8
0
100
AcDbBlockBegin
  2
BLOCK_39
 70
     0
 10
0.0
 20
0.0
 30
0.0
  3
BLOCK_39
  1

  0
POLYLINE
  5
169
330
165
100
AcDbEntity
  8
0
 62
     7
100
AcDb2dPolyline
 66
     1
 10
0.0
 20
0.0
 30
0.0
  0
VERTEX
  5
16A
330
169
100
AcDbEntity
  8
0
 62
     7
100
AcDbVertex
100
AcDb2dVertex
 10
359.7251912769027
 20
530.320835977468
 30
0.0
  0
VERTEX
  5
16B
330
169
100
AcDbEntity
  8
0
 62
     7
100
AcDbVertex
100
AcDb2dVertex
 10
353.7251911874958
 20
530.320835977468
 30
0.0
  0
SEQEND
  5
16C
330
169
100
AcDbEntity
  8
0
 62
     7
  0
ENDBLK
  5
168
330
165
100
AcDbEntity
  8
0
100
AcDbBlockEnd
  0
BLOCK
  5
16F
330
16D
100
AcDbEntity
  8
0
100
AcDbBlockBegin
  2
BLOCK_40
 70
     0
 10
0.0
 20
0.0
 30
0.0
  3
BLOCK_40
  1

  0
POLYLINE
  5
171
330
16D
100
AcDbEntity
  8
0
 62
     7
100
AcDb2dPolyline
 66
     1
 10
0.0
 20
0.0
 30
0.0
  0
VERTEX
  5
172
330
171
100
AcDbEntity
  8
0
 62
     7
100
AcDbVertex
100
AcDb2dVertex
 10
353.7251911874958
 20
530.320835977468
 30
0.0
  0
VERTEX
  5
173
330
171
100
AcDbEntity
  8
0
 62
     7
100
AcDbVertex
100
AcDb2dVertex
 10
359.7251912769027
 20
530.320835977468
 30
0.0
  0
SEQEND
  5
174
330
171
100
AcDbEntity
  8
0
 62
     7
  0
ENDBLK
  5
170
330
16D
100
AcDbEntity
  8
0
100
AcDbBlockEnd
  0
BLOCK
  5
177
330
175
100
AcDbEntity
  8
0
100
AcDbBlockBegin
  2
BLOCK_41
 70
     0
 10
0.0
 20
0.0
 30
0.0
  3
BLOCK_41
  1

  0
POLYLINE
  5
179
330
175
100
AcDbEntity
  8
0
 62
     7
100
AcDb2dPolyline
 66
     1
 10
0.0
 20
0.0
 30
0.0
  0
VERTEX
  5
17A
330
179
100
AcDbEntity
  8
0
 62
     7
100
AcDbVertex
100
AcDb2dVertex
 10
359.7251912769027
 20
530.320835977468
 30
0.0
  0
VERTEX
  5
17B
330
179
100
AcDbEntity
  8
0
 62
     7
100
AcDbVertex
100
AcDb2dVertex
 10
359.7251912769027
 20
525.3208359029621
 30
0.0
  0
SEQEND
  5
17C
330
179
100
AcDbEntity
  8
0
 62
     7
  0
ENDBLK
  5
178
330
175
100
AcDbEntity
  8
0
100
AcDbBlockEnd
  0
BLOCK
  5
17F
330
17D
100
AcDbEntity
  8
0
100
AcDbBlockBegin
  2
BLOCK_42
 70
     0
 10
0.0
 20
0.0
 30
0.0
  3
BLOCK_42
  1

  0
POLYLINE
  5
181
330
17D
100
AcDbEntity
  8
0
 62
     7
100
AcDb2dPolyline
 66
     1
 10
0.0
 20
0.0
 30
0.0
  0
VERTEX
  5
182
330
181
100
AcDbEntity
  8
0
 62
     7
100
AcDbVertex
100
AcDb2dVertex
 10
359.7251912769027
 20
525.3208359029621
 30
0.0
  0
VERTEX
  5
183
330
181
100
AcDbEntity
  8
0
 62
     7
100
AcDbVertex
100
AcDb2dVertex
 10
353.7251911874958
 20
525.3208359029621
 30
0.0
  0
SEQEND
  5
184
330
181
100
AcDbEntity
  8
0
 62
     7
  0
ENDBLK
  5
180
330
17D
100
AcDbEntity
  8
0
100
AcDbBlockEnd
  0
BLOCK
  5
187
330
185
100
AcDbEntity
  8
0
100
AcDbBlockBegin
  2
BLOCK_43
 70
     0
 10
0.0
 20
0.0
 30
0.0
  3
BLOCK_43
  1

  0
POLYLINE
  5
189
330
185
100
AcDbEntity
  8
0
 62
     7
100
AcDb2dPolyline
 66
     1
 10
0.0
 20
0.0
 30
0.0
  0
VERTEX
  5
18A
330
189
100
AcDbEntity
  8
0
 62
     7
100
AcDbVertex
100
AcDb2dVertex
 10
353.7251911874958
 20
525.3208359029621
 30
0.0
  0
VERTEX
  5
18B
330
189
100
AcDbEntity
  8
0
 62
     7
100
AcDbVertex
100
AcDb2dVertex
 10
353.7251911874958
 20
530.320835977468
 30
0.0
  0
SEQEND
  5
18C
330
189
100
AcDbEntity
  8
0
 62
     7
  0
ENDBLK
  5
188
330
185
100
AcDbEntity
  8
0
100
AcDbBlockEnd
  0
BLOCK
  5
18F
330
18D
100
AcDbEntity
  8
0
100
AcDbBlockBegin
  2
BLOCK_44
 70
     0
 10
0.0
 20
0.0
 30
0.0
  3
BLOCK_44
  1

  0
POLYLINE
  5
191
330
18D
100
AcDbEntity
  8
0
 62
     7
100
AcDb2dPolyline
 66
     1
 10
0.0
 20
0.0
 30
0.0
  0
VERTEX
  5
192
330
191
100
AcDbEntity
  8
0
 62
     7
100
AcDbVertex
100
AcDb2dVertex
 10
353.7251911874958
 20
525.3208359029621
 30
0.0
  0
VERTEX
  5
193
330
191
100
AcDbEntity
  8
0
 62
     7
100
AcDbVertex
100
AcDb2dVertex
 10
359.7251912769027
 20
525.3208359029621
 30
0.0
  0
SEQEND
  5
194
330
191
100
AcDbEntity
  8
0
 62
     7
  0
ENDBLK
  5
190
330
18D
100
AcDbEntity
  8
0
100
AcDbBlockEnd
  0
BLOCK
  5
197
330
195
100
AcDbEntity
  8
0
100
AcDbBlockBegin
  2
BLOCK_45
 70
     0
 10
0.0
 20
0.0
 30
0.0
  3
BLOCK_45
  1

  0
POLYLINE
  5
199
330
195
100
AcDbEntity
  8
0
 62
     7
100
AcDb2dPolyline
 66
     1
 10
0.0
 20
0.0
 30
0.0
  0
VERTEX
  5
19A
330
199
100
AcDbEntity
  8
0
 62
     7
100
AcDbVertex
100
AcDb2dVertex
 10
359.7251912769027
 20
520.3208358284562
 30
0.0
  0
VERTEX
  5
19B
330
199
100
AcDbEntity
  8
0
 62
     7
100
AcDbVertex
100
AcDb2dVertex
 10
353.7251911874958
 20
520.3208358284562
 30
0.0
  0
SEQEND
  5
19C
330
199
100
AcDbEntity
  8
0
 62
     7
  0
ENDBLK
  5
198
330
195
100
AcDbEntity
  8
0
100
AcDbBlockEnd
  0
BLOCK
  5
19F
330
19D
100
AcDbEntity
  8
0
100
AcDbBlockBegin
  2
BLOCK_46
 70
     0
 10
0.0
 20
0.0
 30
0.0
  3
BLOCK_46
  1

  0
POLYLINE
  5
1A1
330
19D
100
AcDbEntity
  8
0
 62
     7
100
AcDb2dPolyline
 66
     1
 10
0.0
 20
0.0
 30
0.0
  0
VERTEX
  5
1A2
330
1A1
100
AcDbEntity
  8
0
 62
     7
100
AcDbVertex
100
AcDb2dVertex
 10
353.7251911874958
 20
520.3208358284562
 30
0.0
  0
VERTEX
  5
1A3
330
1A1
100
AcDbEntity
  8
0
 62
     7
100
AcDbVertex
100
AcDb2dVertex
 10
359.7251912769027
 20
520.3208358284562
 30
0.0
  0
SEQEND
  5
1A4
330
1A1
100
AcDbEntity
  8
0
 62
     7
  0
ENDBLK
  5
1A0
330
19D
100
AcDbEntity
  8
0
100
AcDbBlockEnd
  0
BLOCK
  5
1A7
330
1A5
100
AcDbEntity
  8
0
100
AcDbBlockBegin
  2
BLOCK_47
 70
     0
 10
0.0
 20
0.0
 30
0.0
  3
BLOCK_47
  1

  0
POLYLINE
  5
1A9
330
1A5
100
AcDbEntity
  8
0
 62
     7
100
AcDb2dPolyline
 66
     1
 10
0.0
 20
0.0
 30
0.0
  0
VERTEX
  5
1AA
330
1A9
100
AcDbEntity
  8
0
 62
     7
100
AcDbVertex
100
AcDb2dVertex
 10
359.7251912769027
 20
520.3208358284562
 30
0.0
  0
VERTEX
  5
1AB
330
1A9
100
AcDbEntity
  8
0
 62
     7
100
AcDbVertex
100
AcDb2dVertex
 10
359.7251912769027
 20
515.3208357539506
 30
0.0
  0
SEQEND
  5
1AC
330
1A9
100
AcDbEntity
  8
0
 62
     7
  0
ENDBLK
  5
1A8
330
1A5
100
AcDbEntity
  8
0
100
AcDbBlockEnd
  0
BLOCK
  5
1AF
330
1AD
100
AcDbEntity
  8
0
100
AcDbBlockBegin
  2
BLOCK_48
 70
     0
 10
0.0
 20
0.0
 30
0.0
  3
BLOCK_48
  1

  0
POLYLINE
  5
1B1
330
1AD
100
AcDbEntity
  8
0
 62
     7
100
AcDb2dPolyline
 66
     1
 10
0.0
 20
0.0
 30
0.0
  0
VERTEX
  5
1B2
330
1B1
100
AcDbEntity
  8
0
 62
     7
100
AcDbVertex
100
AcDb2dVertex
 10
359.7251912769027
 20
515.3208357539506
 30
0.0
  0
VERTEX
  5
1B3
330
1B1
100
AcDbEntity
  8
0
 62
     7
100
AcDbVertex
100
AcDb2dVertex
 10
353.7251911874958
 20
515.3208357539506
 30
0.0
  0
SEQEND
  5
1B4
330
1B1
100
AcDbEntity
  8
0
 62
     7
  0
ENDBLK
  5
1B0
330
1AD
100
AcDbEntity
  8
0
100
AcDbBlockEnd
  0
BLOCK
  5
1B7
330
1B5
100
AcDbEntity
  8
0
100
AcDbBlockBegin
  2
BLOCK_49
 70
     0
 10
0.0
 20
0.0
 30
0.0
  3
BLOCK_49
  1

  0
POLYLINE
  5
1B9
330
1B5
100
AcDbEntity
  8
0
 62
     7
100
AcDb2dPolyline
 66
     1
 10
0.0
 20
0.0
 30
0.0
  0
VERTEX
  5
1BA
330
1B9
100
AcDbEntity
  8
0
 62
     7
100
AcDbVertex
100
AcDb2dVertex
 10
353.7251911874958
 20
515.3208357539506
 30
0.0
  0
VERTEX
  5
1BB
330
1B9
100
AcDbEntity
  8
0
 62
     7
100
AcDbVertex
100
AcDb2dVertex
 10
353.7251911874958
 20
520.3208358284562
 30
0.0
  0
SEQEND
  5
1BC
330
1B9
100
AcDbEntity
  8
0
 62
     7
  0
ENDBLK
  5
1B8
330
1B5
100
AcDbEntity
  8
0
100
AcDbBlockEnd
  0
BLOCK
  5
1BF
330
1BD
100
AcDbEntity
  8
0
100
AcDbBlockBegin
  2
BLOCK_50
 70
     0
 10
0.0
 20
0.0
 30
0.0
  3
BLOCK_50
  1

  0
POLYLINE
  5
1C1
330
1BD
100
AcDbEntity
  8
0
 62
     7
100
AcDb2dPolyline
 66
     1
 10
0.0
 20
0.0
 30
0.0
  0
VERTEX
  5
1C2
330
1C1
100
AcDbEntity
  8
0
 62
     7
100
AcDbVertex
100
AcDb2dVertex
 10
353.7251911874958
 20
515.3208357539506
 30
0.0
  0
VERTEX
  5
1C3
330
1C1
100
AcDbEntity
  8
0
 62
     7
100
AcDbVertex
100
AcDb2dVertex
 10
359.7251912769027
 20
515.3208357539506
 30
0.0
  0
SEQEND
  5
1C4
330
1C1
100
AcDbEntity
  8
0
 62
     7
  0
ENDBLK
  5
1C0
330
1BD
100
AcDbEntity
  8
0
100
AcDbBlockEnd
  0
BLOCK
  5
1C7
330
1C5
100
AcDbEntity
  8
0
100
AcDbBlockBegin
  2
BLOCK_51
 70
     0
 10
0.0
 20
0.0
 30
0.0
  3
BLOCK_51
  1

  0
POLYLINE
  5
1C9
330
1C5
100
AcDbEntity
  8
0
 62
     7
100
AcDb2dPolyline
 66
     1
 10
0.0
 20
0.0
 30
0.0
  0
VERTEX
  5
1CA
330
1C9
100
AcDbEntity
  8
0
 62
     7
100
AcDbVertex
100
AcDb2dVertex
 10
359.7251912769027
 20
510.3208356794447
 30
0.0
  0
VERTEX
  5
1CB
330
1C9
100
AcDbEntity
  8
0
 62
     7
100
AcDbVertex
100
AcDb2dVertex
 10
353.7251911874958
 20
510.3208356794447
 30
0.0
  0
SEQEND
  5
1CC
330
1C9
100
AcDbEntity
  8
0
 62
     7
  0
ENDBLK
  5
1C8
330
1C5
100
AcDbEntity
  8
0
100
AcDbBlockEnd
  0
BLOCK
  5
1CF
330
1CD
100
AcDbEntity
  8
0
100
AcDbBlockBegin
  2
BLOCK_52
 70
     0
 10
0.0
 20
0.0
 30
0.0
  3
BLOCK_52
  1

  0
POLYLINE
  5
1D1
330
1CD
100
AcDbEntity
  8
0
 62
     7
100
AcDb2dPolyline
 66
     1
 10
0.0
 20
0.0
 30
0.0
  0
VERTEX
  5
1D2
330
1D1
100
AcDbEntity
  8
0
 62
     7
100
AcDbVertex
100
AcDb2dVertex
 10
353.7251911874958
 20
510.3208356794447
 30
0.0
  0
VERTEX
  5
1D3
330
1D1
100
AcDbEntity
  8
0
 62
     7
100
AcDbVertex
100
AcDb2dVertex
 10
359.7251912769027
 20
510.3208356794447
 30
0.0
  0
SEQEND
  5
1D4
330
1D1
100
AcDbEntity
  8
0
 62
     7
  0
ENDBLK
  5
1D0
330
1CD
100
AcDbEntity
  8
0
100
AcDbBlockEnd
  0
BLOCK
  5
1D7
330
1D5
100
AcDbEntity
  8
0
100
AcDbBlockBegin
  2
BLOCK_53
 70
     0
 10
0.0
 20
0.0
 30
0.0
  3
BLOCK_53
  1

  0
POLYLINE
  5
1D9
330
1D5
100
AcDbEntity
  8
0
 62
     7
100
AcDb2dPolyline
 66
     1
 10
0.0
 20
0.0
 30
0.0
  0
VERTEX
  5
1DA
330
1D9
100
AcDbEntity
  8
0
 62
     7
100
AcDbVertex
100
AcDb2dVertex
 10
359.7251912769027
 20
510.3208356794447
 30
0.0
  0
VERTEX
  5
1DB
330
1D9
100
AcDbEntity
  8
0
 62
     7
100
AcDbVertex
100
AcDb2dVertex
 10
359.7251912769027
 20
505.3208356049391
 30
0.0
  0
SEQEND
  5
1DC
330
1D9
100
AcDbEntity
  8
0
 62
     7
  0
ENDBLK
  5
1D8
330
1D5
100
AcDbEntity
  8
0
100
AcDbBlockEnd
  0
BLOCK
  5
1DF
330
1DD
100
AcDbEntity
  8
0
100
AcDbBlockBegin
  2
BLOCK_54
 70
     0
 10
0.0
 20
0.0
 30
0.0
  3
BLOCK_54
  1

  0
POLYLINE
  5
1E1
330
1DD
100
AcDbEntity
  8
0
 62
     7
100
AcDb2dPolyline
 66
     1
 10
0.0
 20
0.0
 30
0.0
  0
VERTEX
  5
1E2
330
1E1
100
AcDbEntity
  8
0
 62
     7
100
AcDbVertex
100
AcDb2dVertex
 10
359.7251912769027
 20
505.3208356049391
 30
0.0
  0
VERTEX
  5
1E3
330
1E1
100
AcDbEntity
  8
0
 62
     7
100
AcDbVertex
100
AcDb2dVertex
 10
353.7251911874958
 20
505.3208356049391
 30
0.0
  0
SEQEND
  5
1E4
330
1E1
100
AcDbEntity
  8
0
 62
     7
  0
ENDBLK
  5
1E0
330
1DD
100
AcDbEntity
  8
0
100
AcDbBlockEnd
  0
BLOCK
  5
1E7
330
1E5
100
AcDbEntity
  8
0
100
AcDbBlockBegin
  2
BLOCK_55
 70
     0
 10
0.0
 20
0.0
 30
0.0
  3
BLOCK_55
  1

  0
POLYLINE
  5
1E9
330
1E5
100
AcDbEntity
  8
0
 62
     7
100
AcDb2dPolyline
 66
     1
 10
0.0
 20
0.0
 30
0.0
  0
VERTEX
  5
1EA
330
1E9
100
AcDbEntity
  8
0
 62
     7
100
AcDbVertex
100
AcDb2dVertex
 10
353.7251911874958
 20
505.3208356049391
 30
0.0
  0
VERTEX
  5
1EB
330
1E9
100
AcDbEntity
  8
0
 62
     7
100
AcDbVertex
100
AcDb2dVertex
 10
353.7251911874958
 20
510.3208356794447
 30
0.0
  0
SEQEND
  5
1EC
330
1E9
100
AcDbEntity
  8
0
 62
     7
  0
ENDBLK
  5
1E8
330
1E5
100
AcDbEntity
  8
0
100
AcDbBlockEnd
  0
BLOCK
  5
1EF
330
1ED
100
AcDbEntity
  8
0
100
AcDbBlockBegin
  2
BLOCK_56
 70
     0
 10
0.0
 20
0.0
 30
0.0
  3
BLOCK_56
  1

  0
POLYLINE
  5
1F1
330
1ED
100
AcDbEntity
  8
0
 62
     7
100
AcDb2dPolyline
 66
     1
 10
0.0
 20
0.0
 30
0.0
  0
VERTEX
  5
1F2
330
1F1
100
AcDbEntity
  8
0
 62
     7
100
AcDbVertex
100
AcDb2dVertex
 10
353.7251911874958
 20
505.3208356049391
 30
0.0
  0
VERTEX
  5
1F3
330
1F1
100
AcDbEntity
  8
0
 62
     7
100
AcDbVertex
100
AcDb2dVertex
 10
359.7251912769027
 20
505.3208356049391
 30
0.0
  0
SEQEND
  5
1F4
330
1F1
100
AcDbEntity
  8
0
 62
     7
  0
ENDBLK
  5
1F0
330
1ED
100
AcDbEntity
  8
0
100
AcDbBlockEnd
  0
BLOCK
  5
1F7
330
1F5
100
AcDbEntity
  8
0
100
AcDbBlockBegin
  2
BLOCK_57
 70
     0
 10
0.0
 20
0.0
 30
0.0
  3
BLOCK_57
  1

  0
POLYLINE
  5
1F9
330
1F5
100
AcDbEntity
  8
0
 62
     7
100
AcDb2dPolyline
 66
     1
 10
0.0
 20
0.0
 30
0.0
  0
VERTEX
  5
1FA
330
1F9
100
AcDbEntity
  8
0
 62
     7
100
AcDbVertex
100
AcDb2dVertex
 10
359.7251912769027
 20
500.3208355304332
 30
0.0
  0
VERTEX
  5
1FB
330
1F9
100
AcDbEntity
  8
0
 62
     7
100
AcDbVertex
100
AcDb2dVertex
 10
353.7251911874958
 20
500.3208355304332
 30
0.0
  0
SEQEND
  5
1FC
330
1F9
100
AcDbEntity
  8
0
 62
     7
  0
ENDBLK
  5
1F8
330
1F5
100
AcDbEntity
  8
0
100
AcDbBlockEnd
  0
BLOCK
  5
1FF
330
1FD
100
AcDbEntity
  8
0
100
AcDbBlockBegin
  2
BLOCK_58
 70
     0
 10
0.0
 20
0.0
 30
0.0
  3
BLOCK_58
  1

  0
POLYLINE
  5
201
330
1FD
100
AcDbEntity
  8
0
 62
     7
100
AcDb2dPolyline
 66
     1
 10
0.0
 20
0.0
 30
0.0
  0
VERTEX
  5
202
330
201
100
AcDbEntity
  8
0
 62
     7
100
AcDbVertex
100
AcDb2dVertex
 10
531.891591245556
 20
505.3208359029628
 30
0.0
  0
VERTEX
  5
203
330
201
100
AcDbEntity
  8
0
 62
     7
100
AcDbVertex
100
AcDb2dVertex
 10
537.8915912455561
 20
505.3208359029628
 30
0.0
  0
SEQEND
  5
204
330
201
100
AcDbEntity
  8
0
 62
     7
  0
ENDBLK
  5
200
330
1FD
100
AcDbEntity
  8
0
100
AcDbBlockEnd
  0
BLOCK
  5
207
330
205
100
AcDbEntity
  8
0
100
AcDbBlockBegin
  2
BLOCK_59
 70
     0
 10
0.0
 20
0.0
 30
0.0
  3
BLOCK_59
  1

  0
POLYLINE
  5
209
330
205
100
AcDbEntity
  8
0
 62
     7
100
AcDb2dPolyline
 66
     1
 10
0.0
 20
0.0
 30
0.0
  0
VERTEX
  5
20A
330
209
100
AcDbEntity
  8
0
 62
     7
100
AcDbVertex
100
AcDb2dVertex
 10
531.891591245556
 20
535.3208359029622
 30
0.0
  0
VERTEX
  5
20B
330
209
100
AcDbEntity
  8
0
 62
     7
100
AcDbVertex
100
AcDb2dVertex
 10
537.8915912455561
 20
535.3208359029622
 30
0.0
  0
SEQEND
  5
20C
330
209
100
AcDbEntity
  8
0
 62
     7
  0
ENDBLK
  5
208
330
205
100
AcDbEntity
  8
0
100
AcDbBlockEnd
  0
BLOCK
  5
20F
330
20D
100
AcDbEntity
  8
0
100
AcDbBlockBegin
  2
BLOCK_60
 70
     0
 10
0.0
 20
0.0
 30
0.0
  3
BLOCK_60
  1

  0
POLYLINE
  5
211
330
20D
100
AcDbEntity
  8
0
 62
     7
100
AcDb2dPolyline
 66
     1
 10
0.0
 20
0.0
 30
0.0
  0
VERTEX
  5
212
330
211
100
AcDbEntity
  8
0
 62
     7
100
AcDbVertex
100
AcDb2dVertex
 10
537.8915912455561
 20
545.3208359029626
 30
0.0
  0
VERTEX
  5
213
330
211
100
AcDbEntity
  8
0
 62
     7
100
AcDbVertex
100
AcDb2dVertex
 10
531.891591245556
 20
545.3208359029626
 30
0.0
  0
SEQEND
  5
214
330
211
100
AcDbEntity
  8
0
 62
     7
  0
ENDBLK
  5
210
330
20D
100
AcDbEntity
  8
0
100
AcDbBlockEnd
  0
BLOCK
  5
217
330
215
100
AcDbEntity
  8
0
100
AcDbBlockBegin
  2
BLOCK_61
 70
     0
 10
0.0
 20
0.0
 30
0.0
  3
BLOCK_61
  1

  0
POLYLINE
  5
219
330
215
100
AcDbEntity
  8
0
 62
     7
100
AcDb2dPolyline
 66
     1
 10
0.0
 20
0.0
 30
0.0
  0
VERTEX
  5
21A
330
219
100
AcDbEntity
  8
0
 62
     7
100
AcDbVertex
100
AcDb2dVertex
 10
627.8915912455568
 20
550.0876311208588
 30
0.0
  0
VERTEX
  5
21B
330
219
100
AcDbEntity
  8
0
 62
     7
100
AcDbVertex
100
AcDb2dVertex
 10
633.891591245557
 20
550.0876311208588
 30
0.0
  0
SEQEND
  5
21C
330
219
100
AcDbEntity
  8
0
 62
     7
  0
ENDBLK
  5
218
330
215
100
AcDbEntity
  8
0
100
AcDbBlockEnd
  0
BLOCK
  5
21F
330
21D
100
AcDbEntity
  8
0
100
AcDbBlockBegin
  2
BLOCK_62
 70
     0
 10
0.0
 20
0.0
 30
0.0
  3
BLOCK_62
  1

  0
POLYLINE
  5
221
330
21D
100
AcDbEntity
  8
0
 62
     7
100
AcDb2dPolyline
 66
     1
 10
0.0
 20
0.0
 30
0.0
  0
VERTEX
  5
222
330
221
100
AcDbEntity
  8
0
 62
     7
100
AcDbVertex
100
AcDb2dVertex
 10
627.8915912455568
 20
515.320835902963
 30
0.0
  0
VERTEX
  5
223
330
221
100
AcDbEntity
  8
0
 62
     7
100
AcDbVertex
100
AcDb2dVertex
 10
633.891591245557
 20
515.320835902963
 30
0.0
  0
SEQEND
  5
224
330
221
100
AcDbEntity
  8
0
 62
     7
  0
ENDBLK
  5
220
330
21D
100
AcDbEntity
  8
0
100
AcDbBlockEnd
  0
BLOCK
  5
227
330
225
100
AcDbEntity
  8
0
100
AcDbBlockBegin
  2
BLOCK_63
 70
     0
 10
0.0
 20
0.0
 30
0.0
  3
BLOCK_63
  1

  0
POLYLINE
  5
229
330
225
100
AcDbEntity
  8
0
 62
     7
100
AcDb2dPolyline
 66
     1
 10
0.0
 20
0.0
 30
0.0
  0
VERTEX
  5
22A
330
229
100
AcDbEntity
  8
0
 62
     7
100
AcDbVertex
100
AcDb2dVertex
 10
633.891591245557
 20
510.3208359029623
 30
0.0
  0
VERTEX
  5
22B
330
229
100
AcDbEntity
  8
0
 62
     7
100
AcDbVertex
100
AcDb2dVertex
 10
633.891591245557
 20
505.3208359029628
 30
0.0
  0
SEQEND
  5
22C
330
229
100
AcDbEntity
  8
0
 62
     7
  0
ENDBLK
  5
228
330
225
100
AcDbEntity
  8
0
100
AcDbBlockEnd
  0
BLOCK
  5
22F
330
22D
100
AcDbEntity
  8
0
100
AcDbBlockBegin
  2
BLOCK_64
 70
     0
 10
0.0
 20
0.0
 30
0.0
  3
BLOCK_64
  1

  0
POLYLINE
  5
231
330
22D
100
AcDbEntity
  8
0
 62
     7
100
AcDb2dPolyline
 66
     1
 10
0.0
 20
0.0
 30
0.0
  0
VERTEX
  5
232
330
231
100
AcDbEntity
  8
0
 62
     7
100
AcDbVertex
100
AcDb2dVertex
 10
633.891591245557
 20
545.0876311208586
 30
0.0
  0
VERTEX
  5
233
330
231
100
AcDbEntity
  8
0
 62
     7
100
AcDbVertex
100
AcDb2dVertex
 10
633.891591245557
 20
550.0876311208588
 30
0.0
  0
SEQEND
  5
234
330
231
100
AcDbEntity
  8
0
 62
     7
  0
ENDBLK
  5
230
330
22D
100
AcDbEntity
  8
0
100
AcDbBlockEnd
  0
BLOCK
  5
237
330
235
100
AcDbEntity
  8
0
100
AcDbBlockBegin
  2
BLOCK_65
 70
     0
 10
0.0
 20
0.0
 30
0.0
  3
BLOCK_65
  1

  0
POLYLINE
  5
239
330
235
100
AcDbEntity
  8
0
 62
     7
100
AcDb2dPolyline
 66
     1
 10
0.0
 20
0.0
 30
0.0
  0
VERTEX
  5
23A
330
239
100
AcDbEntity
  8
0
 62
     7
100
AcDbVertex
100
AcDb2dVertex
 10
537.8915912455561
 20
550.3208359029627
 30
0.0
  0
VERTEX
  5
23B
330
239
100
AcDbEntity
  8
0
 62
     7
100
AcDbVertex
100
AcDb2dVertex
 10
531.891591245556
 20
550.3208359029627
 30
0.0
  0
SEQEND
  5
23C
330
239
100
AcDbEntity
  8
0
 62
     7
  0
ENDBLK
  5
238
330
235
100
AcDbEntity
  8
0
100
AcDbBlockEnd
  0
BLOCK
  5
23F
330
23D
100
AcDbEntity
  8
0
100
AcDbBlockBegin
  2
BLOCK_66
 70
     0
 10
0.0
 20
0.0
 30
0.0
  3
BLOCK_66
  1

  0
POLYLINE
  5
241
330
23D
100
AcDbEntity
  8
0
 62
     7
100
AcDb2dPolyline
 66
     1
 10
0.0
 20
0.0
 30
0.0
  0
VERTEX
  5
242
330
241
100
AcDbEntity
  8
0
 62
     7
100
AcDbVertex
100
AcDb2dVertex
 10
633.891591245557
 20
545.0876311208586
 30
0.0
  0
VERTEX
  5
243
330
241
100
AcDbEntity
  8
0
 62
     7
100
AcDbVertex
100
AcDb2dVertex
 10
627.8915912455568
 20
545.0876311208586
 30
0.0
  0
SEQEND
  5
244
330
241
100
AcDbEntity
  8
0
 62
     7
  0
ENDBLK
  5
240
330
23D
100
AcDbEntity
  8
0
100
AcDbBlockEnd
  0
BLOCK
  5
247
330
245
100
AcDbEntity
  8
0
100
AcDbBlockBegin
  2
BLOCK_67
 70
     0
 10
0.0
 20
0.0
 30
0.0
  3
BLOCK_67
  1

  0
POLYLINE
  5
249
330
245
100
AcDbEntity
  8
0
 62
     7
100
AcDb2dPolyline
 66
     1
 10
0.0
 20
0.0
 30
0.0
  0
VERTEX
  5
24A
330
249
100
AcDbEntity
  8
0
 62
     7
100
AcDbVertex
100
AcDb2dVertex
 10
633.891591245557
 20
505.3208359029628
 30
0.0
  0
VERTEX
  5
24B
330
249
100
AcDbEntity
  8
0
 62
     7
100
AcDbVertex
100
AcDb2dVertex
 10
633.891591245557
 20
510.3208359029623
 30
0.0
  0
SEQEND
  5
24C
330
249
100
AcDbEntity
  8
0
 62
     7
  0
ENDBLK
  5
248
330
245
100
AcDbEntity
  8
0
100
AcDbBlockEnd
  0
BLOCK
  5
24F
330
24D
100
AcDbEntity
  8
0
100
AcDbBlockBegin
  2
BLOCK_68
 70
     0
 10
0.0
 20
0.0
 30
0.0
  3
BLOCK_68
  1

  0
POLYLINE
  5
251
330
24D
100
AcDbEntity
  8
0
 62
     7
100
AcDb2dPolyline
 66
     1
 10
0.0
 20
0.0
 30
0.0
  0
VERTEX
  5
252
330
251
100
AcDbEntity
  8
0
 62
     7
100
AcDbVertex
100
AcDb2dVertex
 10
633.891591245557
 20
535.3208359029622
 30
0.0
  0
VERTEX
  5
253
330
251
100
AcDbEntity
  8
0
 62
     7
100
AcDbVertex
100
AcDb2dVertex
 10
633.891591245557
 20
540.3208359029624
 30
0.0
  0
SEQEND
  5
254
330
251
100
AcDbEntity
  8
0
 62
     7
  0
ENDBLK
  5
250
330
24D
100
AcDbEntity
  8
0
100
AcDbBlockEnd
  0
BLOCK
  5
257
330
255
100
AcDbEntity
  8
0
100
AcDbBlockBegin
  2
BLOCK_69
 70
     0
 10
0.0
 20
0.0
 30
0.0
  3
BLOCK_69
  1

  0
POLYLINE
  5
259
330
255
100
AcDbEntity
  8
0
 62
     7
100
AcDb2dPolyline
 66
     1
 10
0.0
 20
0.0
 30
0.0
  0
VERTEX
  5
25A
330
259
100
AcDbEntity
  8
0
 62
     7
100
AcDbVertex
100
AcDb2dVertex
 10
531.891591245556
 20
520.3208359029626
 30
0.0
  0
VERTEX
  5
25B
330
259
100
AcDbEntity
  8
0
 62
     7
100
AcDbVertex
100
AcDb2dVertex
 10
537.8915912455561
 20
520.3208359029626
 30
0.0
  0
SEQEND
  5
25C
330
259
100
AcDbEntity
  8
0
 62
     7
  0
ENDBLK
  5
258
330
255
100
AcDbEntity
  8
0
100
AcDbBlockEnd
  0
BLOCK
  5
25F
330
25D
100
AcDbEntity
  8
0
100
AcDbBlockBegin
  2
BLOCK_70
 70
     0
 10
0.0
 20
0.0
 30
0.0
  3
BLOCK_70
  1

  0
POLYLINE
  5
261
330
25D
100
AcDbEntity
  8
0
 62
     7
100
AcDb2dPolyline
 66
     1
 10
0.0
 20
0.0
 30
0.0
  0
VERTEX
  5
262
330
261
100
AcDbEntity
  8
0
 62
     7
100
AcDbVertex
100
AcDb2dVertex
 10
633.891591245557
 20
520.3208359029626
 30
0.0
  0
VERTEX
  5
263
330
261
100
AcDbEntity
  8
0
 62
     7
100
AcDbVertex
100
AcDb2dVertex
 10
633.891591245557
 20
515.320835902963
 30
0.0
  0
SEQEND
  5
264
330
261
100
AcDbEntity
  8
0
 62
     7
  0
ENDBLK
  5
260
330
25D
100
AcDbEntity
  8
0
100
AcDbBlockEnd
  0
BLOCK
  5
267
330
265
100
AcDbEntity
  8
0
100
AcDbBlockBegin
  2
BLOCK_71
 70
     0
 10
0.0
 20
0.0
 30
0.0
  3
BLOCK_71
  1

  0
POLYLINE
  5
269
330
265
100
AcDbEntity
  8
0
 62
     7
100
AcDb2dPolyline
 66
     1
 10
0.0
 20
0.0
 30
0.0
  0
VERTEX
  5
26A
330
269
100
AcDbEntity
  8
0
 62
     7
100
AcDbVertex
100
AcDb2dVertex
 10
627.8915912455568
 20
520.3208359029626
 30
0.0
  0
VERTEX
  5
26B
330
269
100
AcDbEntity
  8
0
 62
     7
100
AcDbVertex
100
AcDb2dVertex
 10
633.891591245557
 20
520.3208359029626
 30
0.0
  0
SEQEND
  5
26C
330
269
100
AcDbEntity
  8
0
 62
     7
  0
ENDBLK
  5
268
330
265
100
AcDbEntity
  8
0
100
AcDbBlockEnd
  0
BLOCK
  5
26F
330
26D
100
AcDbEntity
  8
0
100
AcDbBlockBegin
  2
BLOCK_72
 70
     0
 10
0.0
 20
0.0
 30
0.0
  3
BLOCK_72
  1

  0
POLYLINE
  5
271
330
26D
100
AcDbEntity
  8
0
 62
     7
100
AcDb2dPolyline
 66
     1
 10
0.0
 20
0.0
 30
0.0
  0
VERTEX
  5
272
330
271
100
AcDbEntity
  8
0
 62
     7
100
AcDbVertex
100
AcDb2dVertex
 10
627.8915912455568
 20
525.3208359029625
 30
0.0
  0
VERTEX
  5
273
330
271
100
AcDbEntity
  8
0
 62
     7
100
AcDbVertex
100
AcDb2dVertex
 10
633.891591245557
 20
525.3208359029625
 30
0.0
  0
SEQEND
  5
274
330
271
100
AcDbEntity
  8
0
 62
     7
  0
ENDBLK
  5
270
330
26D
100
AcDbEntity
  8
0
100
AcDbBlockEnd
  0
BLOCK
  5
277
330
275
100
AcDbEntity
  8
0
100
AcDbBlockBegin
  2
BLOCK_73
 70
     0
 10
0.0
 20
0.0
 30
0.0
  3
BLOCK_73
  1

  0
POLYLINE
  5
279
330
275
100
AcDbEntity
  8
0
 62
     7
100
AcDb2dPolyline
 66
     1
 10
0.0
 20
0.0
 30
0.0
  0
VERTEX
  5
27A
330
279
100
AcDbEntity
  8
0
 62
     7
100
AcDbVertex
100
AcDb2dVertex
 10
633.891591245557
 20
540.3208359029624
 30
0.0
  0
VERTEX
  5
27B
330
279
100
AcDbEntity
  8
0
 62
     7
100
AcDbVertex
100
AcDb2dVertex
 10
633.891591245557
 20
535.3208359029622
 30
0.0
  0
SEQEND
  5
27C
330
279
100
AcDbEntity
  8
0
 62
     7
  0
ENDBLK
  5
278
330
275
100
AcDbEntity
  8
0
100
AcDbBlockEnd
  0
BLOCK
  5
27F
330
27D
100
AcDbEntity
  8
0
100
AcDbBlockBegin
  2
BLOCK_74
 70
     0
 10
0.0
 20
0.0
 30
0.0
  3
BLOCK_74
  1

  0
POLYLINE
  5
281
330
27D
100
AcDbEntity
  8
0
 62
     7
100
AcDb2dPolyline
 66
     1
 10
0.0
 20
0.0
 30
0.0
  0
VERTEX
  5
282
330
281
100
AcDbEntity
  8
0
 62
     7
100
AcDbVertex
100
AcDb2dVertex
 10
627.8915912455568
 20
535.3208359029622
 30
0.0
  0
VERTEX
  5
283
330
281
100
AcDbEntity
  8
0
 62
     7
100
AcDbVertex
100
AcDb2dVertex
 10
633.891591245557
 20
535.3208359029622
 30
0.0
  0
SEQEND
  5
284
330
281
100
AcDbEntity
  8
0
 62
     7
  0
ENDBLK
  5
280
330
27D
100
AcDbEntity
  8
0
100
AcDbBlockEnd
  0
BLOCK
  5
287
330
285
100
AcDbEntity
  8
0
100
AcDbBlockBegin
  2
BLOCK_75
 70
     0
 10
0.0
 20
0.0
 30
0.0
  3
BLOCK_75
  1

  0
POLYLINE
  5
289
330
285
100
AcDbEntity
  8
0
 62
     7
100
AcDb2dPolyline
 66
     1
 10
0.0
 20
0.0
 30
0.0
  0
VERTEX
  5
28A
330
289
100
AcDbEntity
  8
0
 62
     7
100
AcDbVertex
100
AcDb2dVertex
 10
633.891591245557
 20
525.3208359029625
 30
0.0
  0
VERTEX
  5
28B
330
289
100
AcDbEntity
  8
0
 62
     7
100
AcDbVertex
100
AcDb2dVertex
 10
633.891591245557
 20
530.3208359029627
 30
0.0
  0
SEQEND
  5
28C
330
289
100
AcDbEntity
  8
0
 62
     7
  0
ENDBLK
  5
288
330
285
100
AcDbEntity
  8
0
100
AcDbBlockEnd
  0
BLOCK
  5
28F
330
28D
100
AcDbEntity
  8
0
100
AcDbBlockBegin
  2
BLOCK_76
 70
     0
 10
0.0
 20
0.0
 30
0.0
  3
BLOCK_76
  1

  0
POLYLINE
  5
291
330
28D
100
AcDbEntity
  8
0
 62
     7
100
AcDb2dPolyline
 66
     1
 10
0.0
 20
0.0
 30
0.0
  0
VERTEX
  5
292
330
291
100
AcDbEntity
  8
0
 62
     7
100
AcDbVertex
100
AcDb2dVertex
 10
531.891591245556
 20
530.3208359029627
 30
0.0
  0
VERTEX
  5
293
330
291
100
AcDbEntity
  8
0
 62
     7
100
AcDbVertex
100
AcDb2dVertex
 10
531.891591245556
 20
525.3208359029625
 30
0.0
  0
SEQEND
  5
294
330
291
100
AcDbEntity
  8
0
 62
     7
  0
ENDBLK
  5
290
330
28D
100
AcDbEntity
  8
0
100
AcDbBlockEnd
  0
BLOCK
  5
297
330
295
100
AcDbEntity
  8
0
100
AcDbBlockBegin
  2
BLOCK_77
 70
     0
 10
0.0
 20
0.0
 30
0.0
  3
BLOCK_77
  1

  0
POLYLINE
  5
299
330
295
100
AcDbEntity
  8
0
 62
     7
100
AcDb2dPolyline
 66
     1
 10
0.0
 20
0.0
 30
0.0
  0
VERTEX
  5
29A
330
299
100
AcDbEntity
  8
0
 62
     7
100
AcDbVertex
100
AcDb2dVertex
 10
627.8915912455568
 20
505.3208359029628
 30
0.0
  0
VERTEX
  5
29B
330
299
100
AcDbEntity
  8
0
 62
     7
100
AcDbVertex
100
AcDb2dVertex
 10
633.891591245557
 20
505.3208359029628
 30
0.0
  0
SEQEND
  5
29C
330
299
100
AcDbEntity
  8
0
 62
     7
  0
ENDBLK
  5
298
330
295
100
AcDbEntity
  8
0
100
AcDbBlockEnd
  0
BLOCK
  5
29F
330
29D
100
AcDbEntity
  8
0
100
AcDbBlockBegin
  2
BLOCK_78
 70
     0
 10
0.0
 20
0.0
 30
0.0
  3
BLOCK_78
  1

  0
POLYLINE
  5
2A1
330
29D
100
AcDbEntity
  8
0
 62
     7
100
AcDb2dPolyline
 66
     1
 10
0.0
 20
0.0
 30
0.0
  0
VERTEX
  5
2A2
330
2A1
100
AcDbEntity
  8
0
 62
     7
100
AcDbVertex
100
AcDb2dVertex
 10
633.891591245557
 20
515.320835902963
 30
0.0
  0
VERTEX
  5
2A3
330
2A1
100
AcDbEntity
  8
0
 62
     7
100
AcDbVertex
100
AcDb2dVertex
 10
633.891591245557
 20
520.3208359029626
 30
0.0
  0
SEQEND
  5
2A4
330
2A1
100
AcDbEntity
  8
0
 62
     7
  0
ENDBLK
  5
2A0
330
29D
100
AcDbEntity
  8
0
100
AcDbBlockEnd
  0
BLOCK
  5
2A7
330
2A5
100
AcDbEntity
  8
0
100
AcDbBlockBegin
  2
BLOCK_79
 70
     0
 10
0.0
 20
0.0
 30
0.0
  3
BLOCK_79
  1

  0
POLYLINE
  5
2A9
330
2A5
100
AcDbEntity
  8
0
 62
     7
100
AcDb2dPolyline
 66
     1
 10
0.0
 20
0.0
 30
0.0
  0
VERTEX
  5
2AA
330
2A9
100
AcDbEntity
  8
0
 62
     7
100
AcDbVertex
100
AcDb2dVertex
 10
543.8915912455564
 20
495.3208359029624
 30
0.0
  0
VERTEX
  5
2AB
330
2A9
100
AcDbEntity
  8
0
 62
     7
100
AcDbVertex
100
AcDb2dVertex
 10
531.891591245556
 20
495.3208359029624
 30
0.0
  0
SEQEND
  5
2AC
330
2A9
100
AcDbEntity
  8
0
 62
     7
  0
ENDBLK
  5
2A8
330
2A5
100
AcDbEntity
  8
0
100
AcDbBlockEnd
  0
BLOCK
  5
2AF
330
2AD
100
AcDbEntity
  8
0
100
AcDbBlockBegin
  2
BLOCK_80
 70
     0
 10
0.0
 20
0.0
 30
0.0
  3
BLOCK_80
  1

  0
POLYLINE
  5
2B1
330
2AD
100
AcDbEntity
  8
0
 62
     7
100
AcDb2dPolyline
 66
     1
 10
0.0
 20
0.0
 30
0.0
  0
VERTEX
  5
2B2
330
2B1
100
AcDbEntity
  8
0
 62
     7
100
AcDbVertex
100
AcDb2dVertex
 10
531.891591245556
 20
545.3208359029626
 30
0.0
  0
VERTEX
  5
2B3
330
2B1
100
AcDbEntity
  8
0
 62
     7
100
AcDbVertex
100
AcDb2dVertex
 10
537.8915912455561
 20
545.3208359029626
 30
0.0
  0
SEQEND
  5
2B4
330
2B1
100
AcDbEntity
  8
0
 62
     7
  0
ENDBLK
  5
2B0
330
2AD
100
AcDbEntity
  8
0
100
AcDbBlockEnd
  0
BLOCK
  5
2B7
330
2B5
100
AcDbEntity
  8
0
100
AcDbBlockBegin
  2
BLOCK_81
 70
     0
 10
0.0
 20
0.0
 30
0.0
  3
BLOCK_81
  1

  0
POLYLINE
  5
2B9
330
2B5
100
AcDbEntity
  8
0
 62
     7
100
AcDb2dPolyline
 66
     1
 10
0.0
 20
0.0
 30
0.0
  0
VERTEX
  5
2BA
330
2B9
100
AcDbEntity
  8
0
 62
     7
100
AcDbVertex
100
AcDb2dVertex
 10
633.891591245557
 20
500.3208359029632
 30
0.0
  0
VERTEX
  5
2BB
330
2B9
100
AcDbEntity
  8
0
 62
     7
100
AcDbVertex
100
AcDb2dVertex
 10
627.8915912455568
 20
500.3208359029632
 30
0.0
  0
SEQEND
  5
2BC
330
2B9
100
AcDbEntity
  8
0
 62
     7
  0
ENDBLK
  5
2B8
330
2B5
100
AcDbEntity
  8
0
100
AcDbBlockEnd
  0
BLOCK
  5
2BF
330
2BD
100
AcDbEntity
  8
0
100
AcDbBlockBegin
  2
BLOCK_82
 70
     0
 10
0.0
 20
0.0
 30
0.0
  3
BLOCK_82
  1

  0
POLYLINE
  5
2C1
330
2BD
100
AcDbEntity
  8
0
 62
     7
100
AcDb2dPolyline
 66
     1
 10
0.0
 20
0.0
 30
0.0
  0
VERTEX
  5
2C2
330
2C1
100
AcDbEntity
  8
0
 62
     7
100
AcDbVertex
100
AcDb2dVertex
 10
633.891591245557
 20
540.8811250772869
 30
0.0
  0
VERTEX
  5
2C3
330
2C1
100
AcDbEntity
  8
0
 62
     7
100
AcDbVertex
100
AcDb2dVertex
 10
633.891591245557
 20
540.3208359029624
 30
0.0
  0
SEQEND
  5
2C4
330
2C1
100
AcDbEntity
  8
0
 62
     7
  0
ENDBLK
  5
2C0
330
2BD
100
AcDbEntity
  8
0
100
AcDbBlockEnd
  0
BLOCK
  5
2C7
330
2C5
100
AcDbEntity
  8
0
100
AcDbBlockBegin
  2
BLOCK_83
 70
     0
 10
0.0
 20
0.0
 30
0.0
  3
BLOCK_83
  1

  0
POLYLINE
  5
2C9
330
2C5
100
AcDbEntity
  8
0
 62
     7
100
AcDb2dPolyline
 66
     1
 10
0.0
 20
0.0
 30
0.0
  0
VERTEX
  5
2CA
330
2C9
100
AcDbEntity
  8
0
 62
     7
100
AcDbVertex
100
AcDb2dVertex
 10
531.891591245556
 20
495.3208359029624
 30
0.0
  0
VERTEX
  5
2CB
330
2C9
100
AcDbEntity
  8
0
 62
     7
100
AcDbVertex
100
AcDb2dVertex
 10
633.891591245557
 20
495.3208359029624
 30
0.0
  0
SEQEND
  5
2CC
330
2C9
100
AcDbEntity
  8
0
 62
     7
  0
ENDBLK
  5
2C8
330
2C5
100
AcDbEntity
  8
0
100
AcDbBlockEnd
  0
BLOCK
  5
2CF
330
2CD
100
AcDbEntity
  8
0
100
AcDbBlockBegin
  2
BLOCK_84
 70
     0
 10
0.0
 20
0.0
 30
0.0
  3
BLOCK_84
  1

  0
POLYLINE
  5
2D1
330
2CD
100
AcDbEntity
  8
0
 62
     7
100
AcDb2dPolyline
 66
     1
 10
0.0
 20
0.0
 30
0.0
  0
VERTEX
  5
2D2
330
2D1
100
AcDbEntity
  8
0
 62
     7
100
AcDbVertex
100
AcDb2dVertex
 10
621.8915912455566
 20
555.3208359029622
 30
0.0
  0
VERTEX
  5
2D3
330
2D1
100
AcDbEntity
  8
0
 62
     7
100
AcDbVertex
100
AcDb2dVertex
 10
543.8915912455564
 20
555.3208359029622
 30
0.0
  0
SEQEND
  5
2D4
330
2D1
100
AcDbEntity
  8
0
 62
     7
  0
ENDBLK
  5
2D0
330
2CD
100
AcDbEntity
  8
0
100
AcDbBlockEnd
  0
BLOCK
  5
2D7
330
2D5
100
AcDbEntity
  8
0
100
AcDbBlockBegin
  2
BLOCK_85
 70
     0
 10
0.0
 20
0.0
 30
0.0
  3
BLOCK_85
  1

  0
POLYLINE
  5
2D9
330
2D5
100
AcDbEntity
  8
0
 62
     7
100
AcDb2dPolyline
 66
     1
 10
0.0
 20
0.0
 30
0.0
  0
VERTEX
  5
2DA
330
2D9
100
AcDbEntity
  8
0
 62
     7
100
AcDbVertex
100
AcDb2dVertex
 10
633.891591245557
 20
495.3208359029624
 30
0.0
  0
VERTEX
  5
2DB
330
2D9
100
AcDbEntity
  8
0
 62
     7
100
AcDbVertex
100
AcDb2dVertex
 10
633.891591245557
 20
500.3208359029632
 30
0.0
  0
SEQEND
  5
2DC
330
2D9
100
AcDbEntity
  8
0
 62
     7
  0
ENDBLK
  5
2D8
330
2D5
100
AcDbEntity
  8
0
100
AcDbBlockEnd
  0
BLOCK
  5
2DF
330
2DD
100
AcDbEntity
  8
0
100
AcDbBlockBegin
  2
BLOCK_86
 70
     0
 10
0.0
 20
0.0
 30
0.0
  3
BLOCK_86
  1

  0
POLYLINE
  5
2E1
330
2DD
100
AcDbEntity
  8
0
 62
     7
100
AcDb2dPolyline
 66
     1
 10
0.0
 20
0.0
 30
0.0
  0
VERTEX
  5
2E2
330
2E1
100
AcDbEntity
  8
0
 62
     7
100
AcDbVertex
100
AcDb2dVertex
 10
627.8915912455568
 20
510.3208359029623
 30
0.0
  0
VERTEX
  5
2E3
330
2E1
100
AcDbEntity
  8
0
 62
     7
100
AcDbVertex
100
AcDb2dVertex
 10
633.891591245557
 20
510.3208359029623
 30
0.0
  0
SEQEND
  5
2E4
330
2E1
100
AcDbEntity
  8
0
 62
     7
  0
ENDBLK
  5
2E0
330
2DD
100
AcDbEntity
  8
0
100
AcDbBlockEnd
  0
BLOCK
  5
2E7
330
2E5
100
AcDbEntity
  8
0
100
AcDbBlockBegin
  2
BLOCK_87
 70
     0
 10
0.0
 20
0.0
 30
0.0
  3
BLOCK_87
  1

  0
POLYLINE
  5
2E9
330
2E5
100
AcDbEntity
  8
0
 62
     7
100
AcDb2dPolyline
 66
     1
 10
0.0
 20
0.0
 30
0.0
  0
VERTEX
  5
2EA
330
2E9
100
AcDbEntity
  8
0
 62
     7
100
AcDbVertex
100
AcDb2dVertex
 10
537.8915912455561
 20
530.3208359029627
 30
0.0
  0
VERTEX
  5
2EB
330
2E9
100
AcDbEntity
  8
0
 62
     7
100
AcDbVertex
100
AcDb2dVertex
 10
531.891591245556
 20
530.3208359029627
 30
0.0
  0
SEQEND
  5
2EC
330
2E9
100
AcDbEntity
  8
0
 62
     7
  0
ENDBLK
  5
2E8
330
2E5
100
AcDbEntity
  8
0
100
AcDbBlockEnd
  0
BLOCK
  5
2EF
330
2ED
100
AcDbEntity
  8
0
100
AcDbBlockBegin
  2
BLOCK_88
 70
     0
 10
0.0
 20
0.0
 30
0.0
  3
BLOCK_88
  1

  0
POLYLINE
  5
2F1
330
2ED
100
AcDbEntity
  8
0
 62
     7
100
AcDb2dPolyline
 66
     1
 10
0.0
 20
0.0
 30
0.0
  0
VERTEX
  5
2F2
330
2F1
100
AcDbEntity
  8
0
 62
     7
100
AcDbVertex
100
AcDb2dVertex
 10
531.891591245556
 20
540.3208359029624
 30
0.0
  0
VERTEX
  5
2F3
330
2F1
100
AcDbEntity
  8
0
 62
     7
100
AcDbVertex
100
AcDb2dVertex
 10
531.891591245556
 20
535.3208359029622
 30
0.0
  0
SEQEND
  5
2F4
330
2F1
100
AcDbEntity
  8
0
 62
     7
  0
ENDBLK
  5
2F0
330
2ED
100
AcDbEntity
  8
0
100
AcDbBlockEnd
  0
BLOCK
  5
2F7
330
2F5
100
AcDbEntity
  8
0
100
AcDbBlockBegin
  2
BLOCK_89
 70
     0
 10
0.0
 20
0.0
 30
0.0
  3
BLOCK_89
  1

  0
POLYLINE
  5
2F9
330
2F5
100
AcDbEntity
  8
0
 62
     7
100
AcDb2dPolyline
 66
     1
 10
0.0
 20
0.0
 30
0.0
  0
VERTEX
  5
2FA
330
2F9
100
AcDbEntity
  8
0
 62
     7
100
AcDbVertex
100
AcDb2dVertex
 10
537.8915912455561
 20
515.320835902963
 30
0.0
  0
VERTEX
  5
2FB
330
2F9
100
AcDbEntity
  8
0
 62
     7
100
AcDbVertex
100
AcDb2dVertex
 10
531.891591245556
 20
515.320835902963
 30
0.0
  0
SEQEND
  5
2FC
330
2F9
100
AcDbEntity
  8
0
 62
     7
  0
ENDBLK
  5
2F8
330
2F5
100
AcDbEntity
  8
0
100
AcDbBlockEnd
  0
BLOCK
  5
2FF
330
2FD
100
AcDbEntity
  8
0
100
AcDbBlockBegin
  2
BLOCK_90
 70
     0
 10
0.0
 20
0.0
 30
0.0
  3
BLOCK_90
  1

  0
POLYLINE
  5
301
330
2FD
100
AcDbEntity
  8
0
 62
     7
100
AcDb2dPolyline
 66
     1
 10
0.0
 20
0.0
 30
0.0
  0
VERTEX
  5
302
330
301
100
AcDbEntity
  8
0
 62
     7
100
AcDbVertex
100
AcDb2dVertex
 10
531.891591245556
 20
500.3208359029632
 30
0.0
  0
VERTEX
  5
303
330
301
100
AcDbEntity
  8
0
 62
     7
100
AcDbVertex
100
AcDb2dVertex
 10
531.891591245556
 20
495.3208359029624
 30
0.0
  0
SEQEND
  5
304
330
301
100
AcDbEntity
  8
0
 62
     7
  0
ENDBLK
  5
300
330
2FD
100
AcDbEntity
  8
0
100
AcDbBlockEnd
  0
BLOCK
  5
307
330
305
100
AcDbEntity
  8
0
100
AcDbBlockBegin
  2
BLOCK_91
 70
     0
 10
0.0
 20
0.0
 30
0.0
  3
BLOCK_91
  1

  0
POLYLINE
  5
309
330
305
100
AcDbEntity
  8
0
 62
     7
100
AcDb2dPolyline
 66
     1
 10
0.0
 20
0.0
 30
0.0
  0
VERTEX
  5
30A
330
309
100
AcDbEntity
  8
0
 62
     7
100
AcDbVertex
100
AcDb2dVertex
 10
531.891591245556
 20
550.3208359029627
 30
0.0
  0
VERTEX
  5
30B
330
309
100
AcDbEntity
  8
0
 62
     7
100
AcDbVertex
100
AcDb2dVertex
 10
531.891591245556
 20
545.3208359029626
 30
0.0
  0
SEQEND
  5
30C
330
309
100
AcDbEntity
  8
0
 62
     7
  0
ENDBLK
  5
308
330
305
100
AcDbEntity
  8
0
100
AcDbBlockEnd
  0
BLOCK
  5
30F
330
30D
100
AcDbEntity
  8
0
100
AcDbBlockBegin
  2
BLOCK_92
 70
     0
 10
0.0
 20
0.0
 30
0.0
  3
BLOCK_92
  1

  0
POLYLINE
  5
311
330
30D
100
AcDbEntity
  8
0
 62
     7
100
AcDb2dPolyline
 66
     1
 10
0.0
 20
0.0
 30
0.0
  0
VERTEX
  5
312
330
311
100
AcDbEntity
  8
0
 62
     7
100
AcDbVertex
100
AcDb2dVertex
 10
621.8915912455566
 20
495.3208359029624
 30
0.0
  0
VERTEX
  5
313
330
311
100
AcDbEntity
  8
0
 62
     7
100
AcDbVertex
100
AcDb2dVertex
 10
633.891591245557
 20
495.3208359029624
 30
0.0
  0
SEQEND
  5
314
330
311
100
AcDbEntity
  8
0
 62
     7
  0
ENDBLK
  5
310
330
30D
100
AcDbEntity
  8
0
100
AcDbBlockEnd
  0
BLOCK
  5
317
330
315
100
AcDbEntity
  8
0
100
AcDbBlockBegin
  2
BLOCK_93
 70
     0
 10
0.0
 20
0.0
 30
0.0
  3
BLOCK_93
  1

  0
POLYLINE
  5
319
330
315
100
AcDbEntity
  8
0
 62
     7
100
AcDb2dPolyline
 66
     1
 10
0.0
 20
0.0
 30
0.0
  0
VERTEX
  5
31A
330
319
100
AcDbEntity
  8
0
 62
     7
100
AcDbVertex
100
AcDb2dVertex
 10
531.891591245556
 20
515.320835902963
 30
0.0
  0
VERTEX
  5
31B
330
319
100
AcDbEntity
  8
0
 62
     7
100
AcDbVertex
100
AcDb2dVertex
 10
537.8915912455561
 20
515.320835902963
 30
0.0
  0
SEQEND
  5
31C
330
319
100
AcDbEntity
  8
0
 62
     7
  0
ENDBLK
  5
318
330
315
100
AcDbEntity
  8
0
100
AcDbBlockEnd
  0
BLOCK
  5
31F
330
31D
100
AcDbEntity
  8
0
100
AcDbBlockBegin
  2
BLOCK_94
 70
     0
 10
0.0
 20
0.0
 30
0.0
  3
BLOCK_94
  1

  0
POLYLINE
  5
321
330
31D
100
AcDbEntity
  8
0
 62
     7
100
AcDb2dPolyline
 66
     1
 10
0.0
 20
0.0
 30
0.0
  0
VERTEX
  5
322
330
321
100
AcDbEntity
  8
0
 62
     7
100
AcDbVertex
100
AcDb2dVertex
 10
627.8915912455568
 20
545.0876311208586
 30
0.0
  0
VERTEX
  5
323
330
321
100
AcDbEntity
  8
0
 62
     7
100
AcDbVertex
100
AcDb2dVertex
 10
633.891591245557
 20
545.0876311208586
 30
0.0
  0
SEQEND
  5
324
330
321
100
AcDbEntity
  8
0
 62
     7
  0
ENDBLK
  5
320
330
31D
100
AcDbEntity
  8
0
100
AcDbBlockEnd
  0
BLOCK
  5
327
330
325
100
AcDbEntity
  8
0
100
AcDbBlockBegin
  2
BLOCK_95
 70
     0
 10
0.0
 20
0.0
 30
0.0
  3
BLOCK_95
  1

  0
POLYLINE
  5
329
330
325
100
AcDbEntity
  8
0
 62
     7
100
AcDb2dPolyline
 66
     1
 10
0.0
 20
0.0
 30
0.0
  0
VERTEX
  5
32A
330
329
100
AcDbEntity
  8
0
 62
     7
100
AcDbVertex
100
AcDb2dVertex
 10
531.891591245556
 20
530.3208359029627
 30
0.0
  0
VERTEX
  5
32B
330
329
100
AcDbEntity
  8
0
 62
     7
100
AcDbVertex
100
AcDb2dVertex
 10
537.8915912455561
 20
530.3208359029627
 30
0.0
  0
SEQEND
  5
32C
330
329
100
AcDbEntity
  8
0
 62
     7
  0
ENDBLK
  5
328
330
325
100
AcDbEntity
  8
0
100
AcDbBlockEnd
  0
BLOCK
  5
32F
330
32D
100
AcDbEntity
  8
0
100
AcDbBlockBegin
  2
BLOCK_96
 70
     0
 10
0.0
 20
0.0
 30
0.0
  3
BLOCK_96
  1

  0
POLYLINE
  5
331
330
32D
100
AcDbEntity
  8
0
 62
     7
100
AcDb2dPolyline
 66
     1
 10
0.0
 20
0.0
 30
0.0
  0
VERTEX
  5
332
330
331
100
AcDbEntity
  8
0
 62
     7
100
AcDbVertex
100
AcDb2dVertex
 10
627.8915912455568
 20
530.3208359029627
 30
0.0
  0
VERTEX
  5
333
330
331
100
AcDbEntity
  8
0
 62
     7
100
AcDbVertex
100
AcDb2dVertex
 10
633.891591245557
 20
530.3208359029627
 30
0.0
  0
SEQEND
  5
334
330
331
100
AcDbEntity
  8
0
 62
     7
  0
ENDBLK
  5
330
330
32D
100
AcDbEntity
  8
0
100
AcDbBlockEnd
  0
BLOCK
  5
337
330
335
100
AcDbEntity
  8
0
100
AcDbBlockBegin
  2
BLOCK_97
 70
     0
 10
0.0
 20
0.0
 30
0.0
  3
BLOCK_97
  1

  0
POLYLINE
  5
339
330
335
100
AcDbEntity
  8
0
 62
     7
100
AcDb2dPolyline
 66
     1
 10
0.0
 20
0.0
 30
0.0
  0
VERTEX
  5
33A
330
339
100
AcDbEntity
  8
0
 62
     7
100
AcDbVertex
100
AcDb2dVertex
 10
531.891591245556
 20
540.3208359029624
 30
0.0
  0
VERTEX
  5
33B
330
339
100
AcDbEntity
  8
0
 62
     7
100
AcDbVertex
100
AcDb2dVertex
 10
537.8915912455561
 20
540.3208359029624
 30
0.0
  0
SEQEND
  5
33C
330
339
100
AcDbEntity
  8
0
 62
     7
  0
ENDBLK
  5
338
330
335
100
AcDbEntity
  8
0
100
AcDbBlockEnd
  0
BLOCK
  5
33F
330
33D
100
AcDbEntity
  8
0
100
AcDbBlockBegin
  2
BLOCK_98
 70
     0
 10
0.0
 20
0.0
 30
0.0
  3
BLOCK_98
  1

  0
POLYLINE
  5
341
330
33D
100
AcDbEntity
  8
0
 62
     7
100
AcDb2dPolyline
 66
     1
 10
0.0
 20
0.0
 30
0.0
  0
VERTEX
  5
342
330
341
100
AcDbEntity
  8
0
 62
     7
100
AcDbVertex
100
AcDb2dVertex
 10
537.8915912455561
 20
535.3208359029622
 30
0.0
  0
VERTEX
  5
343
330
341
100
AcDbEntity
  8
0
 62
     7
100
AcDbVertex
100
AcDb2dVertex
 10
531.891591245556
 20
535.3208359029622
 30
0.0
  0
SEQEND
  5
344
330
341
100
AcDbEntity
  8
0
 62
     7
  0
ENDBLK
  5
340
330
33D
100
AcDbEntity
  8
0
100
AcDbBlockEnd
  0
BLOCK
  5
347
330
345
100
AcDbEntity
  8
0
100
AcDbBlockBegin
  2
BLOCK_99
 70
     0
 10
0.0
 20
0.0
 30
0.0
  3
BLOCK_99
  1

  0
POLYLINE
  5
349
330
345
100
AcDbEntity
  8
0
 62
     7
100
AcDb2dPolyline
 66
     1
 10
0.0
 20
0.0
 30
0.0
  0
VERTEX
  5
34A
330
349
100
AcDbEntity
  8
0
 62
     7
100
AcDbVertex
100
AcDb2dVertex
 10
531.891591245556
 20
525.3208359029625
 30
0.0
  0
VERTEX
  5
34B
330
349
100
AcDbEntity
  8
0
 62
     7
100
AcDbVertex
100
AcDb2dVertex
 10
537.8915912455561
 20
525.3208359029625
 30
0.0
  0
SEQEND
  5
34C
330
349
100
AcDbEntity
  8
0
 62
     7
  0
ENDBLK
  5
348
330
345
100
AcDbEntity
  8
0
100
AcDbBlockEnd
  0
BLOCK
  5
34F
330
34D
100
AcDbEntity
  8
0
100
AcDbBlockBegin
  2
BLOCK_100
 70
     0
 10
0.0
 20
0.0
 30
0.0
  3
BLOCK_100
  1

  0
POLYLINE
  5
351
330
34D
100
AcDbEntity
  8
0
 62
     7
100
AcDb2dPolyline
 66
     1
 10
0.0
 20
0.0
 30
0.0
  0
VERTEX
  5
352
330
351
100
AcDbEntity
  8
0
 62
     7
100
AcDbVertex
100
AcDb2dVertex
 10
537.8915912455561
 20
520.3208359029626
 30
0.0
  0
VERTEX
  5
353
330
351
100
AcDbEntity
  8
0
 62
     7
100
AcDbVertex
100
AcDb2dVertex
 10
531.891591245556
 20
520.3208359029626
 30
0.0
  0
SEQEND
  5
354
330
351
100
AcDbEntity
  8
0
 62
     7
  0
ENDBLK
  5
350
330
34D
100
AcDbEntity
  8
0
100
AcDbBlockEnd
  0
BLOCK
  5
357
330
355
100
AcDbEntity
  8
0
100
AcDbBlockBegin
  2
BLOCK_101
 70
     0
 10
0.0
 20
0.0
 30
0.0
  3
BLOCK_101
  1

  0
POLYLINE
  5
359
330
355
100
AcDbEntity
  8
0
 62
     7
100
AcDb2dPolyline
 66
     1
 10
0.0
 20
0.0
 30
0.0
  0
VERTEX
  5
35A
330
359
100
AcDbEntity
  8
0
 62
     7
100
AcDbVertex
100
AcDb2dVertex
 10
531.891591245556
 20
520.3208359029626
 30
0.0
  0
VERTEX
  5
35B
330
359
100
AcDbEntity
  8
0
 62
     7
100
AcDbVertex
100
AcDb2dVertex
 10
531.891591245556
 20
515.320835902963
 30
0.0
  0
SEQEND
  5
35C
330
359
100
AcDbEntity
  8
0
 62
     7
  0
ENDBLK
  5
358
330
355
100
AcDbEntity
  8
0
100
AcDbBlockEnd
  0
BLOCK
  5
35F
330
35D
100
AcDbEntity
  8
0
100
AcDbBlockBegin
  2
BLOCK_102
 70
     0
 10
0.0
 20
0.0
 30
0.0
  3
BLOCK_102
  1

  0
POLYLINE
  5
361
330
35D
100
AcDbEntity
  8
0
 62
     7
100
AcDb2dPolyline
 66
     1
 10
0.0
 20
0.0
 30
0.0
  0
VERTEX
  5
362
330
361
100
AcDbEntity
  8
0
 62
     7
100
AcDbVertex
100
AcDb2dVertex
 10
633.891591245557
 20
550.0876311208588
 30
0.0
  0
VERTEX
  5
363
330
361
100
AcDbEntity
  8
0
 62
     7
100
AcDbVertex
100
AcDb2dVertex
 10
633.891591245557
 20
545.0876311208586
 30
0.0
  0
SEQEND
  5
364
330
361
100
AcDbEntity
  8
0
 62
     7
  0
ENDBLK
  5
360
330
35D
100
AcDbEntity
  8
0
100
AcDbBlockEnd
  0
BLOCK
  5
367
330
365
100
AcDbEntity
  8
0
100
AcDbBlockBegin
  2
BLOCK_103
 70
     0
 10
0.0
 20
0.0
 30
0.0
  3
BLOCK_103
  1

  0
POLYLINE
  5
369
330
365
100
AcDbEntity
  8
0
 62
     7
100
AcDb2dPolyline
 66
     1
 10
0.0
 20
0.0
 30
0.0
  0
VERTEX
  5
36A
330
369
100
AcDbEntity
  8
0
 62
     7
100
AcDbVertex
100
AcDb2dVertex
 10
633.891591245557
 20
505.3208359029628
 30
0.0
  0
VERTEX
  5
36B
330
369
100
AcDbEntity
  8
0
 62
     7
100
AcDbVertex
100
AcDb2dVertex
 10
627.8915912455568
 20
505.3208359029628
 30
0.0
  0
SEQEND
  5
36C
330
369
100
AcDbEntity
  8
0
 62
     7
  0
ENDBLK
  5
368
330
365
100
AcDbEntity
  8
0
100
AcDbBlockEnd
  0
BLOCK
  5
36F
330
36D
100
AcDbEntity
  8
0
100
AcDbBlockBegin
  2
BLOCK_104
 70
     0
 10
0.0
 20
0.0
 30
0.0
  3
BLOCK_104
  1

  0
POLYLINE
  5
371
330
36D
100
AcDbEntity
  8
0
 62
     7
100
AcDb2dPolyline
 66
     1
 10
0.0
 20
0.0
 30
0.0
  0
VERTEX
  5
372
330
371
100
AcDbEntity
  8
0
 62
     7
100
AcDbVertex
100
AcDb2dVertex
 10
633.891591245557
 20
515.320835902963
 30
0.0
  0
VERTEX
  5
373
330
371
100
AcDbEntity
  8
0
 62
     7
100
AcDbVertex
100
AcDb2dVertex
 10
627.8915912455568
 20
515.320835902963
 30
0.0
  0
SEQEND
  5
374
330
371
100
AcDbEntity
  8
0
 62
     7
  0
ENDBLK
  5
370
330
36D
100
AcDbEntity
  8
0
100
AcDbBlockEnd
  0
BLOCK
  5
377
330
375
100
AcDbEntity
  8
0
100
AcDbBlockBegin
  2
BLOCK_105
 70
     0
 10
0.0
 20
0.0
 30
0.0
  3
BLOCK_105
  1

  0
POLYLINE
  5
379
330
375
100
AcDbEntity
  8
0
 62
     7
100
AcDb2dPolyline
 66
     1
 10
0.0
 20
0.0
 30
0.0
  0
VERTEX
  5
37A
330
379
100
AcDbEntity
  8
0
 62
     7
100
AcDbVertex
100
AcDb2dVertex
 10
531.891591245556
 20
540.3208359029624
 30
0.0
  0
VERTEX
  5
37B
330
379
100
AcDbEntity
  8
0
 62
     7
100
AcDbVertex
100
AcDb2dVertex
 10
531.891591245556
 20
535.3208359029622
 30
0.0
  0
SEQEND
  5
37C
330
379
100
AcDbEntity
  8
0
 62
     7
  0
ENDBLK
  5
378
330
375
100
AcDbEntity
  8
0
100
AcDbBlockEnd
  0
BLOCK
  5
37F
330
37D
100
AcDbEntity
  8
0
100
AcDbBlockBegin
  2
BLOCK_106
 70
     0
 10
0.0
 20
0.0
 30
0.0
  3
BLOCK_106
  1

  0
POLYLINE
  5
381
330
37D
100
AcDbEntity
  8
0
 62
     7
100
AcDb2dPolyline
 66
     1
 10
0.0
 20
0.0
 30
0.0
  0
VERTEX
  5
382
330
381
100
AcDbEntity
  8
0
 62
     7
100
AcDbVertex
100
AcDb2dVertex
 10
633.891591245557
 20
530.3208359029627
 30
0.0
  0
VERTEX
  5
383
330
381
100
AcDbEntity
  8
0
 62
     7
100
AcDbVertex
100
AcDb2dVertex
 10
633.891591245557
 20
525.3208359029625
 30
0.0
  0
SEQEND
  5
384
330
381
100
AcDbEntity
  8
0
 62
     7
  0
ENDBLK
  5
380
330
37D
100
AcDbEntity
  8
0
100
AcDbBlockEnd
  0
BLOCK
  5
387
330
385
100
AcDbEntity
  8
0
100
AcDbBlockBegin
  2
BLOCK_107
 70
     0
 10
0.0
 20
0.0
 30
0.0
  3
BLOCK_107
  1

  0
POLYLINE
  5
389
330
385
100
AcDbEntity
  8
0
 62
     7
100
AcDb2dPolyline
 66
     1
 10
0.0
 20
0.0
 30
0.0
  0
VERTEX
  5
38A
330
389
100
AcDbEntity
  8
0
 62
     7
100
AcDbVertex
100
AcDb2dVertex
 10
537.8915912455561
 20
525.3208359029625
 30
0.0
  0
VERTEX
  5
38B
330
389
100
AcDbEntity
  8
0
 62
     7
100
AcDbVertex
100
AcDb2dVertex
 10
531.891591245556
 20
525.3208359029625
 30
0.0
  0
SEQEND
  5
38C
330
389
100
AcDbEntity
  8
0
 62
     7
  0
ENDBLK
  5
388
330
385
100
AcDbEntity
  8
0
100
AcDbBlockEnd
  0
BLOCK
  5
38F
330
38D
100
AcDbEntity
  8
0
100
AcDbBlockBegin
  2
BLOCK_108
 70
     0
 10
0.0
 20
0.0
 30
0.0
  3
BLOCK_108
  1

  0
POLYLINE
  5
391
330
38D
100
AcDbEntity
  8
0
 62
     7
100
AcDb2dPolyline
 66
     1
 10
0.0
 20
0.0
 30
0.0
  0
VERTEX
  5
392
330
391
100
AcDbEntity
  8
0
 62
     7
100
AcDbVertex
100
AcDb2dVertex
 10
627.8915912455568
 20
540.3208359029624
 30
0.0
  0
VERTEX
  5
393
330
391
100
AcDbEntity
  8
0
 62
     7
100
AcDbVertex
100
AcDb2dVertex
 10
633.891591245557
 20
540.3208359029624
 30
0.0
  0
SEQEND
  5
394
330
391
100
AcDbEntity
  8
0
 62
     7
  0
ENDBLK
  5
390
330
38D
100
AcDbEntity
  8
0
100
AcDbBlockEnd
  0
BLOCK
  5
397
330
395
100
AcDbEntity
  8
0
100
AcDbBlockBegin
  2
BLOCK_109
 70
     0
 10
0.0
 20
0.0
 30
0.0
  3
BLOCK_109
  1

  0
POLYLINE
  5
399
330
395
100
AcDbEntity
  8
0
 62
     7
100
AcDb2dPolyline
 66
     1
 10
0.0
 20
0.0
 30
0.0
  0
VERTEX
  5
39A
330
399
100
AcDbEntity
  8
0
 62
     7
100
AcDbVertex
100
AcDb2dVertex
 10
633.891591245557
 20
495.3208359029624
 30
0.0
  0
VERTEX
  5
39B
330
399
100
AcDbEntity
  8
0
 62
     7
100
AcDbVertex
100
AcDb2dVertex
 10
633.891591245557
 20
500.3208359029632
 30
0.0
  0
SEQEND
  5
39C
330
399
100
AcDbEntity
  8
0
 62
     7
  0
ENDBLK
  5
398
330
395
100
AcDbEntity
  8
0
100
AcDbBlockEnd
  0
BLOCK
  5
39F
330
39D
100
AcDbEntity
  8
0
100
AcDbBlockBegin
  2
BLOCK_110
 70
     0
 10
0.0
 20
0.0
 30
0.0
  3
BLOCK_110
  1

  0
POLYLINE
  5
3A1
330
39D
100
AcDbEntity
  8
0
 62
     7
100
AcDb2dPolyline
 66
     1
 10
0.0
 20
0.0
 30
0.0
  0
VERTEX
  5
3A2
330
3A1
100
AcDbEntity
  8
0
 62
     7
100
AcDbVertex
100
AcDb2dVertex
 10
531.891591245556
 20
500.3208359029632
 30
0.0
  0
VERTEX
  5
3A3
330
3A1
100
AcDbEntity
  8
0
 62
     7
100
AcDbVertex
100
AcDb2dVertex
 10
537.8915912455561
 20
500.3208359029632
 30
0.0
  0
SEQEND
  5
3A4
330
3A1
100
AcDbEntity
  8
0
 62
     7
  0
ENDBLK
  5
3A0
330
39D
100
AcDbEntity
  8
0
100
AcDbBlockEnd
  0
BLOCK
  5
3A7
330
3A5
100
AcDbEntity
  8
0
100
AcDbBlockBegin
  2
BLOCK_111
 70
     0
 10
0.0
 20
0.0
 30
0.0
  3
BLOCK_111
  1

  0
POLYLINE
  5
3A9
330
3A5
100
AcDbEntity
  8
0
 62
     7
100
AcDb2dPolyline
 66
     1
 10
0.0
 20
0.0
 30
0.0
  0
VERTEX
  5
3AA
330
3A9
100
AcDbEntity
  8
0
 62
     7
100
AcDbVertex
100
AcDb2dVertex
 10
633.891591245557
 20
525.3208359029625
 30
0.0
  0
VERTEX
  5
3AB
330
3A9
100
AcDbEntity
  8
0
 62
     7
100
AcDbVertex
100
AcDb2dVertex
 10
627.8915912455568
 20
525.3208359029625
 30
0.0
  0
SEQEND
  5
3AC
330
3A9
100
AcDbEntity
  8
0
 62
     7
  0
ENDBLK
  5
3A8
330
3A5
100
AcDbEntity
  8
0
100
AcDbBlockEnd
  0
BLOCK
  5
3AF
330
3AD
100
AcDbEntity
  8
0
100
AcDbBlockBegin
  2
BLOCK_112
 70
     0
 10
0.0
 20
0.0
 30
0.0
  3
BLOCK_112
  1

  0
POLYLINE
  5
3B1
330
3AD
100
AcDbEntity
  8
0
 62
     7
100
AcDb2dPolyline
 66
     1
 10
0.0
 20
0.0
 30
0.0
  0
VERTEX
  5
3B2
330
3B1
100
AcDbEntity
  8
0
 62
     7
100
AcDbVertex
100
AcDb2dVertex
 10
633.891591245557
 20
540.3208359029624
 30
0.0
  0
VERTEX
  5
3B3
330
3B1
100
AcDbEntity
  8
0
 62
     7
100
AcDbVertex
100
AcDb2dVertex
 10
627.8915912455568
 20
540.3208359029624
 30
0.0
  0
SEQEND
  5
3B4
330
3B1
100
AcDbEntity
  8
0
 62
     7
  0
ENDBLK
  5
3B0
330
3AD
100
AcDbEntity
  8
0
100
AcDbBlockEnd
  0
BLOCK
  5
3B7
330
3B5
100
AcDbEntity
  8
0
100
AcDbBlockBegin
  2
BLOCK_113
 70
     0
 10
0.0
 20
0.0
 30
0.0
  3
BLOCK_113
  1

  0
POLYLINE
  5
3B9
330
3B5
100
AcDbEntity
  8
0
 62
     7
100
AcDb2dPolyline
 66
     1
 10
0.0
 20
0.0
 30
0.0
  0
VERTEX
  5
3BA
330
3B9
100
AcDbEntity
  8
0
 62
     7
100
AcDbVertex
100
AcDb2dVertex
 10
531.891591245556
 20
495.3208359029624
 30
0.0
  0
VERTEX
  5
3BB
330
3B9
100
AcDbEntity
  8
0
 62
     7
100
AcDbVertex
100
AcDb2dVertex
 10
531.891591245556
 20
500.3208359029632
 30
0.0
  0
SEQEND
  5
3BC
330
3B9
100
AcDbEntity
  8
0
 62
     7
  0
ENDBLK
  5
3B8
330
3B5
100
AcDbEntity
  8
0
100
AcDbBlockEnd
  0
BLOCK
  5
3BF
330
3BD
100
AcDbEntity
  8
0
100
AcDbBlockBegin
  2
BLOCK_114
 70
     0
 10
0.0
 20
0.0
 30
0.0
  3
BLOCK_114
  1

  0
POLYLINE
  5
3C1
330
3BD
100
AcDbEntity
  8
0
 62
     7
100
AcDb2dPolyline
 66
     1
 10
0.0
 20
0.0
 30
0.0
  0
VERTEX
  5
3C2
330
3C1
100
AcDbEntity
  8
0
 62
     7
100
AcDbVertex
100
AcDb2dVertex
 10
531.891591245556
 20
550.3208359029627
 30
0.0
  0
VERTEX
  5
3C3
330
3C1
100
AcDbEntity
  8
0
 62
     7
100
AcDbVertex
100
AcDb2dVertex
 10
531.891591245556
 20
545.3208359029626
 30
0.0
  0
SEQEND
  5
3C4
330
3C1
100
AcDbEntity
  8
0
 62
     7
  0
ENDBLK
  5
3C0
330
3BD
100
AcDbEntity
  8
0
100
AcDbBlockEnd
  0
BLOCK
  5
3C7
330
3C5
100
AcDbEntity
  8
0
100
AcDbBlockBegin
  2
BLOCK_115
 70
     0
 10
0.0
 20
0.0
 30
0.0
  3
BLOCK_115
  1

  0
POLYLINE
  5
3C9
330
3C5
100
AcDbEntity
  8
0
 62
     7
100
AcDb2dPolyline
 66
     1
 10
0.0
 20
0.0
 30
0.0
  0
VERTEX
  5
3CA
330
3C9
100
AcDbEntity
  8
0
 62
     7
100
AcDbVertex
100
AcDb2dVertex
 10
633.891591245557
 20
535.3208359029622
 30
0.0
  0
VERTEX
  5
3CB
330
3C9
100
AcDbEntity
  8
0
 62
     7
100
AcDbVertex
100
AcDb2dVertex
 10
627.8915912455568
 20
535.3208359029622
 30
0.0
  0
SEQEND
  5
3CC
330
3C9
100
AcDbEntity
  8
0
 62
     7
  0
ENDBLK
  5
3C8
330
3C5
100
AcDbEntity
  8
0
100
AcDbBlockEnd
  0
BLOCK
  5
3CF
330
3CD
100
AcDbEntity
  8
0
100
AcDbBlockBegin
  2
BLOCK_116
 70
     0
 10
0.0
 20
0.0
 30
0.0
  3
BLOCK_116
  1

  0
POLYLINE
  5
3D1
330
3CD
100
AcDbEntity
  8
0
 62
     7
100
AcDb2dPolyline
 66
     1
 10
0.0
 20
0.0
 30
0.0
  0
VERTEX
  5
3D2
330
3D1
100
AcDbEntity
  8
0
 62
     7
100
AcDbVertex
100
AcDb2dVertex
 10
537.8915912455561
 20
510.3208359029623
 30
0.0
  0
VERTEX
  5
3D3
330
3D1
100
AcDbEntity
  8
0
 62
     7
100
AcDbVertex
100
AcDb2dVertex
 10
531.891591245556
 20
510.3208359029623
 30
0.0
  0
SEQEND
  5
3D4
330
3D1
100
AcDbEntity
  8
0
 62
     7
  0
ENDBLK
  5
3D0
330
3CD
100
AcDbEntity
  8
0
100
AcDbBlockEnd
  0
BLOCK
  5
3D7
330
3D5
100
AcDbEntity
  8
0
100
AcDbBlockBegin
  2
BLOCK_117
 70
     0
 10
0.0
 20
0.0
 30
0.0
  3
BLOCK_117
  1

  0
POLYLINE
  5
3D9
330
3D5
100
AcDbEntity
  8
0
 62
     7
100
AcDb2dPolyline
 66
     1
 10
0.0
 20
0.0
 30
0.0
  0
VERTEX
  5
3DA
330
3D9
100
AcDbEntity
  8
0
 62
     7
100
AcDbVertex
100
AcDb2dVertex
 10
537.8915912455561
 20
540.3208359029624
 30
0.0
  0
VERTEX
  5
3DB
330
3D9
100
AcDbEntity
  8
0
 62
     7
100
AcDbVertex
100
AcDb2dVertex
 10
531.891591245556
 20
540.3208359029624
 30
0.0
  0
SEQEND
  5
3DC
330
3D9
100
AcDbEntity
  8
0
 62
     7
  0
ENDBLK
  5
3D8
330
3D5
100
AcDbEntity
  8
0
100
AcDbBlockEnd
  0
BLOCK
  5
3DF
330
3DD
100
AcDbEntity
  8
0
100
AcDbBlockBegin
  2
BLOCK_118
 70
     0
 10
0.0
 20
0.0
 30
0.0
  3
BLOCK_118
  1

  0
POLYLINE
  5
3E1
330
3DD
100
AcDbEntity
  8
0
 62
     7
100
AcDb2dPolyline
 66
     1
 10
0.0
 20
0.0
 30
0.0
  0
VERTEX
  5
3E2
330
3E1
100
AcDbEntity
  8
0
 62
     7
100
AcDbVertex
100
AcDb2dVertex
 10
621.8915912455566
 20
555.087631120859
 30
0.0
  0
VERTEX
  5
3E3
330
3E1
100
AcDbEntity
  8
0
 62
     7
100
AcDbVertex
100
AcDb2dVertex
 10
621.8915912455566
 20
555.3208359029622
 30
0.0
  0
SEQEND
  5
3E4
330
3E1
100
AcDbEntity
  8
0
 62
     7
  0
ENDBLK
  5
3E0
330
3DD
100
AcDbEntity
  8
0
100
AcDbBlockEnd
  0
BLOCK
  5
3E7
330
3E5
100
AcDbEntity
  8
0
100
AcDbBlockBegin
  2
BLOCK_119
 70
     0
 10
0.0
 20
0.0
 30
0.0
  3
BLOCK_119
  1

  0
POLYLINE
  5
3E9
330
3E5
100
AcDbEntity
  8
0
 62
     7
100
AcDb2dPolyline
 66
     1
 10
0.0
 20
0.0
 30
0.0
  0
VERTEX
  5
3EA
330
3E9
100
AcDbEntity
  8
0
 62
     7
100
AcDbVertex
100
AcDb2dVertex
 10
531.891591245556
 20
520.3208359029626
 30
0.0
  0
VERTEX
  5
3EB
330
3E9
100
AcDbEntity
  8
0
 62
     7
100
AcDbVertex
100
AcDb2dVertex
 10
531.891591245556
 20
515.320835902963
 30
0.0
  0
SEQEND
  5
3EC
330
3E9
100
AcDbEntity
  8
0
 62
     7
  0
ENDBLK
  5
3E8
330
3E5
100
AcDbEntity
  8
0
100
AcDbBlockEnd
  0
BLOCK
  5
3EF
330
3ED
100
AcDbEntity
  8
0
100
AcDbBlockBegin
  2
BLOCK_120
 70
     0
 10
0.0
 20
0.0
 30
0.0
  3
BLOCK_120
  1

  0
POLYLINE
  5
3F1
330
3ED
100
AcDbEntity
  8
0
 62
     7
100
AcDb2dPolyline
 66
     1
 10
0.0
 20
0.0
 30
0.0
  0
VERTEX
  5
3F2
330
3F1
100
AcDbEntity
  8
0
 62
     7
100
AcDbVertex
100
AcDb2dVertex
 10
531.891591245556
 20
510.3208359029623
 30
0.0
  0
VERTEX
  5
3F3
330
3F1
100
AcDbEntity
  8
0
 62
     7
100
AcDbVertex
100
AcDb2dVertex
 10
531.891591245556
 20
505.3208359029628
 30
0.0
  0
SEQEND
  5
3F4
330
3F1
100
AcDbEntity
  8
0
 62
     7
  0
ENDBLK
  5
3F0
330
3ED
100
AcDbEntity
  8
0
100
AcDbBlockEnd
  0
BLOCK
  5
3F7
330
3F5
100
AcDbEntity
  8
0
100
AcDbBlockBegin
  2
BLOCK_121
 70
     0
 10
0.0
 20
0.0
 30
0.0
  3
BLOCK_121
  1

  0
POLYLINE
  5
3F9
330
3F5
100
AcDbEntity
  8
0
 62
     7
100
AcDb2dPolyline
 66
     1
 10
0.0
 20
0.0
 30
0.0
  0
VERTEX
  5
3FA
330
3F9
100
AcDbEntity
  8
0
 62
     7
100
AcDbVertex
100
AcDb2dVertex
 10
348.7251884605831
 20
495.3208332207531
 30
0.0
  0
VERTEX
  5
3FB
330
3F9
100
AcDbEntity
  8
0
 62
     7
100
AcDbVertex
100
AcDb2dVertex
 10
353.7251911874958
 20
495.3208332207531
 30
0.0
  0
SEQEND
  5
3FC
330
3F9
100
AcDbEntity
  8
0
 62
     7
  0
ENDBLK
  5
3F8
330
3F5
100
AcDbEntity
  8
0
100
AcDbBlockEnd
  0
BLOCK
  5
3FF
330
3FD
100
AcDbEntity
  8
0
100
AcDbBlockBegin
  2
BLOCK_122
 70
     0
 10
0.0
 20
0.0
 30
0.0
  3
BLOCK_122
  1

  0
POLYLINE
  5
401
330
3FD
100
AcDbEntity
  8
0
 62
     7
100
AcDb2dPolyline
 66
     1
 10
0.0
 20
0.0
 30
0.0
  0
VERTEX
  5
402
330
401
100
AcDbEntity
  8
0
 62
     7
100
AcDbVertex
100
AcDb2dVertex
 10
359.7251912769027
 20
500.3208355304332
 30
0.0
  0
VERTEX
  5
403
330
401
100
AcDbEntity
  8
0
 62
     7
100
AcDbVertex
100
AcDb2dVertex
 10
359.7251912769027
 20
499.3208355155319
 30
0.0
  0
SEQEND
  5
404
330
401
100
AcDbEntity
  8
0
 62
     7
  0
ENDBLK
  5
400
330
3FD
100
AcDbEntity
  8
0
100
AcDbBlockEnd
  0
BLOCK
  5
407
330
405
100
AcDbEntity
  8
0
100
AcDbBlockBegin
  2
BLOCK_123
 70
     0
 10
0.0
 20
0.0
 30
0.0
  3
BLOCK_123
  1

  0
POLYLINE
  5
409
330
405
100
AcDbEntity
  8
0
 62
     7
100
AcDb2dPolyline
 66
     1
 10
0.0
 20
0.0
 30
0.0
  0
VERTEX
  5
40A
330
409
100
AcDbEntity
  8
0
 62
     7
100
AcDbVertex
100
AcDb2dVertex
 10
359.7251912769027
 20
505.3208356049391
 30
0.0
  0
VERTEX
  5
40B
330
409
100
AcDbEntity
  8
0
 62
     7
100
AcDbVertex
100
AcDb2dVertex
 10
359.7251912769027
 20
510.3208356794447
 30
0.0
  0
SEQEND
  5
40C
330
409
100
AcDbEntity
  8
0
 62
     7
  0
ENDBLK
  5
408
330
405
100
AcDbEntity
  8
0
100
AcDbBlockEnd
  0
BLOCK
  5
40F
330
40D
100
AcDbEntity
  8
0
100
AcDbBlockBegin
  2
BLOCK_124
 70
     0
 10
0.0
 20
0.0
 30
0.0
  3
BLOCK_124
  1

  0
POLYLINE
  5
411
330
40D
100
AcDbEntity
  8
0
 62
     7
100
AcDb2dPolyline
 66
     1
 10
0.0
 20
0.0
 30
0.0
  0
VERTEX
  5
412
330
411
100
AcDbEntity
  8
0
 62
     7
100
AcDbVertex
100
AcDb2dVertex
 10
353.7251911874958
 20
505.3208356049391
 30
0.0
  0
VERTEX
  5
413
330
411
100
AcDbEntity
  8
0
 62
     7
100
AcDbVertex
100
AcDb2dVertex
 10
353.7251911874958
 20
510.3208356794447
 30
0.0
  0
SEQEND
  5
414
330
411
100
AcDbEntity
  8
0
 62
     7
  0
ENDBLK
  5
410
330
40D
100
AcDbEntity
  8
0
100
AcDbBlockEnd
  0
BLOCK
  5
417
330
415
100
AcDbEntity
  8
0
100
AcDbBlockBegin
  2
BLOCK_125
 70
     0
 10
0.0
 20
0.0
 30
0.0
  3
BLOCK_125
  1

  0
POLYLINE
  5
419
330
415
100
AcDbEntity
  8
0
 62
     7
100
AcDb2dPolyline
 66
     1
 10
0.0
 20
0.0
 30
0.0
  0
VERTEX
  5
41A
330
419
100
AcDbEntity
  8
0
 62
     7
100
AcDbVertex
100
AcDb2dVertex
 10
359.7251912769027
 20
515.3208357539506
 30
0.0
  0
VERTEX
  5
41B
330
419
100
AcDbEntity
  8
0
 62
     7
100
AcDbVertex
100
AcDb2dVertex
 10
359.7251912769027
 20
520.3208358284562
 30
0.0
  0
SEQEND
  5
41C
330
419
100
AcDbEntity
  8
0
 62
     7
  0
ENDBLK
  5
418
330
415
100
AcDbEntity
  8
0
100
AcDbBlockEnd
  0
BLOCK
  5
41F
330
41D
100
AcDbEntity
  8
0
100
AcDbBlockBegin
  2
BLOCK_126
 70
     0
 10
0.0
 20
0.0
 30
0.0
  3
BLOCK_126
  1

  0
POLYLINE
  5
421
330
41D
100
AcDbEntity
  8
0
 62
     7
100
AcDb2dPolyline
 66
     1
 10
0.0
 20
0.0
 30
0.0
  0
VERTEX
  5
422
330
421
100
AcDbEntity
  8
0
 62
     7
100
AcDbVertex
100
AcDb2dVertex
 10
353.7251911874958
 20
515.3208357539506
 30
0.0
  0
VERTEX
  5
423
330
421
100
AcDbEntity
  8
0
 62
     7
100
AcDbVertex
100
AcDb2dVertex
 10
353.7251911874958
 20
520.3208358284562
 30
0.0
  0
SEQEND
  5
424
330
421
100
AcDbEntity
  8
0
 62
     7
  0
ENDBLK
  5
420
330
41D
100
AcDbEntity
  8
0
100
AcDbBlockEnd
  0
BLOCK
  5
427
330
425
100
AcDbEntity
  8
0
100
AcDbBlockBegin
  2
BLOCK_127
 70
     0
 10
0.0
 20
0.0
 30
0.0
  3
BLOCK_127
  1

  0
POLYLINE
  5
429
330
425
100
AcDbEntity
  8
0
 62
     7
100
AcDb2dPolyline
 66
     1
 10
0.0
 20
0.0
 30
0.0
  0
VERTEX
  5
42A
330
429
100
AcDbEntity
  8
0
 62
     7
100
AcDbVertex
100
AcDb2dVertex
 10
359.7251912769027
 20
525.3208359029621
 30
0.0
  0
VERTEX
  5
42B
330
429
100
AcDbEntity
  8
0
 62
     7
100
AcDbVertex
100
AcDb2dVertex
 10
359.7251912769027
 20
530.320835977468
 30
0.0
  0
SEQEND
  5
42C
330
429
100
AcDbEntity
  8
0
 62
     7
  0
ENDBLK
  5
428
330
425
100
AcDbEntity
  8
0
100
AcDbBlockEnd
  0
BLOCK
  5
42F
330
42D
100
AcDbEntity
  8
0
100
AcDbBlockBegin
  2
BLOCK_128
 70
     0
 10
0.0
 20
0.0
 30
0.0
  3
BLOCK_128
  1

  0
POLYLINE
  5
431
330
42D
100
AcDbEntity
  8
0
 62
     7
100
AcDb2dPolyline
 66
     1
 10
0.0
 20
0.0
 30
0.0
  0
VERTEX
  5
432
330
431
100
AcDbEntity
  8
0
 62
     7
100
AcDbVertex
100
AcDb2dVertex
 10
353.7251911874958
 20
525.3208359029621
 30
0.0
  0
VERTEX
  5
433
330
431
100
AcDbEntity
  8
0
 62
     7
100
AcDbVertex
100
AcDb2dVertex
 10
353.7251911874958
 20
530.320835977468
 30
0.0
  0
SEQEND
  5
434
330
431
100
AcDbEntity
  8
0
 62
     7
  0
ENDBLK
  5
430
330
42D
100
AcDbEntity
  8
0
100
AcDbBlockEnd
  0
BLOCK
  5
437
330
435
100
AcDbEntity
  8
0
100
AcDbBlockBegin
  2
BLOCK_129
 70
     0
 10
0.0
 20
0.0
 30
0.0
  3
BLOCK_129
  1

  0
POLYLINE
  5
439
330
435
100
AcDbEntity
  8
0
 62
     7
100
AcDb2dPolyline
 66
     1
 10
0.0
 20
0.0
 30
0.0
  0
VERTEX
  5
43A
330
439
100
AcDbEntity
  8
0
 62
     7
100
AcDbVertex
100
AcDb2dVertex
 10
353.7251911874958
 20
535.3208360519737
 30
0.0
  0
VERTEX
  5
43B
330
439
100
AcDbEntity
  8
0
 62
     7
100
AcDbVertex
100
AcDb2dVertex
 10
353.7251911874958
 20
540.3208361264797
 30
0.0
  0
SEQEND
  5
43C
330
439
100
AcDbEntity
  8
0
 62
     7
  0
ENDBLK
  5
438
330
435
100
AcDbEntity
  8
0
100
AcDbBlockEnd
  0
BLOCK
  5
43F
330
43D
100
AcDbEntity
  8
0
100
AcDbBlockBegin
  2
BLOCK_130
 70
     0
 10
0.0
 20
0.0
 30
0.0
  3
BLOCK_130
  1

  0
POLYLINE
  5
441
330
43D
100
AcDbEntity
  8
0
 62
     7
100
AcDb2dPolyline
 66
     1
 10
0.0
 20
0.0
 30
0.0
  0
VERTEX
  5
442
330
441
100
AcDbEntity
  8
0
 62
     7
100
AcDbVertex
100
AcDb2dVertex
 10
359.7251912769027
 20
535.3208360519737
 30
0.0
  0
VERTEX
  5
443
330
441
100
AcDbEntity
  8
0
 62
     7
100
AcDbVertex
100
AcDb2dVertex
 10
359.7251912769027
 20
540.3208361264797
 30
0.0
  0
SEQEND
  5
444
330
441
100
AcDbEntity
  8
0
 62
     7
  0
ENDBLK
  5
440
330
43D
100
AcDbEntity
  8
0
100
AcDbBlockEnd
  0
BLOCK
  5
447
330
445
100
AcDbEntity
  8
0
100
AcDbBlockBegin
  2
BLOCK_131
 70
     0
 10
0.0
 20
0.0
 30
0.0
  3
BLOCK_131
  1

  0
POLYLINE
  5
449
330
445
100
AcDbEntity
  8
0
 62
     7
100
AcDb2dPolyline
 66
     1
 10
0.0
 20
0.0
 30
0.0
  0
VERTEX
  5
44A
330
449
100
AcDbEntity
  8
0
 62
     7
100
AcDbVertex
100
AcDb2dVertex
 10
515.7251936014839
 20
550.3208362754912
 30
0.0
  0
VERTEX
  5
44B
330
449
100
AcDbEntity
  8
0
 62
     7
100
AcDbVertex
100
AcDb2dVertex
 10
509.7251935120769
 20
550.3208362754912
 30
0.0
  0
VERTEX
  5
44C
330
449
100
AcDbEntity
  8
0
 62
     7
100
AcDbVertex
100
AcDb2dVertex
 10
509.7251935120769
 20
545.3208362009852
 30
0.0
  0
VERTEX
  5
44D
330
449
100
AcDbEntity
  8
0
 62
     7
100
AcDbVertex
100
AcDb2dVertex
 10
515.7251936014839
 20
545.3208362009852
 30
0.0
  0
VERTEX
  5
44E
330
449
100
AcDbEntity
  8
0
 62
     7
100
AcDbVertex
100
AcDb2dVertex
 10
515.7251936014839
 20
550.3208362754912
 30
0.0
  0
SEQEND
  5
44F
330
449
100
AcDbEntity
  8
0
 62
     7
  0
ENDBLK
  5
448
330
445
100
AcDbEntity
  8
0
100
AcDbBlockEnd
  0
BLOCK
  5
452
330
450
100
AcDbEntity
  8
0
100
AcDbBlockBegin
  2
BLOCK_132
 70
     0
 10
0.0
 20
0.0
 30
0.0
  3
BLOCK_132
  1

  0
POLYLINE
  5
454
330
450
100
AcDbEntity
  8
0
 62
     7
100
AcDb2dPolyline
 66
     1
 10
0.0
 20
0.0
 30
0.0
  0
VERTEX
  5
455
330
454
100
AcDbEntity
  8
0
 62
     7
100
AcDbVertex
100
AcDb2dVertex
 10
515.7251936014839
 20
525.3208359029621
 30
0.0
  0
VERTEX
  5
456
330
454
100
AcDbEntity
  8
0
 62
     7
100
AcDbVertex
100
AcDb2dVertex
 10
509.7251935120769
 20
525.3208359029621
 30
0.0
  0
VERTEX
  5
457
330
454
100
AcDbEntity
  8
0
 62
     7
100
AcDbVertex
100
AcDb2dVertex
 10
509.7251935120769
 20
530.320835977468
 30
0.0
  0
VERTEX
  5
458
330
454
100
AcDbEntity
  8
0
 62
     7
100
AcDbVertex
100
AcDb2dVertex
 10
515.7251936014839
 20
530.320835977468
 30
0.0
  0
VERTEX
  5
459
330
454
100
AcDbEntity
  8
0
 62
     7
100
AcDbVertex
100
AcDb2dVertex
 10
515.7251936014839
 20
525.3208359029621
 30
0.0
  0
SEQEND
  5
45A
330
454
100
AcDbEntity
  8
0
 62
     7
  0
ENDBLK
  5
453
330
450
100
AcDbEntity
  8
0
100
AcDbBlockEnd
  0
BLOCK
  5
45D
330
45B
100
AcDbEntity
  8
0
100
AcDbBlockBegin
  2
BLOCK_133
 70
     0
 10
0.0
 20
0.0
 30
0.0
  3
BLOCK_133
  1

  0
POLYLINE
  5
45F
330
45B
100
AcDbEntity
  8
0
 62
     7
100
AcDb2dPolyline
 66
     1
 10
0.0
 20
0.0
 30
0.0
  0
VERTEX
  5
460
330
45F
100
AcDbEntity
  8
0
 62
     7
100
AcDbVertex
100
AcDb2dVertex
 10
515.7251936014839
 20
535.3208360519737
 30
0.0
  0
VERTEX
  5
461
330
45F
100
AcDbEntity
  8
0
 62
     7
100
AcDbVertex
100
AcDb2dVertex
 10
509.7251935120769
 20
535.3208360519737
 30
0.0
  0
VERTEX
  5
462
330
45F
100
AcDbEntity
  8
0
 62
     7
100
AcDbVertex
100
AcDb2dVertex
 10
509.7251935120769
 20
540.3208361264797
 30
0.0
  0
VERTEX
  5
463
330
45F
100
AcDbEntity
  8
0
 62
     7
100
AcDbVertex
100
AcDb2dVertex
 10
515.7251936014839
 20
540.3208361264797
 30
0.0
  0
VERTEX
  5
464
330
45F
100
AcDbEntity
  8
0
 62
     7
100
AcDbVertex
100
AcDb2dVertex
 10
515.7251936014839
 20
535.3208360519737
 30
0.0
  0
SEQEND
  5
465
330
45F
100
AcDbEntity
  8
0
 62
     7
  0
ENDBLK
  5
45E
330
45B
100
AcDbEntity
  8
0
100
AcDbBlockEnd
  0
BLOCK
  5
468
330
466
100
AcDbEntity
  8
0
100
AcDbBlockBegin
  2
BLOCK_134
 70
     0
 10
0.0
 20
0.0
 30
0.0
  3
BLOCK_134
  1

  0
POLYLINE
  5
46A
330
466
100
AcDbEntity
  8
0
 62
     7
100
AcDb2dPolyline
 66
     1
 10
0.0
 20
0.0
 30
0.0
  0
VERTEX
  5
46B
330
46A
100
AcDbEntity
  8
0
 62
     7
100
AcDbVertex
100
AcDb2dVertex
 10
515.7251936014839
 20
520.3208358284562
 30
0.0
  0
VERTEX
  5
46C
330
46A
100
AcDbEntity
  8
0
 62
     7
100
AcDbVertex
100
AcDb2dVertex
 10
509.7251935120769
 20
520.3208358284562
 30
0.0
  0
VERTEX
  5
46D
330
46A
100
AcDbEntity
  8
0
 62
     7
100
AcDbVertex
100
AcDb2dVertex
 10
509.7251935120769
 20
515.3208357539506
 30
0.0
  0
VERTEX
  5
46E
330
46A
100
AcDbEntity
  8
0
 62
     7
100
AcDbVertex
100
AcDb2dVertex
 10
515.7251936014839
 20
515.3208357539506
 30
0.0
  0
VERTEX
  5
46F
330
46A
100
AcDbEntity
  8
0
 62
     7
100
AcDbVertex
100
AcDb2dVertex
 10
515.7251936014839
 20
520.3208358284562
 30
0.0
  0
SEQEND
  5
470
330
46A
100
AcDbEntity
  8
0
 62
     7
  0
ENDBLK
  5
469
330
466
100
AcDbEntity
  8
0
100
AcDbBlockEnd
  0
BLOCK
  5
473
330
471
100
AcDbEntity
  8
0
100
AcDbBlockBegin
  2
BLOCK_135
 70
     0
 10
0.0
 20
0.0
 30
0.0
  3
BLOCK_135
  1

  0
POLYLINE
  5
475
330
471
100
AcDbEntity
  8
0
 62
     7
100
AcDb2dPolyline
 66
     1
 10
0.0
 20
0.0
 30
0.0
  0
VERTEX
  5
476
330
475
100
AcDbEntity
  8
0
 62
     7
100
AcDbVertex
100
AcDb2dVertex
 10
515.7251936014839
 20
510.3208356794447
 30
0.0
  0
VERTEX
  5
477
330
475
100
AcDbEntity
  8
0
 62
     7
100
AcDbVertex
100
AcDb2dVertex
 10
509.7251935120769
 20
510.3208356794447
 30
0.0
  0
VERTEX
  5
478
330
475
100
AcDbEntity
  8
0
 62
     7
100
AcDbVertex
100
AcDb2dVertex
 10
509.7251935120769
 20
505.3208356049391
 30
0.0
  0
VERTEX
  5
479
330
475
100
AcDbEntity
  8
0
 62
     7
100
AcDbVertex
100
AcDb2dVertex
 10
515.7251936014839
 20
505.3208356049391
 30
0.0
  0
VERTEX
  5
47A
330
475
100
AcDbEntity
  8
0
 62
     7
100
AcDbVertex
100
AcDb2dVertex
 10
515.7251936014839
 20
510.3208356794447
 30
0.0
  0
SEQEND
  5
47B
330
475
100
AcDbEntity
  8
0
 62
     7
  0
ENDBLK
  5
474
330
471
100
AcDbEntity
  8
0
100
AcDbBlockEnd
  0
BLOCK
  5
47E
330
47C
100
AcDbEntity
  8
0
100
AcDbBlockBegin
  2
BLOCK_136
 70
     0
 10
0.0
 20
0.0
 30
0.0
  3
BLOCK_136
  1

  0
POLYLINE
  5
480
330
47C
100
AcDbEntity
  8
0
 62
     7
100
AcDb2dPolyline
 66
     1
 10
0.0
 20
0.0
 30
0.0
  0
VERTEX
  5
481
330
480
100
AcDbEntity
  8
0
 62
     7
100
AcDbVertex
100
AcDb2dVertex
 10
509.7251935120769
 20
500.3208355304332
 30
0.0
  0
VERTEX
  5
482
330
480
100
AcDbEntity
  8
0
 62
     7
100
AcDbVertex
100
AcDb2dVertex
 10
515.7251936014839
 20
500.3208355304332
 30
0.0
  0
SEQEND
  5
483
330
480
100
AcDbEntity
  8
0
 62
     7
  0
ENDBLK
  5
47F
330
47C
100
AcDbEntity
  8
0
100
AcDbBlockEnd
  0
BLOCK
  5
486
330
484
100
AcDbEntity
  8
0
100
AcDbBlockBegin
  2
BLOCK_137
 70
     0
 10
0.0
 20
0.0
 30
0.0
  3
BLOCK_137
  1

  0
POLYLINE
  5
488
330
484
100
AcDbEntity
  8
0
 62
     7
100
AcDb2dPolyline
 66
     1
 10
0.0
 20
0.0
 30
0.0
  0
VERTEX
  5
489
330
488
100
AcDbEntity
  8
0
 62
     7
100
AcDbVertex
100
AcDb2dVertex
 10
509.7251935120769
 20
500.3208355304332
 30
0.0
  0
VERTEX
  5
48A
330
488
100
AcDbEntity
  8
0
 62
     7
100
AcDbVertex
100
AcDb2dVertex
 10
509.7251935120769
 20
495.3208332207531
 30
0.0
  0
SEQEND
  5
48B
330
488
100
AcDbEntity
  8
0
 62
     7
  0
ENDBLK
  5
487
330
484
100
AcDbEntity
  8
0
100
AcDbBlockEnd
  0
BLOCK
  5
48E
330
48C
100
AcDbEntity
  8
0
100
AcDbBlockBegin
  2
BLOCK_138
 70
     0
 10
0.0
 20
0.0
 30
0.0
  3
BLOCK_138
  1

  0
POLYLINE
  5
490
330
48C
100
AcDbEntity
  8
0
 62
     7
100
AcDb2dPolyline
 66
     1
 10
0.0
 20
0.0
 30
0.0
  0
VERTEX
  5
491
330
490
100
AcDbEntity
  8
0
 62
     7
100
AcDbVertex
100
AcDb2dVertex
 10
515.7251936014839
 20
500.3208355304332
 30
0.0
  0
VERTEX
  5
492
330
490
100
AcDbEntity
  8
0
 62
     7
100
AcDbVertex
100
AcDb2dVertex
 10
515.7251936014839
 20
495.3208332207531
 30
0.0
  0
SEQEND
  5
493
330
490
100
AcDbEntity
  8
0
 62
     7
  0
ENDBLK
  5
48F
330
48C
100
AcDbEntity
  8
0
100
AcDbBlockEnd
  0
BLOCK
  5
496
330
494
100
AcDbEntity
  8
0
100
AcDbBlockBegin
  2
BLOCK_139
 70
     0
 10
0.0
 20
0.0
 30
0.0
  3
BLOCK_139
  1

  0
POLYLINE
  5
498
330
494
100
AcDbEntity
  8
0
 62
     7
100
AcDb2dPolyline
 66
     1
 10
0.0
 20
0.0
 30
0.0
  0
VERTEX
  5
499
330
498
100
AcDbEntity
  8
0
 62
     7
100
AcDbVertex
100
AcDb2dVertex
 10
359.7251912769027
 20
495.3208332207531
 30
0.0
  0
VERTEX
  5
49A
330
498
100
AcDbEntity
  8
0
 62
     7
100
AcDbVertex
100
AcDb2dVertex
 10
509.7251935120769
 20
495.3208332207531
 30
0.0
  0
SEQEND
  5
49B
330
498
100
AcDbEntity
  8
0
 62
     7
  0
ENDBLK
  5
497
330
494
100
AcDbEntity
  8
0
100
AcDbBlockEnd
  0
BLOCK
  5
49E
330
49C
100
AcDbEntity
  8
0
100
AcDbBlockBegin
  2
BLOCK_140
 70
     0
 10
0.0
 20
0.0
 30
0.0
  3
BLOCK_140
  1

  0
POLYLINE
  5
4A0
330
49C
100
AcDbEntity
  8
0
 62
     7
100
AcDb2dPolyline
 66
     1
 10
0.0
 20
0.0
 30
0.0
  0
VERTEX
  5
4A1
330
4A0
100
AcDbEntity
  8
0
 62
     7
100
AcDbVertex
100
AcDb2dVertex
 10
515.7251936014839
 20
495.3208332207531
 30
0.0
  0
VERTEX
  5
4A2
330
4A0
100
AcDbEntity
  8
0
 62
     7
100
AcDbVertex
100
AcDb2dVertex
 10
520.7251884605834
 20
495.3208332207531
 30
0.0
  0
SEQEND
  5
4A3
330
4A0
100
AcDbEntity
  8
0
 62
     7
  0
ENDBLK
  5
49F
330
49C
100
AcDbEntity
  8
0
100
AcDbBlockEnd
  0
BLOCK
  5
4A6
330
4A4
100
AcDbEntity
  8
0
100
AcDbBlockBegin
  2
BLOCK_141
 70
     0
 10
0.0
 20
0.0
 30
0.0
  3
BLOCK_141
  1

  0
POLYLINE
  5
4A8
330
4A4
100
AcDbEntity
  8
0
 62
     7
100
AcDb2dPolyline
 66
     1
 10
0.0
 20
0.0
 30
0.0
  0
VERTEX
  5
4A9
330
4A8
100
AcDbEntity
  8
0
 62
     7
100
AcDbVertex
100
AcDb2dVertex
 10
331.2898257833921
 20
514.4939081289923
 30
0.0
  0
VERTEX
  5
4AA
330
4A8
100
AcDbEntity
  8
0
 62
     7
100
AcDbVertex
100
AcDb2dVertex
 10
331.2898257833921
 20
519.493908203498
 30
0.0
  0
VERTEX
  5
4AB
330
4A8
100
AcDbEntity
  8
0
 62
     7
100
AcDbVertex
100
AcDb2dVertex
 10
337.289825872799
 20
519.493908203498
 30
0.0
  0
VERTEX
  5
4AC
330
4A8
100
AcDbEntity
  8
0
 62
     7
100
AcDbVertex
100
AcDb2dVertex
 10
337.289825872799
 20
514.4939081289923
 30
0.0
  0
VERTEX
  5
4AD
330
4A8
100
AcDbEntity
  8
0
 62
     7
100
AcDbVertex
100
AcDb2dVertex
 10
331.2898257833921
 20
514.4939081289923
 30
0.0
  0
SEQEND
  5
4AE
330
4A8
100
AcDbEntity
  8
0
 62
     7
  0
ENDBLK
  5
4A7
330
4A4
100
AcDbEntity
  8
0
100
AcDbBlockEnd
  0
BLOCK
  5
4B1
330
4AF
100
AcDbEntity
  8
0
100
AcDbBlockBegin
  2
BLOCK_142
 70
     0
 10
0.0
 20
0.0
 30
0.0
  3
BLOCK_142
  1

  0
POLYLINE
  5
4B3
330
4AF
100
AcDbEntity
  8
0
 62
     7
100
AcDb2dPolyline
 66
     1
 10
0.0
 20
0.0
 30
0.0
  0
VERTEX
  5
4B4
330
4B3
100
AcDbEntity
  8
0
 62
     7
100
AcDbVertex
100
AcDb2dVertex
 10
337.289825872799
 20
504.4939079799808
 30
0.0
  0
VERTEX
  5
4B5
330
4B3
100
AcDbEntity
  8
0
 62
     7
100
AcDbVertex
100
AcDb2dVertex
 10
331.2898257833921
 20
504.4939079799808
 30
0.0
  0
VERTEX
  5
4B6
330
4B3
100
AcDbEntity
  8
0
 62
     7
100
AcDbVertex
100
AcDb2dVertex
 10
331.2898257833921
 20
509.4939080544864
 30
0.0
  0
VERTEX
  5
4B7
330
4B3
100
AcDbEntity
  8
0
 62
     7
100
AcDbVertex
100
AcDb2dVertex
 10
337.289825872799
 20
509.4939080544864
 30
0.0
  0
VERTEX
  5
4B8
330
4B3
100
AcDbEntity
  8
0
 62
     7
100
AcDbVertex
100
AcDb2dVertex
 10
337.289825872799
 20
504.4939079799808
 30
0.0
  0
SEQEND
  5
4B9
330
4B3
100
AcDbEntity
  8
0
 62
     7
  0
ENDBLK
  5
4B2
330
4AF
100
AcDbEntity
  8
0
100
AcDbBlockEnd
  0
BLOCK
  5
4BC
330
4BA
100
AcDbEntity
  8
0
100
AcDbBlockBegin
  2
BLOCK_143
 70
     0
 10
0.0
 20
0.0
 30
0.0
  3
BLOCK_143
  1

  0
SPLINE
  5
4BE
330
4BA
100
AcDbEntity
  8
0
 62
     7
100
AcDbSpline
210
0.0
220
0.0
230
1.0
 70
    11
 71
     3
 72
    23
 73
    19
 74
     0
 42
0.0000000001
 43
0.0000000001
 12
1.0
 22
0.0
 32
0.0
 13
1.0
 23
0.0
 33
0.0
 40
0.0
 40
0.0
 40
0.0
 40
0.0
 40
1.0
 40
1.0
 40
1.0
 40
2.0
 40
2.0
 40
2.0
 40
3.0
 40
3.0
 40
3.0
 40
4.0
 40
4.0
 40
4.0
 40
5.0
 40
5.0
 40
5.0
 40
6.0
 40
6.0
 40
6.0
 40
6.0
 10
181.2898235482178
 20
529.4939083525098
 30
0.0
 10
181.2898235482178
 20
529.4939083525098
 30
0.0
 10
175.289823458811
 20
529.4939083525098
 30
0.0
 10
175.289823458811
 20
529.4939083525098
 30
0.0
 10
175.289823458811
 20
529.4939083525098
 30
0.0
 10
175.289823458811
 20
524.4939082780039
 30
0.0
 10
175.289823458811
 20
524.4939082780039
 30
0.0
 10
175.289823458811
 20
524.4939082780039
 30
0.0
 10
181.2898235482178
 20
524.4939082780039
 30
0.0
 10
181.2898235482178
 20
524.4939082780039
 30
0.0
 10
181.2898235482178
 20
524.4939082780039
 30
0.0
 10
181.2898235482178
 20
529.4939083525098
 30
0.0
 10
181.2898235482178
 20
529.4939083525098
 30
0.0
 10
181.2898235482178
 20
529.4939083525098
 30
0.0
 10
175.289823458811
 20
529.4939083525098
 30
0.0
 10
175.289823458811
 20
529.4939083525098
 30
0.0
 10
175.289823458811
 20
529.4939083525098
 30
0.0
 10
181.2898235482178
 20
529.4939083525098
 30
0.0
 10
181.2898235482178
 20
529.4939083525098
 30
0.0
  0
ENDBLK
  5
4BD
330
4BA
100
AcDbEntity
  8
0
100
AcDbBlockEnd
  0
BLOCK
  5
4C1
330
4BF
100
AcDbEntity
  8
0
100
AcDbBlockBegin
  2
BLOCK_144
 70
     0
 10
0.0
 20
0.0
 30
0.0
  3
BLOCK_144
  1

  0
POLYLINE
  5
4C3
330
4BF
100
AcDbEntity
  8
0
 62
     7
100
AcDb2dPolyline
 66
     1
 10
0.0
 20
0.0
 30
0.0
  0
VERTEX
  5
4C4
330
4C3
100
AcDbEntity
  8
0
 62
     7
100
AcDbVertex
100
AcDb2dVertex
 10
181.2898235482178
 20
534.4939084270154
 30
0.0
  0
VERTEX
  5
4C5
330
4C3
100
AcDbEntity
  8
0
 62
     7
100
AcDbVertex
100
AcDb2dVertex
 10
181.2898235482178
 20
539.4939085015213
 30
0.0
  0
SEQEND
  5
4C6
330
4C3
100
AcDbEntity
  8
0
 62
     7
  0
ENDBLK
  5
4C2
330
4BF
100
AcDbEntity
  8
0
100
AcDbBlockEnd
  0
BLOCK
  5
4C9
330
4C7
100
AcDbEntity
  8
0
100
AcDbBlockBegin
  2
BLOCK_145
 70
     0
 10
0.0
 20
0.0
 30
0.0
  3
BLOCK_145
  1

  0
POLYLINE
  5
4CB
330
4C7
100
AcDbEntity
  8
0
 62
     7
100
AcDb2dPolyline
 66
     1
 10
0.0
 20
0.0
 30
0.0
  0
VERTEX
  5
4CC
330
4CB
100
AcDbEntity
  8
0
 62
     7
100
AcDbVertex
100
AcDb2dVertex
 10
181.2898235482178
 20
494.4939055957948
 30
0.0
  0
VERTEX
  5
4CD
330
4CB
100
AcDbEntity
  8
0
 62
     7
100
AcDbVertex
100
AcDb2dVertex
 10
331.2898257833921
 20
494.4939055957948
 30
0.0
  0
SEQEND
  5
4CE
330
4CB
100
AcDbEntity
  8
0
 62
     7
  0
ENDBLK
  5
4CA
330
4C7
100
AcDbEntity
  8
0
100
AcDbBlockEnd
  0
BLOCK
  5
4D1
330
4CF
100
AcDbEntity
  8
0
100
AcDbBlockBegin
  2
BLOCK_146
 70
     0
 10
0.0
 20
0.0
 30
0.0
  3
BLOCK_146
  1

  0
POLYLINE
  5
4D3
330
4CF
100
AcDbEntity
  8
0
 62
     7
100
AcDb2dPolyline
 66
     1
 10
0.0
 20
0.0
 30
0.0
  0
VERTEX
  5
4D4
330
4D3
100
AcDbEntity
  8
0
 62
     7
100
AcDbVertex
100
AcDb2dVertex
 10
170.2898207318982
 20
554.4939055957947
 30
0.0
  0
VERTEX
  5
4D5
330
4D3
100
AcDbEntity
  8
0
 62
     7
100
AcDbVertex
100
AcDb2dVertex
 10
170.2898207318982
 20
494.4939055957948
 30
0.0
  0
SEQEND
  5
4D6
330
4D3
100
AcDbEntity
  8
0
 62
     7
  0
ENDBLK
  5
4D2
330
4CF
100
AcDbEntity
  8
0
100
AcDbBlockEnd
  0
BLOCK
  5
4D9
330
4D7
100
AcDbEntity
  8
0
100
AcDbBlockBegin
  2
BLOCK_147
 70
     0
 10
0.0
 20
0.0
 30
0.0
  3
BLOCK_147
  1

  0
POLYLINE
  5
4DB
330
4D7
100
AcDbEntity
  8
0
 62
     7
100
AcDb2dPolyline
 66
     1
 10
0.0
 20
0.0
 30
0.0
  0
VERTEX
  5
4DC
330
4DB
100
AcDbEntity
  8
0
 62
     7
100
AcDbVertex
100
AcDb2dVertex
 10
337.289825872799
 20
524.4939082780039
 30
0.0
  0
VERTEX
  5
4DD
330
4DB
100
AcDbEntity
  8
0
 62
     7
100
AcDbVertex
100
AcDb2dVertex
 10
331.2898257833921
 20
524.4939082780039
 30
0.0
  0
VERTEX
  5
4DE
330
4DB
100
AcDbEntity
  8
0
 62
     7
100
AcDbVertex
100
AcDb2dVertex
 10
331.2898257833921
 20
529.4939083525098
 30
0.0
  0
VERTEX
  5
4DF
330
4DB
100
AcDbEntity
  8
0
 62
     7
100
AcDbVertex
100
AcDb2dVertex
 10
337.289825872799
 20
529.4939083525098
 30
0.0
  0
VERTEX
  5
4E0
330
4DB
100
AcDbEntity
  8
0
 62
     7
100
AcDbVertex
100
AcDb2dVertex
 10
337.289825872799
 20
524.4939082780039
 30
0.0
  0
SEQEND
  5
4E1
330
4DB
100
AcDbEntity
  8
0
 62
     7
  0
ENDBLK
  5
4DA
330
4D7
100
AcDbEntity
  8
0
100
AcDbBlockEnd
  0
BLOCK
  5
4E4
330
4E2
100
AcDbEntity
  8
0
100
AcDbBlockBegin
  2
BLOCK_148
 70
     0
 10
0.0
 20
0.0
 30
0.0
  3
BLOCK_148
  1

  0
POLYLINE
  5
4E6
330
4E2
100
AcDbEntity
  8
0
 62
     7
100
AcDb2dPolyline
 66
     1
 10
0.0
 20
0.0
 30
0.0
  0
VERTEX
  5
4E7
330
4E6
100
AcDbEntity
  8
0
 62
     7
100
AcDbVertex
100
AcDb2dVertex
 10
331.2898257833921
 20
534.4939084270154
 30
0.0
  0
VERTEX
  5
4E8
330
4E6
100
AcDbEntity
  8
0
 62
     7
100
AcDbVertex
100
AcDb2dVertex
 10
331.2898257833921
 20
539.4939085015213
 30
0.0
  0
VERTEX
  5
4E9
330
4E6
100
AcDbEntity
  8
0
 62
     7
100
AcDbVertex
100
AcDb2dVertex
 10
337.289825872799
 20
539.4939085015213
 30
0.0
  0
VERTEX
  5
4EA
330
4E6
100
AcDbEntity
  8
0
 62
     7
100
AcDbVertex
100
AcDb2dVertex
 10
337.289825872799
 20
534.4939084270158
 30
0.0
  0
VERTEX
  5
4EB
330
4E6
100
AcDbEntity
  8
0
 62
     7
100
AcDbVertex
100
AcDb2dVertex
 10
331.2898257833921
 20
534.4939084270154
 30
0.0
  0
SEQEND
  5
4EC
330
4E6
100
AcDbEntity
  8
0
 62
     7
  0
ENDBLK
  5
4E5
330
4E2
100
AcDbEntity
  8
0
100
AcDbBlockEnd
  0
BLOCK
  5
4EF
330
4ED
100
AcDbEntity
  8
0
100
AcDbBlockBegin
  2
BLOCK_149
 70
     0
 10
0.0
 20
0.0
 30
0.0
  3
BLOCK_149
  1

  0
POLYLINE
  5
4F1
330
4ED
100
AcDbEntity
  8
0
 62
     7
100
AcDb2dPolyline
 66
     1
 10
0.0
 20
0.0
 30
0.0
  0
VERTEX
  5
4F2
330
4F1
100
AcDbEntity
  8
0
 62
     7
100
AcDbVertex
100
AcDb2dVertex
 10
175.289823458811
 20
524.4939082780039
 30
0.0
  0
VERTEX
  5
4F3
330
4F1
100
AcDbEntity
  8
0
 62
     7
100
AcDbVertex
100
AcDb2dVertex
 10
175.289823458811
 20
529.4939083525098
 30
0.0
  0
SEQEND
  5
4F4
330
4F1
100
AcDbEntity
  8
0
 62
     7
  0
ENDBLK
  5
4F0
330
4ED
100
AcDbEntity
  8
0
100
AcDbBlockEnd
  0
BLOCK
  5
4F7
330
4F5
100
AcDbEntity
  8
0
100
AcDbBlockBegin
  2
BLOCK_150
 70
     0
 10
0.0
 20
0.0
 30
0.0
  3
BLOCK_150
  1

  0
POLYLINE
  5
4F9
330
4F5
100
AcDbEntity
  8
0
 62
     7
100
AcDb2dPolyline
 66
     1
 10
0.0
 20
0.0
 30
0.0
  0
VERTEX
  5
4FA
330
4F9
100
AcDbEntity
  8
0
 62
     7
100
AcDbVertex
100
AcDb2dVertex
 10
342.2898207318982
 20
554.4939055957947
 30
0.0
  0
VERTEX
  5
4FB
330
4F9
100
AcDbEntity
  8
0
 62
     7
100
AcDbVertex
100
AcDb2dVertex
 10
170.2898207318982
 20
554.4939055957947
 30
0.0
  0
SEQEND
  5
4FC
330
4F9
100
AcDbEntity
  8
0
 62
     7
  0
ENDBLK
  5
4F8
330
4F5
100
AcDbEntity
  8
0
100
AcDbBlockEnd
  0
BLOCK
  5
4FF
330
4FD
100
AcDbEntity
  8
0
100
AcDbBlockBegin
  2
BLOCK_151
 70
     0
 10
0.0
 20
0.0
 30
0.0
  3
BLOCK_151
  1

  0
POLYLINE
  5
501
330
4FD
100
AcDbEntity
  8
0
 62
     7
100
AcDb2dPolyline
 66
     1
 10
0.0
 20
0.0
 30
0.0
  0
VERTEX
  5
502
330
501
100
AcDbEntity
  8
0
 62
     7
100
AcDbVertex
100
AcDb2dVertex
 10
342.2898207318982
 20
554.4939055957947
 30
0.0
  0
VERTEX
  5
503
330
501
100
AcDbEntity
  8
0
 62
     7
100
AcDbVertex
100
AcDb2dVertex
 10
337.289825872799
 20
554.4939055957947
 30
0.0
  0
SEQEND
  5
504
330
501
100
AcDbEntity
  8
0
 62
     7
  0
ENDBLK
  5
500
330
4FD
100
AcDbEntity
  8
0
100
AcDbBlockEnd
  0
BLOCK
  5
507
330
505
100
AcDbEntity
  8
0
100
AcDbBlockBegin
  2
BLOCK_152
 70
     0
 10
0.0
 20
0.0
 30
0.0
  3
BLOCK_152
  1

  0
POLYLINE
  5
509
330
505
100
AcDbEntity
  8
0
 62
     7
100
AcDb2dPolyline
 66
     1
 10
0.0
 20
0.0
 30
0.0
  0
VERTEX
  5
50A
330
509
100
AcDbEntity
  8
0
 62
     7
100
AcDbVertex
100
AcDb2dVertex
 10
175.289823458811
 20
504.4939079799808
 30
0.0
  0
VERTEX
  5
50B
330
509
100
AcDbEntity
  8
0
 62
     7
100
AcDbVertex
100
AcDb2dVertex
 10
181.2898235482178
 20
504.4939079799808
 30
0.0
  0
SEQEND
  5
50C
330
509
100
AcDbEntity
  8
0
 62
     7
  0
ENDBLK
  5
508
330
505
100
AcDbEntity
  8
0
100
AcDbBlockEnd
  0
BLOCK
  5
50F
330
50D
100
AcDbEntity
  8
0
100
AcDbBlockBegin
  2
BLOCK_153
 70
     0
 10
0.0
 20
0.0
 30
0.0
  3
BLOCK_153
  1

  0
POLYLINE
  5
511
330
50D
100
AcDbEntity
  8
0
 62
     7
100
AcDb2dPolyline
 66
     1
 10
0.0
 20
0.0
 30
0.0
  0
VERTEX
  5
512
330
511
100
AcDbEntity
  8
0
 62
     7
100
AcDbVertex
100
AcDb2dVertex
 10
181.2898235482178
 20
509.4939080544864
 30
0.0
  0
VERTEX
  5
513
330
511
100
AcDbEntity
  8
0
 62
     7
100
AcDbVertex
100
AcDb2dVertex
 10
175.289823458811
 20
509.4939080544864
 30
0.0
  0
SEQEND
  5
514
330
511
100
AcDbEntity
  8
0
 62
     7
  0
ENDBLK
  5
510
330
50D
100
AcDbEntity
  8
0
100
AcDbBlockEnd
  0
BLOCK
  5
517
330
515
100
AcDbEntity
  8
0
100
AcDbBlockBegin
  2
BLOCK_154
 70
     0
 10
0.0
 20
0.0
 30
0.0
  3
BLOCK_154
  1

  0
POLYLINE
  5
519
330
515
100
AcDbEntity
  8
0
 62
     7
100
AcDb2dPolyline
 66
     1
 10
0.0
 20
0.0
 30
0.0
  0
VERTEX
  5
51A
330
519
100
AcDbEntity
  8
0
 62
     7
100
AcDbVertex
100
AcDb2dVertex
 10
342.2898207318982
 20
494.4939055957948
 30
0.0
  0
VERTEX
  5
51B
330
519
100
AcDbEntity
  8
0
 62
     7
100
AcDbVertex
100
AcDb2dVertex
 10
342.2898207318982
 20
554.4939055957947
 30
0.0
  0
SEQEND
  5
51C
330
519
100
AcDbEntity
  8
0
 62
     7
  0
ENDBLK
  5
518
330
515
100
AcDbEntity
  8
0
100
AcDbBlockEnd
  0
BLOCK
  5
51F
330
51D
100
AcDbEntity
  8
0
100
AcDbBlockBegin
  2
BLOCK_155
 70
     0
 10
0.0
 20
0.0
 30
0.0
  3
BLOCK_155
  1

  0
POLYLINE
  5
521
330
51D
100
AcDbEntity
  8
0
 62
     7
100
AcDb2dPolyline
 66
     1
 10
0.0
 20
0.0
 30
0.0
  0
VERTEX
  5
522
330
521
100
AcDbEntity
  8
0
 62
     7
100
AcDbVertex
100
AcDb2dVertex
 10
175.289823458811
 20
494.4939055957948
 30
0.0
  0
VERTEX
  5
523
330
521
100
AcDbEntity
  8
0
 62
     7
100
AcDbVertex
100
AcDb2dVertex
 10
175.289823458811
 20
499.4939079054749
 30
0.0
  0
SEQEND
  5
524
330
521
100
AcDbEntity
  8
0
 62
     7
  0
ENDBLK
  5
520
330
51D
100
AcDbEntity
  8
0
100
AcDbBlockEnd
  0
BLOCK
  5
527
330
525
100
AcDbEntity
  8
0
100
AcDbBlockBegin
  2
BLOCK_156
 70
     0
 10
0.0
 20
0.0
 30
0.0
  3
BLOCK_156
  1

  0
POLYLINE
  5
529
330
525
100
AcDbEntity
  8
0
 62
     7
100
AcDb2dPolyline
 66
     1
 10
0.0
 20
0.0
 30
0.0
  0
VERTEX
  5
52A
330
529
100
AcDbEntity
  8
0
 62
     7
100
AcDbVertex
100
AcDb2dVertex
 10
181.2898235482178
 20
494.4939055957948
 30
0.0
  0
VERTEX
  5
52B
330
529
100
AcDbEntity
  8
0
 62
     7
100
AcDbVertex
100
AcDb2dVertex
 10
181.2898235482178
 20
498.4939078905737
 30
0.0
  0
SEQEND
  5
52C
330
529
100
AcDbEntity
  8
0
 62
     7
  0
ENDBLK
  5
528
330
525
100
AcDbEntity
  8
0
100
AcDbBlockEnd
  0
BLOCK
  5
52F
330
52D
100
AcDbEntity
  8
0
100
AcDbBlockBegin
  2
BLOCK_157
 70
     0
 10
0.0
 20
0.0
 30
0.0
  3
BLOCK_157
  1

  0
POLYLINE
  5
531
330
52D
100
AcDbEntity
  8
0
 62
     7
100
AcDb2dPolyline
 66
     1
 10
0.0
 20
0.0
 30
0.0
  0
VERTEX
  5
532
330
531
100
AcDbEntity
  8
0
 62
     7
100
AcDbVertex
100
AcDb2dVertex
 10
175.289823458811
 20
509.4939080544864
 30
0.0
  0
VERTEX
  5
533
330
531
100
AcDbEntity
  8
0
 62
     7
100
AcDbVertex
100
AcDb2dVertex
 10
181.2898235482178
 20
509.4939080544864
 30
0.0
  0
SEQEND
  5
534
330
531
100
AcDbEntity
  8
0
 62
     7
  0
ENDBLK
  5
530
330
52D
100
AcDbEntity
  8
0
100
AcDbBlockEnd
  0
BLOCK
  5
537
330
535
100
AcDbEntity
  8
0
100
AcDbBlockBegin
  2
BLOCK_158
 70
     0
 10
0.0
 20
0.0
 30
0.0
  3
BLOCK_158
  1

  0
POLYLINE
  5
539
330
535
100
AcDbEntity
  8
0
 62
     7
100
AcDb2dPolyline
 66
     1
 10
0.0
 20
0.0
 30
0.0
  0
VERTEX
  5
53A
330
539
100
AcDbEntity
  8
0
 62
     7
100
AcDbVertex
100
AcDb2dVertex
 10
175.289823458811
 20
504.4939079799808
 30
0.0
  0
VERTEX
  5
53B
330
539
100
AcDbEntity
  8
0
 62
     7
100
AcDbVertex
100
AcDb2dVertex
 10
175.289823458811
 20
509.4939080544864
 30
0.0
  0
SEQEND
  5
53C
330
539
100
AcDbEntity
  8
0
 62
     7
  0
ENDBLK
  5
538
330
535
100
AcDbEntity
  8
0
100
AcDbBlockEnd
  0
BLOCK
  5
53F
330
53D
100
AcDbEntity
  8
0
100
AcDbBlockBegin
  2
BLOCK_159
 70
     0
 10
0.0
 20
0.0
 30
0.0
  3
BLOCK_159
  1

  0
POLYLINE
  5
541
330
53D
100
AcDbEntity
  8
0
 62
     7
100
AcDb2dPolyline
 66
     1
 10
0.0
 20
0.0
 30
0.0
  0
VERTEX
  5
542
330
541
100
AcDbEntity
  8
0
 62
     7
100
AcDbVertex
100
AcDb2dVertex
 10
175.289823458811
 20
514.4939081289923
 30
0.0
  0
VERTEX
  5
543
330
541
100
AcDbEntity
  8
0
 62
     7
100
AcDbVertex
100
AcDb2dVertex
 10
175.289823458811
 20
519.493908203498
 30
0.0
  0
SEQEND
  5
544
330
541
100
AcDbEntity
  8
0
 62
     7
  0
ENDBLK
  5
540
330
53D
100
AcDbEntity
  8
0
100
AcDbBlockEnd
  0
BLOCK
  5
547
330
545
100
AcDbEntity
  8
0
100
AcDbBlockBegin
  2
BLOCK_160
 70
     0
 10
0.0
 20
0.0
 30
0.0
  3
BLOCK_160
  1

  0
POLYLINE
  5
549
330
545
100
AcDbEntity
  8
0
 62
     7
100
AcDb2dPolyline
 66
     1
 10
0.0
 20
0.0
 30
0.0
  0
VERTEX
  5
54A
330
549
100
AcDbEntity
  8
0
 62
     7
100
AcDbVertex
100
AcDb2dVertex
 10
181.2898235482178
 20
499.4939079054749
 30
0.0
  0
VERTEX
  5
54B
330
549
100
AcDbEntity
  8
0
 62
     7
100
AcDbVertex
100
AcDb2dVertex
 10
175.289823458811
 20
499.4939079054749
 30
0.0
  0
SEQEND
  5
54C
330
549
100
AcDbEntity
  8
0
 62
     7
  0
ENDBLK
  5
548
330
545
100
AcDbEntity
  8
0
100
AcDbBlockEnd
  0
BLOCK
  5
54F
330
54D
100
AcDbEntity
  8
0
100
AcDbBlockBegin
  2
BLOCK_161
 70
     0
 10
0.0
 20
0.0
 30
0.0
  3
BLOCK_161
  1

  0
POLYLINE
  5
551
330
54D
100
AcDbEntity
  8
0
 62
     7
100
AcDb2dPolyline
 66
     1
 10
0.0
 20
0.0
 30
0.0
  0
VERTEX
  5
552
330
551
100
AcDbEntity
  8
0
 62
     7
100
AcDbVertex
100
AcDb2dVertex
 10
331.2898257833921
 20
499.4939079054749
 30
0.0
  0
VERTEX
  5
553
330
551
100
AcDbEntity
  8
0
 62
     7
100
AcDbVertex
100
AcDb2dVertex
 10
331.2898257833921
 20
494.4939055957948
 30
0.0
  0
SEQEND
  5
554
330
551
100
AcDbEntity
  8
0
 62
     7
  0
ENDBLK
  5
550
330
54D
100
AcDbEntity
  8
0
100
AcDbBlockEnd
  0
BLOCK
  5
557
330
555
100
AcDbEntity
  8
0
100
AcDbBlockBegin
  2
BLOCK_162
 70
     0
 10
0.0
 20
0.0
 30
0.0
  3
BLOCK_162
  1

  0
POLYLINE
  5
559
330
555
100
AcDbEntity
  8
0
 62
     7
100
AcDb2dPolyline
 66
     1
 10
0.0
 20
0.0
 30
0.0
  0
VERTEX
  5
55A
330
559
100
AcDbEntity
  8
0
 62
     7
100
AcDbVertex
100
AcDb2dVertex
 10
337.289825872799
 20
544.4939085760269
 30
0.0
  0
VERTEX
  5
55B
330
559
100
AcDbEntity
  8
0
 62
     7
100
AcDbVertex
100
AcDb2dVertex
 10
337.289825872799
 20
549.4939086505328
 30
0.0
  0
VERTEX
  5
55C
330
559
100
AcDbEntity
  8
0
 62
     7
100
AcDbVertex
100
AcDb2dVertex
 10
331.2898257833921
 20
549.4939086505328
 30
0.0
  0
VERTEX
  5
55D
330
559
100
AcDbEntity
  8
0
 62
     7
100
AcDbVertex
100
AcDb2dVertex
 10
331.2898257833921
 20
544.4939085760269
 30
0.0
  0
VERTEX
  5
55E
330
559
100
AcDbEntity
  8
0
 62
     7
100
AcDbVertex
100
AcDb2dVertex
 10
337.289825872799
 20
544.4939085760269
 30
0.0
  0
SEQEND
  5
55F
330
559
100
AcDbEntity
  8
0
 62
     7
  0
ENDBLK
  5
558
330
555
100
AcDbEntity
  8
0
100
AcDbBlockEnd
  0
BLOCK
  5
562
330
560
100
AcDbEntity
  8
0
100
AcDbBlockBegin
  2
BLOCK_163
 70
     0
 10
0.0
 20
0.0
 30
0.0
  3
BLOCK_163
  1

  0
POLYLINE
  5
564
330
560
100
AcDbEntity
  8
0
 62
     7
100
AcDb2dPolyline
 66
     1
 10
0.0
 20
0.0
 30
0.0
  0
VERTEX
  5
565
330
564
100
AcDbEntity
  8
0
 62
     7
100
AcDbVertex
100
AcDb2dVertex
 10
175.289823458811
 20
514.4939081289923
 30
0.0
  0
VERTEX
  5
566
330
564
100
AcDbEntity
  8
0
 62
     7
100
AcDbVertex
100
AcDb2dVertex
 10
175.289823458811
 20
519.493908203498
 30
0.0
  0
SEQEND
  5
567
330
564
100
AcDbEntity
  8
0
 62
     7
  0
ENDBLK
  5
563
330
560
100
AcDbEntity
  8
0
100
AcDbBlockEnd
  0
BLOCK
  5
56A
330
568
100
AcDbEntity
  8
0
100
AcDbBlockBegin
  2
BLOCK_164
 70
     0
 10
0.0
 20
0.0
 30
0.0
  3
BLOCK_164
  1

  0
POLYLINE
  5
56C
330
568
100
AcDbEntity
  8
0
 62
     7
100
AcDb2dPolyline
 66
     1
 10
0.0
 20
0.0
 30
0.0
  0
VERTEX
  5
56D
330
56C
100
AcDbEntity
  8
0
 62
     7
100
AcDbVertex
100
AcDb2dVertex
 10
337.289825872799
 20
499.4939079054749
 30
0.0
  0
VERTEX
  5
56E
330
56C
100
AcDbEntity
  8
0
 62
     7
100
AcDbVertex
100
AcDb2dVertex
 10
337.289825872799
 20
494.4939055957948
 30
0.0
  0
SEQEND
  5
56F
330
56C
100
AcDbEntity
  8
0
 62
     7
  0
ENDBLK
  5
56B
330
568
100
AcDbEntity
  8
0
100
AcDbBlockEnd
  0
BLOCK
  5
572
330
570
100
AcDbEntity
  8
0
100
AcDbBlockBegin
  2
BLOCK_165
 70
     0
 10
0.0
 20
0.0
 30
0.0
  3
BLOCK_165
  1

  0
POLYLINE
  5
574
330
570
100
AcDbEntity
  8
0
 62
     7
100
AcDb2dPolyline
 66
     1
 10
0.0
 20
0.0
 30
0.0
  0
VERTEX
  5
575
330
574
100
AcDbEntity
  8
0
 62
     7
100
AcDbVertex
100
AcDb2dVertex
 10
175.289823458811
 20
534.4939084270154
 30
0.0
  0
VERTEX
  5
576
330
574
100
AcDbEntity
  8
0
 62
     7
100
AcDbVertex
100
AcDb2dVertex
 10
175.289823458811
 20
539.4939085015213
 30
0.0
  0
SEQEND
  5
577
330
574
100
AcDbEntity
  8
0
 62
     7
  0
ENDBLK
  5
573
330
570
100
AcDbEntity
  8
0
100
AcDbBlockEnd
  0
BLOCK
  5
57A
330
578
100
AcDbEntity
  8
0
100
AcDbBlockBegin
  2
BLOCK_166
 70
     0
 10
0.0
 20
0.0
 30
0.0
  3
BLOCK_166
  1

  0
POLYLINE
  5
57C
330
578
100
AcDbEntity
  8
0
 62
     7
100
AcDb2dPolyline
 66
     1
 10
0.0
 20
0.0
 30
0.0
  0
VERTEX
  5
57D
330
57C
100
AcDbEntity
  8
0
 62
     7
100
AcDbVertex
100
AcDb2dVertex
 10
181.2898235482178
 20
539.4939085015213
 30
0.0
  0
VERTEX
  5
57E
330
57C
100
AcDbEntity
  8
0
 62
     7
100
AcDbVertex
100
AcDb2dVertex
 10
181.2898235482178
 20
534.4939084270154
 30
0.0
  0
SEQEND
  5
57F
330
57C
100
AcDbEntity
  8
0
 62
     7
  0
ENDBLK
  5
57B
330
578
100
AcDbEntity
  8
0
100
AcDbBlockEnd
  0
BLOCK
  5
582
330
580
100
AcDbEntity
  8
0
100
AcDbBlockBegin
  2
BLOCK_167
 70
     0
 10
0.0
 20
0.0
 30
0.0
  3
BLOCK_167
  1

  0
POLYLINE
  5
584
330
580
100
AcDbEntity
  8
0
 62
     7
100
AcDb2dPolyline
 66
     1
 10
0.0
 20
0.0
 30
0.0
  0
VERTEX
  5
585
330
584
100
AcDbEntity
  8
0
 62
     7
100
AcDbVertex
100
AcDb2dVertex
 10
170.2898207318982
 20
499.4939079054749
 30
0.0
  0
VERTEX
  5
586
330
584
100
AcDbEntity
  8
0
 62
     7
100
AcDbVertex
100
AcDb2dVertex
 10
170.2898207318982
 20
494.4939055957948
 30
0.0
  0
SEQEND
  5
587
330
584
100
AcDbEntity
  8
0
 62
     7
  0
ENDBLK
  5
583
330
580
100
AcDbEntity
  8
0
100
AcDbBlockEnd
  0
BLOCK
  5
58A
330
588
100
AcDbEntity
  8
0
100
AcDbBlockBegin
  2
BLOCK_168
 70
     0
 10
0.0
 20
0.0
 30
0.0
  3
BLOCK_168
  1

  0
POLYLINE
  5
58C
330
588
100
AcDbEntity
  8
0
 62
     7
100
AcDb2dPolyline
 66
     1
 10
0.0
 20
0.0
 30
0.0
  0
VERTEX
  5
58D
330
58C
100
AcDbEntity
  8
0
 62
     7
100
AcDbVertex
100
AcDb2dVertex
 10
175.289823458811
 20
549.4939086505328
 30
0.0
  0
VERTEX
  5
58E
330
58C
100
AcDbEntity
  8
0
 62
     7
100
AcDbVertex
100
AcDb2dVertex
 10
181.2898235482178
 20
549.4939086505328
 30
0.0
  0
SEQEND
  5
58F
330
58C
100
AcDbEntity
  8
0
 62
     7
  0
ENDBLK
  5
58B
330
588
100
AcDbEntity
  8
0
100
AcDbBlockEnd
  0
BLOCK
  5
592
330
590
100
AcDbEntity
  8
0
100
AcDbBlockBegin
  2
BLOCK_169
 70
     0
 10
0.0
 20
0.0
 30
0.0
  3
BLOCK_169
  1

  0
POLYLINE
  5
594
330
590
100
AcDbEntity
  8
0
 62
     7
100
AcDb2dPolyline
 66
     1
 10
0.0
 20
0.0
 30
0.0
  0
VERTEX
  5
595
330
594
100
AcDbEntity
  8
0
 62
     7
100
AcDbVertex
100
AcDb2dVertex
 10
181.2898235482178
 20
534.4939084270154
 30
0.0
  0
VERTEX
  5
596
330
594
100
AcDbEntity
  8
0
 62
     7
100
AcDbVertex
100
AcDb2dVertex
 10
175.289823458811
 20
534.4939084270154
 30
0.0
  0
SEQEND
  5
597
330
594
100
AcDbEntity
  8
0
 62
     7
  0
ENDBLK
  5
593
330
590
100
AcDbEntity
  8
0
100
AcDbBlockEnd
  0
BLOCK
  5
59A
330
598
100
AcDbEntity
  8
0
100
AcDbBlockBegin
  2
BLOCK_170
 70
     0
 10
0.0
 20
0.0
 30
0.0
  3
BLOCK_170
  1

  0
POLYLINE
  5
59C
330
598
100
AcDbEntity
  8
0
 62
     7
100
AcDb2dPolyline
 66
     1
 10
0.0
 20
0.0
 30
0.0
  0
VERTEX
  5
59D
330
59C
100
AcDbEntity
  8
0
 62
     7
100
AcDbVertex
100
AcDb2dVertex
 10
170.2898207318982
 20
494.4939055957948
 30
0.0
  0
VERTEX
  5
59E
330
59C
100
AcDbEntity
  8
0
 62
     7
100
AcDbVertex
100
AcDb2dVertex
 10
175.289823458811
 20
494.4939055957948
 30
0.0
  0
SEQEND
  5
59F
330
59C
100
AcDbEntity
  8
0
 62
     7
  0
ENDBLK
  5
59B
330
598
100
AcDbEntity
  8
0
100
AcDbBlockEnd
  0
BLOCK
  5
5A2
330
5A0
100
AcDbEntity
  8
0
100
AcDbBlockBegin
  2
BLOCK_171
 70
     0
 10
0.0
 20
0.0
 30
0.0
  3
BLOCK_171
  1

  0
POLYLINE
  5
5A4
330
5A0
100
AcDbEntity
  8
0
 62
     7
100
AcDb2dPolyline
 66
     1
 10
0.0
 20
0.0
 30
0.0
  0
VERTEX
  5
5A5
330
5A4
100
AcDbEntity
  8
0
 62
     7
100
AcDbVertex
100
AcDb2dVertex
 10
181.2898235482178
 20
514.4939081289923
 30
0.0
  0
VERTEX
  5
5A6
330
5A4
100
AcDbEntity
  8
0
 62
     7
100
AcDbVertex
100
AcDb2dVertex
 10
175.289823458811
 20
514.4939081289923
 30
0.0
  0
SEQEND
  5
5A7
330
5A4
100
AcDbEntity
  8
0
 62
     7
  0
ENDBLK
  5
5A3
330
5A0
100
AcDbEntity
  8
0
100
AcDbBlockEnd
  0
BLOCK
  5
5AA
330
5A8
100
AcDbEntity
  8
0
100
AcDbBlockBegin
  2
BLOCK_172
 70
     0
 10
0.0
 20
0.0
 30
0.0
  3
BLOCK_172
  1

  0
POLYLINE
  5
5AC
330
5A8
100
AcDbEntity
  8
0
 62
     7
100
AcDb2dPolyline
 66
     1
 10
0.0
 20
0.0
 30
0.0
  0
VERTEX
  5
5AD
330
5AC
100
AcDbEntity
  8
0
 62
     7
100
AcDbVertex
100
AcDb2dVertex
 10
175.289823458811
 20
504.4939079799808
 30
0.0
  0
VERTEX
  5
5AE
330
5AC
100
AcDbEntity
  8
0
 62
     7
100
AcDbVertex
100
AcDb2dVertex
 10
175.289823458811
 20
509.4939080544864
 30
0.0
  0
SEQEND
  5
5AF
330
5AC
100
AcDbEntity
  8
0
 62
     7
  0
ENDBLK
  5
5AB
330
5A8
100
AcDbEntity
  8
0
100
AcDbBlockEnd
  0
BLOCK
  5
5B2
330
5B0
100
AcDbEntity
  8
0
100
AcDbBlockBegin
  2
BLOCK_173
 70
     0
 10
0.0
 20
0.0
 30
0.0
  3
BLOCK_173
  1

  0
POLYLINE
  5
5B4
330
5B0
100
AcDbEntity
  8
0
 62
     7
100
AcDb2dPolyline
 66
     1
 10
0.0
 20
0.0
 30
0.0
  0
VERTEX
  5
5B5
330
5B4
100
AcDbEntity
  8
0
 62
     7
100
AcDbVertex
100
AcDb2dVertex
 10
175.289823458811
 20
519.493908203498
 30
0.0
  0
VERTEX
  5
5B6
330
5B4
100
AcDbEntity
  8
0
 62
     7
100
AcDbVertex
100
AcDb2dVertex
 10
181.2898235482178
 20
519.493908203498
 30
0.0
  0
SEQEND
  5
5B7
330
5B4
100
AcDbEntity
  8
0
 62
     7
  0
ENDBLK
  5
5B3
330
5B0
100
AcDbEntity
  8
0
100
AcDbBlockEnd
  0
BLOCK
  5
5BA
330
5B8
100
AcDbEntity
  8
0
100
AcDbBlockBegin
  2
BLOCK_174
 70
     0
 10
0.0
 20
0.0
 30
0.0
  3
BLOCK_174
  1

  0
POLYLINE
  5
5BC
330
5B8
100
AcDbEntity
  8
0
 62
     7
100
AcDb2dPolyline
 66
     1
 10
0.0
 20
0.0
 30
0.0
  0
VERTEX
  5
5BD
330
5BC
100
AcDbEntity
  8
0
 62
     7
100
AcDbVertex
100
AcDb2dVertex
 10
337.289825872799
 20
494.4939055957948
 30
0.0
  0
VERTEX
  5
5BE
330
5BC
100
AcDbEntity
  8
0
 62
     7
100
AcDbVertex
100
AcDb2dVertex
 10
342.2898207318982
 20
494.4939055957948
 30
0.0
  0
SEQEND
  5
5BF
330
5BC
100
AcDbEntity
  8
0
 62
     7
  0
ENDBLK
  5
5BB
330
5B8
100
AcDbEntity
  8
0
100
AcDbBlockEnd
  0
BLOCK
  5
5C2
330
5C0
100
AcDbEntity
  8
0
100
AcDbBlockBegin
  2
BLOCK_175
 70
     0
 10
0.0
 20
0.0
 30
0.0
  3
BLOCK_175
  1

  0
POLYLINE
  5
5C4
330
5C0
100
AcDbEntity
  8
0
 62
     7
100
AcDb2dPolyline
 66
     1
 10
0.0
 20
0.0
 30
0.0
  0
VERTEX
  5
5C5
330
5C4
100
AcDbEntity
  8
0
 62
     7
100
AcDbVertex
100
AcDb2dVertex
 10
175.289823458811
 20
534.4939084270154
 30
0.0
  0
VERTEX
  5
5C6
330
5C4
100
AcDbEntity
  8
0
 62
     7
100
AcDbVertex
100
AcDb2dVertex
 10
181.2898235482178
 20
534.4939084270154
 30
0.0
  0
SEQEND
  5
5C7
330
5C4
100
AcDbEntity
  8
0
 62
     7
  0
ENDBLK
  5
5C3
330
5C0
100
AcDbEntity
  8
0
100
AcDbBlockEnd
  0
BLOCK
  5
5CA
330
5C8
100
AcDbEntity
  8
0
100
AcDbBlockBegin
  2
BLOCK_176
 70
     0
 10
0.0
 20
0.0
 30
0.0
  3
BLOCK_176
  1

  0
POLYLINE
  5
5CC
330
5C8
100
AcDbEntity
  8
0
 62
     7
100
AcDb2dPolyline
 66
     1
 10
0.0
 20
0.0
 30
0.0
  0
VERTEX
  5
5CD
330
5CC
100
AcDbEntity
  8
0
 62
     7
100
AcDbVertex
100
AcDb2dVertex
 10
331.2898257833921
 20
499.4939079054749
 30
0.0
  0
VERTEX
  5
5CE
330
5CC
100
AcDbEntity
  8
0
 62
     7
100
AcDbVertex
100
AcDb2dVertex
 10
337.289825872799
 20
499.4939079054749
 30
0.0
  0
SEQEND
  5
5CF
330
5CC
100
AcDbEntity
  8
0
 62
     7
  0
ENDBLK
  5
5CB
330
5C8
100
AcDbEntity
  8
0
100
AcDbBlockEnd
  0
BLOCK
  5
5D2
330
5D0
100
AcDbEntity
  8
0
100
AcDbBlockBegin
  2
BLOCK_177
 70
     0
 10
0.0
 20
0.0
 30
0.0
  3
BLOCK_177
  1

  0
POLYLINE
  5
5D4
330
5D0
100
AcDbEntity
  8
0
 62
     7
100
AcDb2dPolyline
 66
     1
 10
0.0
 20
0.0
 30
0.0
  0
VERTEX
  5
5D5
330
5D4
100
AcDbEntity
  8
0
 62
     7
100
AcDbVertex
100
AcDb2dVertex
 10
181.2898235482178
 20
514.4939081289923
 30
0.0
  0
VERTEX
  5
5D6
330
5D4
100
AcDbEntity
  8
0
 62
     7
100
AcDbVertex
100
AcDb2dVertex
 10
181.2898235482178
 20
519.493908203498
 30
0.0
  0
SEQEND
  5
5D7
330
5D4
100
AcDbEntity
  8
0
 62
     7
  0
ENDBLK
  5
5D3
330
5D0
100
AcDbEntity
  8
0
100
AcDbBlockEnd
  0
BLOCK
  5
5DA
330
5D8
100
AcDbEntity
  8
0
100
AcDbBlockBegin
  2
BLOCK_178
 70
     0
 10
0.0
 20
0.0
 30
0.0
  3
BLOCK_178
  1

  0
POLYLINE
  5
5DC
330
5D8
100
AcDbEntity
  8
0
 62
     7
100
AcDb2dPolyline
 66
     1
 10
0.0
 20
0.0
 30
0.0
  0
VERTEX
  5
5DD
330
5DC
100
AcDbEntity
  8
0
 62
     7
100
AcDbVertex
100
AcDb2dVertex
 10
342.2898207318982
 20
550.4939086654341
 30
0.0
  0
VERTEX
  5
5DE
330
5DC
100
AcDbEntity
  8
0
 62
     7
100
AcDbVertex
100
AcDb2dVertex
 10
342.2898207318982
 20
554.4939055957947
 30
0.0
  0
SEQEND
  5
5DF
330
5DC
100
AcDbEntity
  8
0
 62
     7
  0
ENDBLK
  5
5DB
330
5D8
100
AcDbEntity
  8
0
100
AcDbBlockEnd
  0
BLOCK
  5
5E2
330
5E0
100
AcDbEntity
  8
0
100
AcDbBlockBegin
  2
BLOCK_179
 70
     0
 10
0.0
 20
0.0
 30
0.0
  3
BLOCK_179
  1

  0
POLYLINE
  5
5E4
330
5E0
100
AcDbEntity
  8
0
 62
     7
100
AcDb2dPolyline
 66
     1
 10
0.0
 20
0.0
 30
0.0
  0
VERTEX
  5
5E5
330
5E4
100
AcDbEntity
  8
0
 62
     7
100
AcDbVertex
100
AcDb2dVertex
 10
337.289825872799
 20
554.4939055957947
 30
0.0
  0
VERTEX
  5
5E6
330
5E4
100
AcDbEntity
  8
0
 62
     7
100
AcDbVertex
100
AcDb2dVertex
 10
331.2898257833921
 20
554.4939055957947
 30
0.0
  0
SEQEND
  5
5E7
330
5E4
100
AcDbEntity
  8
0
 62
     7
  0
ENDBLK
  5
5E3
330
5E0
100
AcDbEntity
  8
0
100
AcDbBlockEnd
  0
BLOCK
  5
5EA
330
5E8
100
AcDbEntity
  8
0
100
AcDbBlockBegin
  2
BLOCK_180
 70
     0
 10
0.0
 20
0.0
 30
0.0
  3
BLOCK_180
  1

  0
POLYLINE
  5
5EC
330
5E8
100
AcDbEntity
  8
0
 62
     7
100
AcDb2dPolyline
 66
     1
 10
0.0
 20
0.0
 30
0.0
  0
VERTEX
  5
5ED
330
5EC
100
AcDbEntity
  8
0
 62
     7
100
AcDbVertex
100
AcDb2dVertex
 10
175.289823458811
 20
524.4939082780039
 30
0.0
  0
VERTEX
  5
5EE
330
5EC
100
AcDbEntity
  8
0
 62
     7
100
AcDbVertex
100
AcDb2dVertex
 10
181.2898235482178
 20
524.4939082780039
 30
0.0
  0
SEQEND
  5
5EF
330
5EC
100
AcDbEntity
  8
0
 62
     7
  0
ENDBLK
  5
5EB
330
5E8
100
AcDbEntity
  8
0
100
AcDbBlockEnd
  0
BLOCK
  5
5F2
330
5F0
100
AcDbEntity
  8
0
100
AcDbBlockBegin
  2
BLOCK_181
 70
     0
 10
0.0
 20
0.0
 30
0.0
  3
BLOCK_181
  1

  0
POLYLINE
  5
5F4
330
5F0
100
AcDbEntity
  8
0
 62
     7
100
AcDb2dPolyline
 66
     1
 10
0.0
 20
0.0
 30
0.0
  0
VERTEX
  5
5F5
330
5F4
100
AcDbEntity
  8
0
 62
     7
100
AcDbVertex
100
AcDb2dVertex
 10
175.289823458811
 20
498.4939078905737
 30
0.0
  0
VERTEX
  5
5F6
330
5F4
100
AcDbEntity
  8
0
 62
     7
100
AcDbVertex
100
AcDb2dVertex
 10
175.289823458811
 20
494.4939055957948
 30
0.0
  0
SEQEND
  5
5F7
330
5F4
100
AcDbEntity
  8
0
 62
     7
  0
ENDBLK
  5
5F3
330
5F0
100
AcDbEntity
  8
0
100
AcDbBlockEnd
  0
BLOCK
  5
5FA
330
5F8
100
AcDbEntity
  8
0
100
AcDbBlockBegin
  2
BLOCK_182
 70
     0
 10
0.0
 20
0.0
 30
0.0
  3
BLOCK_182
  1

  0
POLYLINE
  5
5FC
330
5F8
100
AcDbEntity
  8
0
 62
     7
100
AcDb2dPolyline
 66
     1
 10
0.0
 20
0.0
 30
0.0
  0
VERTEX
  5
5FD
330
5FC
100
AcDbEntity
  8
0
 62
     7
100
AcDbVertex
100
AcDb2dVertex
 10
181.2898235482178
 20
549.4939086505328
 30
0.0
  0
VERTEX
  5
5FE
330
5FC
100
AcDbEntity
  8
0
 62
     7
100
AcDbVertex
100
AcDb2dVertex
 10
181.2898235482178
 20
544.4939085760269
 30
0.0
  0
VERTEX
  5
5FF
330
5FC
100
AcDbEntity
  8
0
 62
     7
100
AcDbVertex
100
AcDb2dVertex
 10
175.289823458811
 20
544.4939085760269
 30
0.0
  0
VERTEX
  5
600
330
5FC
100
AcDbEntity
  8
0
 62
     7
100
AcDbVertex
100
AcDb2dVertex
 10
175.289823458811
 20
549.4939086505328
 30
0.0
  0
VERTEX
  5
601
330
5FC
100
AcDbEntity
  8
0
 62
     7
100
AcDbVertex
100
AcDb2dVertex
 10
181.2898235482178
 20
549.4939086505328
 30
0.0
  0
SEQEND
  5
602
330
5FC
100
AcDbEntity
  8
0
 62
     7
  0
ENDBLK
  5
5FB
330
5F8
100
AcDbEntity
  8
0
100
AcDbBlockEnd
  0
BLOCK
  5
605
330
603
100
AcDbEntity
  8
0
100
AcDbBlockBegin
  2
BLOCK_183
 70
     0
 10
0.0
 20
0.0
 30
0.0
  3
BLOCK_183
  1

  0
POLYLINE
  5
607
330
603
100
AcDbEntity
  8
0
 62
     7
100
AcDb2dPolyline
 66
     1
 10
0.0
 20
0.0
 30
0.0
  0
VERTEX
  5
608
330
607
100
AcDbEntity
  8
0
 62
     7
100
AcDbVertex
100
AcDb2dVertex
 10
181.2898235482178
 20
499.4939079054749
 30
0.0
  0
VERTEX
  5
609
330
607
100
AcDbEntity
  8
0
 62
     7
100
AcDbVertex
100
AcDb2dVertex
 10
181.2898235482178
 20
498.4939078905737
 30
0.0
  0
SEQEND
  5
60A
330
607
100
AcDbEntity
  8
0
 62
     7
  0
ENDBLK
  5
606
330
603
100
AcDbEntity
  8
0
100
AcDbBlockEnd
  0
BLOCK
  5
60D
330
60B
100
AcDbEntity
  8
0
100
AcDbBlockBegin
  2
BLOCK_184
 70
     0
 10
0.0
 20
0.0
 30
0.0
  3
BLOCK_184
  1

  0
POLYLINE
  5
60F
330
60B
100
AcDbEntity
  8
0
 62
     7
100
AcDb2dPolyline
 66
     1
 10
0.0
 20
0.0
 30
0.0
  0
VERTEX
  5
610
330
60F
100
AcDbEntity
  8
0
 62
     7
100
AcDbVertex
100
AcDb2dVertex
 10
170.2898207318982
 20
494.4939055957948
 30
0.0
  0
VERTEX
  5
611
330
60F
100
AcDbEntity
  8
0
 62
     7
100
AcDbVertex
100
AcDb2dVertex
 10
175.289823458811
 20
494.4939055957948
 30
0.0
  0
SEQEND
  5
612
330
60F
100
AcDbEntity
  8
0
 62
     7
  0
ENDBLK
  5
60E
330
60B
100
AcDbEntity
  8
0
100
AcDbBlockEnd
  0
BLOCK
  5
615
330
613
100
AcDbEntity
  8
0
100
AcDbBlockBegin
  2
BLOCK_185
 70
     0
 10
0.0
 20
0.0
 30
0.0
  3
BLOCK_185
  1

  0
POLYLINE
  5
617
330
613
100
AcDbEntity
  8
0
 62
     7
100
AcDb2dPolyline
 66
     1
 10
0.0
 20
0.0
 30
0.0
  0
VERTEX
  5
618
330
617
100
AcDbEntity
  8
0
 62
     7
100
AcDbVertex
100
AcDb2dVertex
 10
181.2898235482178
 20
519.493908203498
 30
0.0
  0
VERTEX
  5
619
330
617
100
AcDbEntity
  8
0
 62
     7
100
AcDbVertex
100
AcDb2dVertex
 10
175.289823458811
 20
519.493908203498
 30
0.0
  0
SEQEND
  5
61A
330
617
100
AcDbEntity
  8
0
 62
     7
  0
ENDBLK
  5
616
330
613
100
AcDbEntity
  8
0
100
AcDbBlockEnd
  0
BLOCK
  5
61D
330
61B
100
AcDbEntity
  8
0
100
AcDbBlockBegin
  2
BLOCK_186
 70
     0
 10
0.0
 20
0.0
 30
0.0
  3
BLOCK_186
  1

  0
POLYLINE
  5
61F
330
61B
100
AcDbEntity
  8
0
 62
     7
100
AcDb2dPolyline
 66
     1
 10
0.0
 20
0.0
 30
0.0
  0
VERTEX
  5
620
330
61F
100
AcDbEntity
  8
0
 62
     7
100
AcDbVertex
100
AcDb2dVertex
 10
181.2898235482178
 20
504.4939079799808
 30
0.0
  0
VERTEX
  5
621
330
61F
100
AcDbEntity
  8
0
 62
     7
100
AcDbVertex
100
AcDb2dVertex
 10
181.2898235482178
 20
509.4939080544864
 30
0.0
  0
SEQEND
  5
622
330
61F
100
AcDbEntity
  8
0
 62
     7
  0
ENDBLK
  5
61E
330
61B
100
AcDbEntity
  8
0
100
AcDbBlockEnd
  0
BLOCK
  5
625
330
623
100
AcDbEntity
  8
0
100
AcDbBlockBegin
  2
BLOCK_187
 70
     0
 10
0.0
 20
0.0
 30
0.0
  3
BLOCK_187
  1

  0
POLYLINE
  5
627
330
623
100
AcDbEntity
  8
0
 62
     7
100
AcDb2dPolyline
 66
     1
 10
0.0
 20
0.0
 30
0.0
  0
VERTEX
  5
628
330
627
100
AcDbEntity
  8
0
 62
     7
100
AcDbVertex
100
AcDb2dVertex
 10
181.2898235482178
 20
509.4939080544864
 30
0.0
  0
VERTEX
  5
629
330
627
100
AcDbEntity
  8
0
 62
     7
100
AcDbVertex
100
AcDb2dVertex
 10
181.2898235482178
 20
504.4939079799808
 30
0.0
  0
SEQEND
  5
62A
330
627
100
AcDbEntity
  8
0
 62
     7
  0
ENDBLK
  5
626
330
623
100
AcDbEntity
  8
0
100
AcDbBlockEnd
  0
BLOCK
  5
62D
330
62B
100
AcDbEntity
  8
0
100
AcDbBlockBegin
  2
BLOCK_188
 70
     0
 10
0.0
 20
0.0
 30
0.0
  3
BLOCK_188
  1

  0
POLYLINE
  5
62F
330
62B
100
AcDbEntity
  8
0
 62
     7
100
AcDb2dPolyline
 66
     1
 10
0.0
 20
0.0
 30
0.0
  0
VERTEX
  5
630
330
62F
100
AcDbEntity
  8
0
 62
     7
100
AcDbVertex
100
AcDb2dVertex
 10
175.289823458811
 20
539.4939085015213
 30
0.0
  0
VERTEX
  5
631
330
62F
100
AcDbEntity
  8
0
 62
     7
100
AcDbVertex
100
AcDb2dVertex
 10
181.2898235482178
 20
539.4939085015213
 30
0.0
  0
SEQEND
  5
632
330
62F
100
AcDbEntity
  8
0
 62
     7
  0
ENDBLK
  5
62E
330
62B
100
AcDbEntity
  8
0
100
AcDbBlockEnd
  0
BLOCK
  5
635
330
633
100
AcDbEntity
  8
0
100
AcDbBlockBegin
  2
BLOCK_189
 70
     0
 10
0.0
 20
0.0
 30
0.0
  3
BLOCK_189
  1

  0
POLYLINE
  5
637
330
633
100
AcDbEntity
  8
0
 62
     7
100
AcDb2dPolyline
 66
     1
 10
0.0
 20
0.0
 30
0.0
  0
VERTEX
  5
638
330
637
100
AcDbEntity
  8
0
 62
     7
100
AcDbVertex
100
AcDb2dVertex
 10
175.289823458811
 20
534.4939084270154
 30
0.0
  0
VERTEX
  5
639
330
637
100
AcDbEntity
  8
0
 62
     7
100
AcDbVertex
100
AcDb2dVertex
 10
175.289823458811
 20
539.4939085015213
 30
0.0
  0
SEQEND
  5
63A
330
637
100
AcDbEntity
  8
0
 62
     7
  0
ENDBLK
  5
636
330
633
100
AcDbEntity
  8
0
100
AcDbBlockEnd
  0
BLOCK
  5
63D
330
63B
100
AcDbEntity
  8
0
100
AcDbBlockBegin
  2
BLOCK_190
 70
     0
 10
0.0
 20
0.0
 30
0.0
  3
BLOCK_190
  1

  0
POLYLINE
  5
63F
330
63B
100
AcDbEntity
  8
0
 62
     7
100
AcDb2dPolyline
 66
     1
 10
0.0
 20
0.0
 30
0.0
  0
VERTEX
  5
640
330
63F
100
AcDbEntity
  8
0
 62
     7
100
AcDbVertex
100
AcDb2dVertex
 10
181.2898235482178
 20
504.4939079799808
 30
0.0
  0
VERTEX
  5
641
330
63F
100
AcDbEntity
  8
0
 62
     7
100
AcDbVertex
100
AcDb2dVertex
 10
175.289823458811
 20
504.4939079799808
 30
0.0
  0
SEQEND
  5
642
330
63F
100
AcDbEntity
  8
0
 62
     7
  0
ENDBLK
  5
63E
330
63B
100
AcDbEntity
  8
0
100
AcDbBlockEnd
  0
BLOCK
  5
645
330
643
100
AcDbEntity
  8
0
100
AcDbBlockBegin
  2
BLOCK_191
 70
     0
 10
0.0
 20
0.0
 30
0.0
  3
BLOCK_191
  1

  0
POLYLINE
  5
647
330
643
100
AcDbEntity
  8
0
 62
     7
100
AcDb2dPolyline
 66
     1
 10
0.0
 20
0.0
 30
0.0
  0
VERTEX
  5
648
330
647
100
AcDbEntity
  8
0
 62
     7
100
AcDbVertex
100
AcDb2dVertex
 10
181.2898235482178
 20
519.493908203498
 30
0.0
  0
VERTEX
  5
649
330
647
100
AcDbEntity
  8
0
 62
     7
100
AcDbVertex
100
AcDb2dVertex
 10
181.2898235482178
 20
514.4939081289923
 30
0.0
  0
SEQEND
  5
64A
330
647
100
AcDbEntity
  8
0
 62
     7
  0
ENDBLK
  5
646
330
643
100
AcDbEntity
  8
0
100
AcDbBlockEnd
  0
BLOCK
  5
64D
330
64B
100
AcDbEntity
  8
0
100
AcDbBlockBegin
  2
BLOCK_192
 70
     0
 10
0.0
 20
0.0
 30
0.0
  3
BLOCK_192
  1

  0
POLYLINE
  5
64F
330
64B
100
AcDbEntity
  8
0
 62
     7
100
AcDb2dPolyline
 66
     1
 10
0.0
 20
0.0
 30
0.0
  0
VERTEX
  5
650
330
64F
100
AcDbEntity
  8
0
 62
     7
100
AcDbVertex
100
AcDb2dVertex
 10
181.2898235482178
 20
539.4939085015213
 30
0.0
  0
VERTEX
  5
651
330
64F
100
AcDbEntity
  8
0
 62
     7
100
AcDbVertex
100
AcDb2dVertex
 10
175.289823458811
 20
539.4939085015213
 30
0.0
  0
SEQEND
  5
652
330
64F
100
AcDbEntity
  8
0
 62
     7
  0
ENDBLK
  5
64E
330
64B
100
AcDbEntity
  8
0
100
AcDbBlockEnd
  0
BLOCK
  5
655
330
653
100
AcDbEntity
  8
0
100
AcDbBlockBegin
  2
BLOCK_193
 70
     0
 10
0.0
 20
0.0
 30
0.0
  3
BLOCK_193
  1

  0
POLYLINE
  5
657
330
653
100
AcDbEntity
  8
0
 62
     7
100
AcDb2dPolyline
 66
     1
 10
0.0
 20
0.0
 30
0.0
  0
VERTEX
  5
658
330
657
100
AcDbEntity
  8
0
 62
     7
100
AcDbVertex
100
AcDb2dVertex
 10
175.289823458811
 20
554.4939055957947
 30
0.0
  0
VERTEX
  5
659
330
657
100
AcDbEntity
  8
0
 62
     7
100
AcDbVertex
100
AcDb2dVertex
 10
181.2898235482178
 20
554.4939055957947
 30
0.0
  0
SEQEND
  5
65A
330
657
100
AcDbEntity
  8
0
 62
     7
  0
ENDBLK
  5
656
330
653
100
AcDbEntity
  8
0
100
AcDbBlockEnd
  0
BLOCK
  5
65D
330
65B
100
AcDbEntity
  8
0
100
AcDbBlockBegin
  2
BLOCK_194
 70
     0
 10
0.0
 20
0.0
 30
0.0
  3
BLOCK_194
  1

  0
POLYLINE
  5
65F
330
65B
100
AcDbEntity
  8
0
 62
     7
100
AcDb2dPolyline
 66
     1
 10
0.0
 20
0.0
 30
0.0
  0
VERTEX
  5
660
330
65F
100
AcDbEntity
  8
0
 62
     7
100
AcDbVertex
100
AcDb2dVertex
 10
175.289823458811
 20
544.4939085760269
 30
0.0
  0
VERTEX
  5
661
330
65F
100
AcDbEntity
  8
0
 62
     7
100
AcDbVertex
100
AcDb2dVertex
 10
181.2898235482178
 20
544.4939085760269
 30
0.0
  0
SEQEND
  5
662
330
65F
100
AcDbEntity
  8
0
 62
     7
  0
ENDBLK
  5
65E
330
65B
100
AcDbEntity
  8
0
100
AcDbBlockEnd
  0
BLOCK
  5
665
330
663
100
AcDbEntity
  8
0
100
AcDbBlockBegin
  2
BLOCK_195
 70
     0
 10
0.0
 20
0.0
 30
0.0
  3
BLOCK_195
  1

  0
POLYLINE
  5
667
330
663
100
AcDbEntity
  8
0
 62
     7
100
AcDb2dPolyline
 66
     1
 10
0.0
 20
0.0
 30
0.0
  0
VERTEX
  5
668
330
667
100
AcDbEntity
  8
0
 62
     7
100
AcDbVertex
100
AcDb2dVertex
 10
175.289823458811
 20
514.4939081289923
 30
0.0
  0
VERTEX
  5
669
330
667
100
AcDbEntity
  8
0
 62
     7
100
AcDbVertex
100
AcDb2dVertex
 10
181.2898235482178
 20
514.4939081289923
 30
0.0
  0
SEQEND
  5
66A
330
667
100
AcDbEntity
  8
0
 62
     7
  0
ENDBLK
  5
666
330
663
100
AcDbEntity
  8
0
100
AcDbBlockEnd
  0
BLOCK
  5
66D
330
66B
100
AcDbEntity
  8
0
100
AcDbBlockBegin
  2
BLOCK_196
 70
     0
 10
0.0
 20
0.0
 30
0.0
  3
BLOCK_196
  1

  0
POLYLINE
  5
66F
330
66B
100
AcDbEntity
  8
0
 62
     7
100
AcDb2dPolyline
 66
     1
 10
0.0
 20
0.0
 30
0.0
  0
VERTEX
  5
670
330
66F
100
AcDbEntity
  8
0
 62
     7
100
AcDbVertex
100
AcDb2dVertex
 10
627.8915912455568
 20
505.3208359029628
 30
0.0
  0
VERTEX
  5
671
330
66F
100
AcDbEntity
  8
0
 62
     7
100
AcDbVertex
100
AcDb2dVertex
 10
627.8915912455568
 20
500.3208359029632
 30
0.0
  0
SEQEND
  5
672
330
66F
100
AcDbEntity
  8
0
 62
     7
  0
ENDBLK
  5
66E
330
66B
100
AcDbEntity
  8
0
100
AcDbBlockEnd
  0
BLOCK
  5
675
330
673
100
AcDbEntity
  8
0
100
AcDbBlockBegin
  2
BLOCK_197
 70
     0
 10
0.0
 20
0.0
 30
0.0
  3
BLOCK_197
  1

  0
POLYLINE
  5
677
330
673
100
AcDbEntity
  8
0
 62
     7
100
AcDb2dPolyline
 66
     1
 10
0.0
 20
0.0
 30
0.0
  0
VERTEX
  5
678
330
677
100
AcDbEntity
  8
0
 62
     7
100
AcDbVertex
100
AcDb2dVertex
 10
627.8915912455568
 20
515.320835902963
 30
0.0
  0
VERTEX
  5
679
330
677
100
AcDbEntity
  8
0
 62
     7
100
AcDbVertex
100
AcDb2dVertex
 10
627.8915912455568
 20
510.3208359029623
 30
0.0
  0
SEQEND
  5
67A
330
677
100
AcDbEntity
  8
0
 62
     7
  0
ENDBLK
  5
676
330
673
100
AcDbEntity
  8
0
100
AcDbBlockEnd
  0
BLOCK
  5
67D
330
67B
100
AcDbEntity
  8
0
100
AcDbBlockBegin
  2
BLOCK_198
 70
     0
 10
0.0
 20
0.0
 30
0.0
  3
BLOCK_198
  1

  0
POLYLINE
  5
67F
330
67B
100
AcDbEntity
  8
0
 62
     7
100
AcDb2dPolyline
 66
     1
 10
0.0
 20
0.0
 30
0.0
  0
VERTEX
  5
680
330
67F
100
AcDbEntity
  8
0
 62
     7
100
AcDbVertex
100
AcDb2dVertex
 10
627.8915912455568
 20
525.3208359029625
 30
0.0
  0
VERTEX
  5
681
330
67F
100
AcDbEntity
  8
0
 62
     7
100
AcDbVertex
100
AcDb2dVertex
 10
627.8915912455568
 20
520.3208359029626
 30
0.0
  0
SEQEND
  5
682
330
67F
100
AcDbEntity
  8
0
 62
     7
  0
ENDBLK
  5
67E
330
67B
100
AcDbEntity
  8
0
100
AcDbBlockEnd
  0
BLOCK
  5
685
330
683
100
AcDbEntity
  8
0
100
AcDbBlockBegin
  2
BLOCK_199
 70
     0
 10
0.0
 20
0.0
 30
0.0
  3
BLOCK_199
  1

  0
POLYLINE
  5
687
330
683
100
AcDbEntity
  8
0
 62
     7
100
AcDb2dPolyline
 66
     1
 10
0.0
 20
0.0
 30
0.0
  0
VERTEX
  5
688
330
687
100
AcDbEntity
  8
0
 62
     7
100
AcDbVertex
100
AcDb2dVertex
 10
627.8915912455568
 20
550.0876311208588
 30
0.0
  0
VERTEX
  5
689
330
687
100
AcDbEntity
  8
0
 62
     7
100
AcDbVertex
100
AcDb2dVertex
 10
627.8915912455568
 20
555.3208359029622
 30
0.0
  0
SEQEND
  5
68A
330
687
100
AcDbEntity
  8
0
 62
     7
  0
ENDBLK
  5
686
330
683
100
AcDbEntity
  8
0
100
AcDbBlockEnd
  0
BLOCK
  5
68D
330
68B
100
AcDbEntity
  8
0
100
AcDbBlockBegin
  2
BLOCK_200
 70
     0
 10
0.0
 20
0.0
 30
0.0
  3
BLOCK_200
  1

  0
POLYLINE
  5
68F
330
68B
100
AcDbEntity
  8
0
 62
     7
100
AcDb2dPolyline
 66
     1
 10
0.0
 20
0.0
 30
0.0
  0
VERTEX
  5
690
330
68F
100
AcDbEntity
  8
0
 62
     7
100
AcDbVertex
100
AcDb2dVertex
 10
627.8915912455568
 20
555.3208359029622
 30
0.0
  0
VERTEX
  5
691
330
68F
100
AcDbEntity
  8
0
 62
     7
100
AcDbVertex
100
AcDb2dVertex
 10
621.8915912455566
 20
555.3208359029622
 30
0.0
  0
SEQEND
  5
692
330
68F
100
AcDbEntity
  8
0
 62
     7
  0
ENDBLK
  5
68E
330
68B
100
AcDbEntity
  8
0
100
AcDbBlockEnd
  0
BLOCK
  5
695
330
693
100
AcDbEntity
  8
0
100
AcDbBlockBegin
  2
BLOCK_201
 70
     0
 10
0.0
 20
0.0
 30
0.0
  3
BLOCK_201
  1

  0
POLYLINE
  5
697
330
693
100
AcDbEntity
  8
0
 62
     7
100
AcDb2dPolyline
 66
     1
 10
0.0
 20
0.0
 30
0.0
  0
VERTEX
  5
698
330
697
100
AcDbEntity
  8
0
 62
     7
100
AcDbVertex
100
AcDb2dVertex
 10
627.8915912455568
 20
545.0876311208586
 30
0.0
  0
VERTEX
  5
699
330
697
100
AcDbEntity
  8
0
 62
     7
100
AcDbVertex
100
AcDb2dVertex
 10
627.8915912455568
 20
540.3208359029624
 30
0.0
  0
SEQEND
  5
69A
330
697
100
AcDbEntity
  8
0
 62
     7
  0
ENDBLK
  5
696
330
693
100
AcDbEntity
  8
0
100
AcDbBlockEnd
  0
BLOCK
  5
69D
330
69B
100
AcDbEntity
  8
0
100
AcDbBlockBegin
  2
BLOCK_202
 70
     0
 10
0.0
 20
0.0
 30
0.0
  3
BLOCK_202
  1

  0
POLYLINE
  5
69F
330
69B
100
AcDbEntity
  8
0
 62
     7
100
AcDb2dPolyline
 66
     1
 10
0.0
 20
0.0
 30
0.0
  0
VERTEX
  5
6A0
330
69F
100
AcDbEntity
  8
0
 62
     7
100
AcDbVertex
100
AcDb2dVertex
 10
627.8915912455568
 20
535.3208359029622
 30
0.0
  0
VERTEX
  5
6A1
330
69F
100
AcDbEntity
  8
0
 62
     7
100
AcDbVertex
100
AcDb2dVertex
 10
627.8915912455568
 20
530.3208359029627
 30
0.0
  0
SEQEND
  5
6A2
330
69F
100
AcDbEntity
  8
0
 62
     7
  0
ENDBLK
  5
69E
330
69B
100
AcDbEntity
  8
0
100
AcDbBlockEnd
  0
BLOCK
  5
6A5
330
6A3
100
AcDbEntity
  8
0
100
AcDbBlockBegin
  2
BLOCK_203
 70
     0
 10
0.0
 20
0.0
 30
0.0
  3
BLOCK_203
  1

  0
POLYLINE
  5
6A7
330
6A3
100
AcDbEntity
  8
0
 62
     7
100
AcDb2dPolyline
 66
     1
 10
0.0
 20
0.0
 30
0.0
  0
VERTEX
  5
6A8
330
6A7
100
AcDbEntity
  8
0
 62
     7
100
AcDbVertex
100
AcDb2dVertex
 10
537.8915912455561
 20
500.3208359029632
 30
0.0
  0
VERTEX
  5
6A9
330
6A7
100
AcDbEntity
  8
0
 62
     7
100
AcDbVertex
100
AcDb2dVertex
 10
537.8915912455561
 20
505.3208359029628
 30
0.0
  0
SEQEND
  5
6AA
330
6A7
100
AcDbEntity
  8
0
 62
     7
  0
ENDBLK
  5
6A6
330
6A3
100
AcDbEntity
  8
0
100
AcDbBlockEnd
  0
BLOCK
  5
6AD
330
6AB
100
AcDbEntity
  8
0
100
AcDbBlockBegin
  2
BLOCK_204
 70
     0
 10
0.0
 20
0.0
 30
0.0
  3
BLOCK_204
  1

  0
POLYLINE
  5
6AF
330
6AB
100
AcDbEntity
  8
0
 62
     7
100
AcDb2dPolyline
 66
     1
 10
0.0
 20
0.0
 30
0.0
  0
VERTEX
  5
6B0
330
6AF
100
AcDbEntity
  8
0
 62
     7
100
AcDbVertex
100
AcDb2dVertex
 10
537.8915912455561
 20
510.3208359029623
 30
0.0
  0
VERTEX
  5
6B1
330
6AF
100
AcDbEntity
  8
0
 62
     7
100
AcDbVertex
100
AcDb2dVertex
 10
537.8915912455561
 20
515.320835902963
 30
0.0
  0
SEQEND
  5
6B2
330
6AF
100
AcDbEntity
  8
0
 62
     7
  0
ENDBLK
  5
6AE
330
6AB
100
AcDbEntity
  8
0
100
AcDbBlockEnd
  0
BLOCK
  5
6B5
330
6B3
100
AcDbEntity
  8
0
100
AcDbBlockBegin
  2
BLOCK_205
 70
     0
 10
0.0
 20
0.0
 30
0.0
  3
BLOCK_205
  1

  0
POLYLINE
  5
6B7
330
6B3
100
AcDbEntity
  8
0
 62
     7
100
AcDb2dPolyline
 66
     1
 10
0.0
 20
0.0
 30
0.0
  0
VERTEX
  5
6B8
330
6B7
100
AcDbEntity
  8
0
 62
     7
100
AcDbVertex
100
AcDb2dVertex
 10
537.8915912455561
 20
520.3208359029626
 30
0.0
  0
VERTEX
  5
6B9
330
6B7
100
AcDbEntity
  8
0
 62
     7
100
AcDbVertex
100
AcDb2dVertex
 10
537.8915912455561
 20
525.3208359029625
 30
0.0
  0
SEQEND
  5
6BA
330
6B7
100
AcDbEntity
  8
0
 62
     7
  0
ENDBLK
  5
6B6
330
6B3
100
AcDbEntity
  8
0
100
AcDbBlockEnd
  0
BLOCK
  5
6BD
330
6BB
100
AcDbEntity
  8
0
100
AcDbBlockBegin
  2
BLOCK_206
 70
     0
 10
0.0
 20
0.0
 30
0.0
  3
BLOCK_206
  1

  0
POLYLINE
  5
6BF
330
6BB
100
AcDbEntity
  8
0
 62
     7
100
AcDb2dPolyline
 66
     1
 10
0.0
 20
0.0
 30
0.0
  0
VERTEX
  5
6C0
330
6BF
100
AcDbEntity
  8
0
 62
     7
100
AcDbVertex
100
AcDb2dVertex
 10
537.8915912455561
 20
530.3208359029627
 30
0.0
  0
VERTEX
  5
6C1
330
6BF
100
AcDbEntity
  8
0
 62
     7
100
AcDbVertex
100
AcDb2dVertex
 10
537.8915912455561
 20
535.3208359029622
 30
0.0
  0
SEQEND
  5
6C2
330
6BF
100
AcDbEntity
  8
0
 62
     7
  0
ENDBLK
  5
6BE
330
6BB
100
AcDbEntity
  8
0
100
AcDbBlockEnd
  0
BLOCK
  5
6C5
330
6C3
100
AcDbEntity
  8
0
100
AcDbBlockBegin
  2
BLOCK_207
 70
     0
 10
0.0
 20
0.0
 30
0.0
  3
BLOCK_207
  1

  0
POLYLINE
  5
6C7
330
6C3
100
AcDbEntity
  8
0
 62
     7
100
AcDb2dPolyline
 66
     1
 10
0.0
 20
0.0
 30
0.0
  0
VERTEX
  5
6C8
330
6C7
100
AcDbEntity
  8
0
 62
     7
100
AcDbVertex
100
AcDb2dVertex
 10
537.8915912455561
 20
540.3208359029624
 30
0.0
  0
VERTEX
  5
6C9
330
6C7
100
AcDbEntity
  8
0
 62
     7
100
AcDbVertex
100
AcDb2dVertex
 10
537.8915912455561
 20
545.3208359029626
 30
0.0
  0
SEQEND
  5
6CA
330
6C7
100
AcDbEntity
  8
0
 62
     7
  0
ENDBLK
  5
6C6
330
6C3
100
AcDbEntity
  8
0
100
AcDbBlockEnd
  0
BLOCK
  5
6CD
330
6CB
100
AcDbEntity
  8
0
100
AcDbBlockBegin
  2
BLOCK_208
 70
     0
 10
0.0
 20
0.0
 30
0.0
  3
BLOCK_208
  1

  0
POLYLINE
  5
6CF
330
6CB
100
AcDbEntity
  8
0
 62
     7
100
AcDb2dPolyline
 66
     1
 10
0.0
 20
0.0
 30
0.0
  0
VERTEX
  5
6D0
330
6CF
100
AcDbEntity
  8
0
 62
     7
100
AcDbVertex
100
AcDb2dVertex
 10
537.8915912455561
 20
550.3208359029627
 30
0.0
  0
VERTEX
  5
6D1
330
6CF
100
AcDbEntity
  8
0
 62
     7
100
AcDbVertex
100
AcDb2dVertex
 10
537.8915912455561
 20
555.3208359029622
 30
0.0
  0
SEQEND
  5
6D2
330
6CF
100
AcDbEntity
  8
0
 62
     7
  0
ENDBLK
  5
6CE
330
6CB
100
AcDbEntity
  8
0
100
AcDbBlockEnd
  0
BLOCK
  5
6D5
330
6D3
100
AcDbEntity
  8
0
100
AcDbBlockBegin
  2
BLOCK_209
 70
     0
 10
0.0
 20
0.0
 30
0.0
  3
BLOCK_209
  1

  0
POLYLINE
  5
6D7
330
6D3
100
AcDbEntity
  8
0
 62
     7
100
AcDb2dPolyline
 66
     1
 10
0.0
 20
0.0
 30
0.0
  0
VERTEX
  5
6D8
330
6D7
100
AcDbEntity
  8
0
 62
     7
100
AcDbVertex
100
AcDb2dVertex
 10
537.8915912455561
 20
555.3208359029622
 30
0.0
  0
VERTEX
  5
6D9
330
6D7
100
AcDbEntity
  8
0
 62
     7
100
AcDbVertex
100
AcDb2dVertex
 10
543.8915912455564
 20
555.3208359029622
 30
0.0
  0
SEQEND
  5
6DA
330
6D7
100
AcDbEntity
  8
0
 62
     7
  0
ENDBLK
  5
6D6
330
6D3
100
AcDbEntity
  8
0
100
AcDbBlockEnd
  0
BLOCK
  5
6DD
330
6DB
100
AcDbEntity
  8
0
100
AcDbBlockBegin
  2
BLOCK_210
 70
     0
 10
0.0
 20
0.0
 30
0.0
  3
BLOCK_210
  1

  0
POLYLINE
  5
6DF
330
6DB
100
AcDbEntity
  8
0
 62
     7
100
AcDb2dPolyline
 66
     1
 10
0.0
 20
0.0
 30
0.0
  0
VERTEX
  5
6E0
330
6DF
100
AcDbEntity
  8
0
 62
     7
100
AcDbVertex
100
AcDb2dVertex
 10
589.9990679319184
 20
394.320835902962
 30
0.0
  0
VERTEX
  5
6E1
330
6DF
100
AcDbEntity
  8
0
 62
     7
100
AcDbVertex
100
AcDb2dVertex
 10
589.9990679319184
 20
388.3208359029618
 30
0.0
  0
SEQEND
  5
6E2
330
6DF
100
AcDbEntity
  8
0
 62
     7
  0
ENDBLK
  5
6DE
330
6DB
100
AcDbEntity
  8
0
100
AcDbBlockEnd
  0
BLOCK
  5
6E5
330
6E3
100
AcDbEntity
  8
0
100
AcDbBlockBegin
  2
BLOCK_211
 70
     0
 10
0.0
 20
0.0
 30
0.0
  3
BLOCK_211
  1

  0
POLYLINE
  5
6E7
330
6E3
100
AcDbEntity
  8
0
 62
     7
100
AcDb2dPolyline
 66
     1
 10
0.0
 20
0.0
 30
0.0
  0
VERTEX
  5
6E8
330
6E7
100
AcDbEntity
  8
0
 62
     7
100
AcDbVertex
100
AcDb2dVertex
 10
619.7658631498149
 20
388.3208359029618
 30
0.0
  0
VERTEX
  5
6E9
330
6E7
100
AcDbEntity
  8
0
 62
     7
100
AcDbVertex
100
AcDb2dVertex
 10
619.7658631498149
 20
394.320835902962
 30
0.0
  0
SEQEND
  5
6EA
330
6E7
100
AcDbEntity
  8
0
 62
     7
  0
ENDBLK
  5
6E6
330
6E3
100
AcDbEntity
  8
0
100
AcDbBlockEnd
  0
BLOCK
  5
6ED
330
6EB
100
AcDbEntity
  8
0
100
AcDbBlockBegin
  2
BLOCK_212
 70
     0
 10
0.0
 20
0.0
 30
0.0
  3
BLOCK_212
  1

  0
POLYLINE
  5
6EF
330
6EB
100
AcDbEntity
  8
0
 62
     7
100
AcDb2dPolyline
 66
     1
 10
0.0
 20
0.0
 30
0.0
  0
VERTEX
  5
6F0
330
6EF
100
AcDbEntity
  8
0
 62
     7
100
AcDbVertex
100
AcDb2dVertex
 10
599.9990679319187
 20
484.3208359029617
 30
0.0
  0
VERTEX
  5
6F1
330
6EF
100
AcDbEntity
  8
0
 62
     7
100
AcDbVertex
100
AcDb2dVertex
 10
599.9990679319187
 20
490.3208359029616
 30
0.0
  0
SEQEND
  5
6F2
330
6EF
100
AcDbEntity
  8
0
 62
     7
  0
ENDBLK
  5
6EE
330
6EB
100
AcDbEntity
  8
0
100
AcDbBlockEnd
  0
BLOCK
  5
6F5
330
6F3
100
AcDbEntity
  8
0
100
AcDbBlockBegin
  2
BLOCK_213
 70
     0
 10
0.0
 20
0.0
 30
0.0
  3
BLOCK_213
  1

  0
POLYLINE
  5
6F7
330
6F3
100
AcDbEntity
  8
0
 62
     7
100
AcDb2dPolyline
 66
     1
 10
0.0
 20
0.0
 30
0.0
  0
VERTEX
  5
6F8
330
6F7
100
AcDbEntity
  8
0
 62
     7
100
AcDbVertex
100
AcDb2dVertex
 10
604.999067931919
 20
490.3208359029616
 30
0.0
  0
VERTEX
  5
6F9
330
6F7
100
AcDbEntity
  8
0
 62
     7
100
AcDbVertex
100
AcDb2dVertex
 10
604.999067931919
 20
484.3208359029617
 30
0.0
  0
SEQEND
  5
6FA
330
6F7
100
AcDbEntity
  8
0
 62
     7
  0
ENDBLK
  5
6F6
330
6F3
100
AcDbEntity
  8
0
100
AcDbBlockEnd
  0
BLOCK
  5
6FD
330
6FB
100
AcDbEntity
  8
0
100
AcDbBlockBegin
  2
BLOCK_214
 70
     0
 10
0.0
 20
0.0
 30
0.0
  3
BLOCK_214
  1

  0
POLYLINE
  5
6FF
330
6FB
100
AcDbEntity
  8
0
 62
     7
100
AcDb2dPolyline
 66
     1
 10
0.0
 20
0.0
 30
0.0
  0
VERTEX
  5
700
330
6FF
100
AcDbEntity
  8
0
 62
     7
100
AcDbVertex
100
AcDb2dVertex
 10
614.9990679319186
 20
490.3208359029616
 30
0.0
  0
VERTEX
  5
701
330
6FF
100
AcDbEntity
  8
0
 62
     7
100
AcDbVertex
100
AcDb2dVertex
 10
614.9990679319186
 20
484.3208359029617
 30
0.0
  0
SEQEND
  5
702
330
6FF
100
AcDbEntity
  8
0
 62
     7
  0
ENDBLK
  5
6FE
330
6FB
100
AcDbEntity
  8
0
100
AcDbBlockEnd
  0
BLOCK
  5
705
330
703
100
AcDbEntity
  8
0
100
AcDbBlockBegin
  2
BLOCK_215
 70
     0
 10
0.0
 20
0.0
 30
0.0
  3
BLOCK_215
  1

  0
POLYLINE
  5
707
330
703
100
AcDbEntity
  8
0
 62
     7
100
AcDb2dPolyline
 66
     1
 10
0.0
 20
0.0
 30
0.0
  0
VERTEX
  5
708
330
707
100
AcDbEntity
  8
0
 62
     7
100
AcDbVertex
100
AcDb2dVertex
 10
614.9990679319186
 20
490.3208359029616
 30
0.0
  0
VERTEX
  5
709
330
707
100
AcDbEntity
  8
0
 62
     7
100
AcDbVertex
100
AcDb2dVertex
 10
609.9990679319184
 20
490.3208359029616
 30
0.0
  0
SEQEND
  5
70A
330
707
100
AcDbEntity
  8
0
 62
     7
  0
ENDBLK
  5
706
330
703
100
AcDbEntity
  8
0
100
AcDbBlockEnd
  0
BLOCK
  5
70D
330
70B
100
AcDbEntity
  8
0
100
AcDbBlockBegin
  2
BLOCK_216
 70
     0
 10
0.0
 20
0.0
 30
0.0
  3
BLOCK_216
  1

  0
POLYLINE
  5
70F
330
70B
100
AcDbEntity
  8
0
 62
     7
100
AcDb2dPolyline
 66
     1
 10
0.0
 20
0.0
 30
0.0
  0
VERTEX
  5
710
330
70F
100
AcDbEntity
  8
0
 62
     7
100
AcDbVertex
100
AcDb2dVertex
 10
574.9990679319185
 20
490.3208359029616
 30
0.0
  0
VERTEX
  5
711
330
70F
100
AcDbEntity
  8
0
 62
     7
100
AcDbVertex
100
AcDb2dVertex
 10
574.9990679319185
 20
484.3208359029617
 30
0.0
  0
SEQEND
  5
712
330
70F
100
AcDbEntity
  8
0
 62
     7
  0
ENDBLK
  5
70E
330
70B
100
AcDbEntity
  8
0
100
AcDbBlockEnd
  0
BLOCK
  5
715
330
713
100
AcDbEntity
  8
0
100
AcDbBlockBegin
  2
BLOCK_217
 70
     0
 10
0.0
 20
0.0
 30
0.0
  3
BLOCK_217
  1

  0
POLYLINE
  5
717
330
713
100
AcDbEntity
  8
0
 62
     7
100
AcDb2dPolyline
 66
     1
 10
0.0
 20
0.0
 30
0.0
  0
VERTEX
  5
718
330
717
100
AcDbEntity
  8
0
 62
     7
100
AcDbVertex
100
AcDb2dVertex
 10
609.9990679319184
 20
394.320835902962
 30
0.0
  0
VERTEX
  5
719
330
717
100
AcDbEntity
  8
0
 62
     7
100
AcDbVertex
100
AcDb2dVertex
 10
604.999067931919
 20
394.320835902962
 30
0.0
  0
SEQEND
  5
71A
330
717
100
AcDbEntity
  8
0
 62
     7
  0
ENDBLK
  5
716
330
713
100
AcDbEntity
  8
0
100
AcDbBlockEnd
  0
BLOCK
  5
71D
330
71B
100
AcDbEntity
  8
0
100
AcDbBlockBegin
  2
BLOCK_218
 70
     0
 10
0.0
 20
0.0
 30
0.0
  3
BLOCK_218
  1

  0
POLYLINE
  5
71F
330
71B
100
AcDbEntity
  8
0
 62
     7
100
AcDb2dPolyline
 66
     1
 10
0.0
 20
0.0
 30
0.0
  0
VERTEX
  5
720
330
71F
100
AcDbEntity
  8
0
 62
     7
100
AcDbVertex
100
AcDb2dVertex
 10
594.9990679319185
 20
490.3208359029616
 30
0.0
  0
VERTEX
  5
721
330
71F
100
AcDbEntity
  8
0
 62
     7
100
AcDbVertex
100
AcDb2dVertex
 10
589.9990679319184
 20
490.3208359029616
 30
0.0
  0
SEQEND
  5
722
330
71F
100
AcDbEntity
  8
0
 62
     7
  0
ENDBLK
  5
71E
330
71B
100
AcDbEntity
  8
0
100
AcDbBlockEnd
  0
BLOCK
  5
725
330
723
100
AcDbEntity
  8
0
100
AcDbBlockBegin
  2
BLOCK_219
 70
     0
 10
0.0
 20
0.0
 30
0.0
  3
BLOCK_219
  1

  0
POLYLINE
  5
727
330
723
100
AcDbEntity
  8
0
 62
     7
100
AcDb2dPolyline
 66
     1
 10
0.0
 20
0.0
 30
0.0
  0
VERTEX
  5
728
330
727
100
AcDbEntity
  8
0
 62
     7
100
AcDbVertex
100
AcDb2dVertex
 10
614.9990679319186
 20
490.3208359029616
 30
0.0
  0
VERTEX
  5
729
330
727
100
AcDbEntity
  8
0
 62
     7
100
AcDbVertex
100
AcDb2dVertex
 10
609.9990679319184
 20
490.3208359029616
 30
0.0
  0
SEQEND
  5
72A
330
727
100
AcDbEntity
  8
0
 62
     7
  0
ENDBLK
  5
726
330
723
100
AcDbEntity
  8
0
100
AcDbBlockEnd
  0
BLOCK
  5
72D
330
72B
100
AcDbEntity
  8
0
100
AcDbBlockBegin
  2
BLOCK_220
 70
     0
 10
0.0
 20
0.0
 30
0.0
  3
BLOCK_220
  1

  0
POLYLINE
  5
72F
330
72B
100
AcDbEntity
  8
0
 62
     7
100
AcDb2dPolyline
 66
     1
 10
0.0
 20
0.0
 30
0.0
  0
VERTEX
  5
730
330
72F
100
AcDbEntity
  8
0
 62
     7
100
AcDbVertex
100
AcDb2dVertex
 10
594.9990679319185
 20
490.3208359029616
 30
0.0
  0
VERTEX
  5
731
330
72F
100
AcDbEntity
  8
0
 62
     7
100
AcDbVertex
100
AcDb2dVertex
 10
594.9990679319185
 20
484.3208359029617
 30
0.0
  0
SEQEND
  5
732
330
72F
100
AcDbEntity
  8
0
 62
     7
  0
ENDBLK
  5
72E
330
72B
100
AcDbEntity
  8
0
100
AcDbBlockEnd
  0
BLOCK
  5
735
330
733
100
AcDbEntity
  8
0
100
AcDbBlockBegin
  2
BLOCK_221
 70
     0
 10
0.0
 20
0.0
 30
0.0
  3
BLOCK_221
  1

  0
POLYLINE
  5
737
330
733
100
AcDbEntity
  8
0
 62
     7
100
AcDb2dPolyline
 66
     1
 10
0.0
 20
0.0
 30
0.0
  0
VERTEX
  5
738
330
737
100
AcDbEntity
  8
0
 62
     7
100
AcDbVertex
100
AcDb2dVertex
 10
629.9990679319185
 20
394.320835902962
 30
0.0
  0
VERTEX
  5
739
330
737
100
AcDbEntity
  8
0
 62
     7
100
AcDbVertex
100
AcDb2dVertex
 10
629.9990679319185
 20
400.3208359029616
 30
0.0
  0
SEQEND
  5
73A
330
737
100
AcDbEntity
  8
0
 62
     7
  0
ENDBLK
  5
736
330
733
100
AcDbEntity
  8
0
100
AcDbBlockEnd
  0
BLOCK
  5
73D
330
73B
100
AcDbEntity
  8
0
100
AcDbBlockBegin
  2
BLOCK_222
 70
     0
 10
0.0
 20
0.0
 30
0.0
  3
BLOCK_222
  1

  0
POLYLINE
  5
73F
330
73B
100
AcDbEntity
  8
0
 62
     7
100
AcDb2dPolyline
 66
     1
 10
0.0
 20
0.0
 30
0.0
  0
VERTEX
  5
740
330
73F
100
AcDbEntity
  8
0
 62
     7
100
AcDbVertex
100
AcDb2dVertex
 10
569.999067931919
 20
490.3208359029616
 30
0.0
  0
VERTEX
  5
741
330
73F
100
AcDbEntity
  8
0
 62
     7
100
AcDbVertex
100
AcDb2dVertex
 10
574.9990679319185
 20
490.3208359029616
 30
0.0
  0
SEQEND
  5
742
330
73F
100
AcDbEntity
  8
0
 62
     7
  0
ENDBLK
  5
73E
330
73B
100
AcDbEntity
  8
0
100
AcDbBlockEnd
  0
BLOCK
  5
745
330
743
100
AcDbEntity
  8
0
100
AcDbBlockBegin
  2
BLOCK_223
 70
     0
 10
0.0
 20
0.0
 30
0.0
  3
BLOCK_223
  1

  0
POLYLINE
  5
747
330
743
100
AcDbEntity
  8
0
 62
     7
100
AcDb2dPolyline
 66
     1
 10
0.0
 20
0.0
 30
0.0
  0
VERTEX
  5
748
330
747
100
AcDbEntity
  8
0
 62
     7
100
AcDbVertex
100
AcDb2dVertex
 10
624.765863149815
 20
394.320835902962
 30
0.0
  0
VERTEX
  5
749
330
747
100
AcDbEntity
  8
0
 62
     7
100
AcDbVertex
100
AcDb2dVertex
 10
629.9990679319185
 20
394.320835902962
 30
0.0
  0
SEQEND
  5
74A
330
747
100
AcDbEntity
  8
0
 62
     7
  0
ENDBLK
  5
746
330
743
100
AcDbEntity
  8
0
100
AcDbBlockEnd
  0
BLOCK
  5
74D
330
74B
100
AcDbEntity
  8
0
100
AcDbBlockBegin
  2
BLOCK_224
 70
     0
 10
0.0
 20
0.0
 30
0.0
  3
BLOCK_224
  1

  0
POLYLINE
  5
74F
330
74B
100
AcDbEntity
  8
0
 62
     7
100
AcDb2dPolyline
 66
     1
 10
0.0
 20
0.0
 30
0.0
  0
VERTEX
  5
750
330
74F
100
AcDbEntity
  8
0
 62
     7
100
AcDbVertex
100
AcDb2dVertex
 10
624.999067931919
 20
490.3208359029616
 30
0.0
  0
VERTEX
  5
751
330
74F
100
AcDbEntity
  8
0
 62
     7
100
AcDbVertex
100
AcDb2dVertex
 10
619.9990679319188
 20
490.3208359029616
 30
0.0
  0
SEQEND
  5
752
330
74F
100
AcDbEntity
  8
0
 62
     7
  0
ENDBLK
  5
74E
330
74B
100
AcDbEntity
  8
0
100
AcDbBlockEnd
  0
BLOCK
  5
755
330
753
100
AcDbEntity
  8
0
100
AcDbBlockBegin
  2
BLOCK_225
 70
     0
 10
0.0
 20
0.0
 30
0.0
  3
BLOCK_225
  1

  0
POLYLINE
  5
757
330
753
100
AcDbEntity
  8
0
 62
     7
100
AcDb2dPolyline
 66
     1
 10
0.0
 20
0.0
 30
0.0
  0
VERTEX
  5
758
330
757
100
AcDbEntity
  8
0
 62
     7
100
AcDbVertex
100
AcDb2dVertex
 10
594.9990679319185
 20
394.320835902962
 30
0.0
  0
VERTEX
  5
759
330
757
100
AcDbEntity
  8
0
 62
     7
100
AcDbVertex
100
AcDb2dVertex
 10
594.9990679319185
 20
388.3208359029618
 30
0.0
  0
SEQEND
  5
75A
330
757
100
AcDbEntity
  8
0
 62
     7
  0
ENDBLK
  5
756
330
753
100
AcDbEntity
  8
0
100
AcDbBlockEnd
  0
BLOCK
  5
75D
330
75B
100
AcDbEntity
  8
0
100
AcDbBlockBegin
  2
BLOCK_226
 70
     0
 10
0.0
 20
0.0
 30
0.0
  3
BLOCK_226
  1

  0
POLYLINE
  5
75F
330
75B
100
AcDbEntity
  8
0
 62
     7
100
AcDb2dPolyline
 66
     1
 10
0.0
 20
0.0
 30
0.0
  0
VERTEX
  5
760
330
75F
100
AcDbEntity
  8
0
 62
     7
100
AcDbVertex
100
AcDb2dVertex
 10
604.999067931919
 20
484.3208359029617
 30
0.0
  0
VERTEX
  5
761
330
75F
100
AcDbEntity
  8
0
 62
     7
100
AcDbVertex
100
AcDb2dVertex
 10
604.999067931919
 20
490.3208359029616
 30
0.0
  0
SEQEND
  5
762
330
75F
100
AcDbEntity
  8
0
 62
     7
  0
ENDBLK
  5
75E
330
75B
100
AcDbEntity
  8
0
100
AcDbBlockEnd
  0
BLOCK
  5
765
330
763
100
AcDbEntity
  8
0
100
AcDbBlockBegin
  2
BLOCK_227
 70
     0
 10
0.0
 20
0.0
 30
0.0
  3
BLOCK_227
  1

  0
POLYLINE
  5
767
330
763
100
AcDbEntity
  8
0
 62
     7
100
AcDb2dPolyline
 66
     1
 10
0.0
 20
0.0
 30
0.0
  0
VERTEX
  5
768
330
767
100
AcDbEntity
  8
0
 62
     7
100
AcDbVertex
100
AcDb2dVertex
 10
589.9990679319184
 20
388.3208359029618
 30
0.0
  0
VERTEX
  5
769
330
767
100
AcDbEntity
  8
0
 62
     7
100
AcDbVertex
100
AcDb2dVertex
 10
594.9990679319185
 20
388.3208359029618
 30
0.0
  0
SEQEND
  5
76A
330
767
100
AcDbEntity
  8
0
 62
     7
  0
ENDBLK
  5
766
330
763
100
AcDbEntity
  8
0
100
AcDbBlockEnd
  0
BLOCK
  5
76D
330
76B
100
AcDbEntity
  8
0
100
AcDbBlockBegin
  2
BLOCK_228
 70
     0
 10
0.0
 20
0.0
 30
0.0
  3
BLOCK_228
  1

  0
POLYLINE
  5
76F
330
76B
100
AcDbEntity
  8
0
 62
     7
100
AcDb2dPolyline
 66
     1
 10
0.0
 20
0.0
 30
0.0
  0
VERTEX
  5
770
330
76F
100
AcDbEntity
  8
0
 62
     7
100
AcDbVertex
100
AcDb2dVertex
 10
614.9990679319186
 20
388.3208359029618
 30
0.0
  0
VERTEX
  5
771
330
76F
100
AcDbEntity
  8
0
 62
     7
100
AcDbVertex
100
AcDb2dVertex
 10
609.9990679319184
 20
388.3208359029618
 30
0.0
  0
SEQEND
  5
772
330
76F
100
AcDbEntity
  8
0
 62
     7
  0
ENDBLK
  5
76E
330
76B
100
AcDbEntity
  8
0
100
AcDbBlockEnd
  0
BLOCK
  5
775
330
773
100
AcDbEntity
  8
0
100
AcDbBlockBegin
  2
BLOCK_229
 70
     0
 10
0.0
 20
0.0
 30
0.0
  3
BLOCK_229
  1

  0
POLYLINE
  5
777
330
773
100
AcDbEntity
  8
0
 62
     7
100
AcDb2dPolyline
 66
     1
 10
0.0
 20
0.0
 30
0.0
  0
VERTEX
  5
778
330
777
100
AcDbEntity
  8
0
 62
     7
100
AcDbVertex
100
AcDb2dVertex
 10
569.999067931919
 20
388.3208359029618
 30
0.0
  0
VERTEX
  5
779
330
777
100
AcDbEntity
  8
0
 62
     7
100
AcDbVertex
100
AcDb2dVertex
 10
574.9990679319185
 20
388.3208359029618
 30
0.0
  0
SEQEND
  5
77A
330
777
100
AcDbEntity
  8
0
 62
     7
  0
ENDBLK
  5
776
330
773
100
AcDbEntity
  8
0
100
AcDbBlockEnd
  0
BLOCK
  5
77D
330
77B
100
AcDbEntity
  8
0
100
AcDbBlockBegin
  2
BLOCK_230
 70
     0
 10
0.0
 20
0.0
 30
0.0
  3
BLOCK_230
  1

  0
POLYLINE
  5
77F
330
77B
100
AcDbEntity
  8
0
 62
     7
100
AcDb2dPolyline
 66
     1
 10
0.0
 20
0.0
 30
0.0
  0
VERTEX
  5
780
330
77F
100
AcDbEntity
  8
0
 62
     7
100
AcDbVertex
100
AcDb2dVertex
 10
584.9990679319188
 20
388.3208359029618
 30
0.0
  0
VERTEX
  5
781
330
77F
100
AcDbEntity
  8
0
 62
     7
100
AcDbVertex
100
AcDb2dVertex
 10
579.9990679319186
 20
388.3208359029618
 30
0.0
  0
SEQEND
  5
782
330
77F
100
AcDbEntity
  8
0
 62
     7
  0
ENDBLK
  5
77E
330
77B
100
AcDbEntity
  8
0
100
AcDbBlockEnd
  0
BLOCK
  5
785
330
783
100
AcDbEntity
  8
0
100
AcDbBlockBegin
  2
BLOCK_231
 70
     0
 10
0.0
 20
0.0
 30
0.0
  3
BLOCK_231
  1

  0
POLYLINE
  5
787
330
783
100
AcDbEntity
  8
0
 62
     7
100
AcDb2dPolyline
 66
     1
 10
0.0
 20
0.0
 30
0.0
  0
VERTEX
  5
788
330
787
100
AcDbEntity
  8
0
 62
     7
100
AcDbVertex
100
AcDb2dVertex
 10
615.5593571062432
 20
388.3208359029618
 30
0.0
  0
VERTEX
  5
789
330
787
100
AcDbEntity
  8
0
 62
     7
100
AcDbVertex
100
AcDb2dVertex
 10
614.9990679319186
 20
388.3208359029618
 30
0.0
  0
SEQEND
  5
78A
330
787
100
AcDbEntity
  8
0
 62
     7
  0
ENDBLK
  5
786
330
783
100
AcDbEntity
  8
0
100
AcDbBlockEnd
  0
BLOCK
  5
78D
330
78B
100
AcDbEntity
  8
0
100
AcDbBlockBegin
  2
BLOCK_232
 70
     0
 10
0.0
 20
0.0
 30
0.0
  3
BLOCK_232
  1

  0
POLYLINE
  5
78F
330
78B
100
AcDbEntity
  8
0
 62
     7
100
AcDb2dPolyline
 66
     1
 10
0.0
 20
0.0
 30
0.0
  0
VERTEX
  5
790
330
78F
100
AcDbEntity
  8
0
 62
     7
100
AcDbVertex
100
AcDb2dVertex
 10
624.765863149815
 20
388.3208359029618
 30
0.0
  0
VERTEX
  5
791
330
78F
100
AcDbEntity
  8
0
 62
     7
100
AcDbVertex
100
AcDb2dVertex
 10
619.7658631498149
 20
388.3208359029618
 30
0.0
  0
SEQEND
  5
792
330
78F
100
AcDbEntity
  8
0
 62
     7
  0
ENDBLK
  5
78E
330
78B
100
AcDbEntity
  8
0
100
AcDbBlockEnd
  0
BLOCK
  5
795
330
793
100
AcDbEntity
  8
0
100
AcDbBlockBegin
  2
BLOCK_233
 70
     0
 10
0.0
 20
0.0
 30
0.0
  3
BLOCK_233
  1

  0
POLYLINE
  5
797
330
793
100
AcDbEntity
  8
0
 62
     7
100
AcDb2dPolyline
 66
     1
 10
0.0
 20
0.0
 30
0.0
  0
VERTEX
  5
798
330
797
100
AcDbEntity
  8
0
 62
     7
100
AcDbVertex
100
AcDb2dVertex
 10
604.999067931919
 20
388.3208359029618
 30
0.0
  0
VERTEX
  5
799
330
797
100
AcDbEntity
  8
0
 62
     7
100
AcDbVertex
100
AcDb2dVertex
 10
599.9990679319187
 20
388.3208359029618
 30
0.0
  0
SEQEND
  5
79A
330
797
100
AcDbEntity
  8
0
 62
     7
  0
ENDBLK
  5
796
330
793
100
AcDbEntity
  8
0
100
AcDbBlockEnd
  0
BLOCK
  5
79D
330
79B
100
AcDbEntity
  8
0
100
AcDbBlockBegin
  2
BLOCK_234
 70
     0
 10
0.0
 20
0.0
 30
0.0
  3
BLOCK_234
  1

  0
POLYLINE
  5
79F
330
79B
100
AcDbEntity
  8
0
 62
     7
100
AcDb2dPolyline
 66
     1
 10
0.0
 20
0.0
 30
0.0
  0
VERTEX
  5
7A0
330
79F
100
AcDbEntity
  8
0
 62
     7
100
AcDbVertex
100
AcDb2dVertex
 10
609.9990679319184
 20
490.3208359029616
 30
0.0
  0
VERTEX
  5
7A1
330
79F
100
AcDbEntity
  8
0
 62
     7
100
AcDbVertex
100
AcDb2dVertex
 10
609.9990679319184
 20
484.3208359029617
 30
0.0
  0
SEQEND
  5
7A2
330
79F
100
AcDbEntity
  8
0
 62
     7
  0
ENDBLK
  5
79E
330
79B
100
AcDbEntity
  8
0
100
AcDbBlockEnd
  0
BLOCK
  5
7A5
330
7A3
100
AcDbEntity
  8
0
100
AcDbBlockBegin
  2
BLOCK_235
 70
     0
 10
0.0
 20
0.0
 30
0.0
  3
BLOCK_235
  1

  0
POLYLINE
  5
7A7
330
7A3
100
AcDbEntity
  8
0
 62
     7
100
AcDb2dPolyline
 66
     1
 10
0.0
 20
0.0
 30
0.0
  0
VERTEX
  5
7A8
330
7A7
100
AcDbEntity
  8
0
 62
     7
100
AcDbVertex
100
AcDb2dVertex
 10
579.9990679319186
 20
394.320835902962
 30
0.0
  0
VERTEX
  5
7A9
330
7A7
100
AcDbEntity
  8
0
 62
     7
100
AcDbVertex
100
AcDb2dVertex
 10
579.9990679319186
 20
388.3208359029618
 30
0.0
  0
SEQEND
  5
7AA
330
7A7
100
AcDbEntity
  8
0
 62
     7
  0
ENDBLK
  5
7A6
330
7A3
100
AcDbEntity
  8
0
100
AcDbBlockEnd
  0
BLOCK
  5
7AD
330
7AB
100
AcDbEntity
  8
0
100
AcDbBlockBegin
  2
BLOCK_236
 70
     0
 10
0.0
 20
0.0
 30
0.0
  3
BLOCK_236
  1

  0
POLYLINE
  5
7AF
330
7AB
100
AcDbEntity
  8
0
 62
     7
100
AcDb2dPolyline
 66
     1
 10
0.0
 20
0.0
 30
0.0
  0
VERTEX
  5
7B0
330
7AF
100
AcDbEntity
  8
0
 62
     7
100
AcDbVertex
100
AcDb2dVertex
 10
619.9990679319188
 20
490.3208359029616
 30
0.0
  0
VERTEX
  5
7B1
330
7AF
100
AcDbEntity
  8
0
 62
     7
100
AcDbVertex
100
AcDb2dVertex
 10
619.9990679319188
 20
484.3208359029617
 30
0.0
  0
SEQEND
  5
7B2
330
7AF
100
AcDbEntity
  8
0
 62
     7
  0
ENDBLK
  5
7AE
330
7AB
100
AcDbEntity
  8
0
100
AcDbBlockEnd
  0
BLOCK
  5
7B5
330
7B3
100
AcDbEntity
  8
0
100
AcDbBlockBegin
  2
BLOCK_237
 70
     0
 10
0.0
 20
0.0
 30
0.0
  3
BLOCK_237
  1

  0
POLYLINE
  5
7B7
330
7B3
100
AcDbEntity
  8
0
 62
     7
100
AcDb2dPolyline
 66
     1
 10
0.0
 20
0.0
 30
0.0
  0
VERTEX
  5
7B8
330
7B7
100
AcDbEntity
  8
0
 62
     7
100
AcDbVertex
100
AcDb2dVertex
 10
599.9990679319187
 20
490.3208359029616
 30
0.0
  0
VERTEX
  5
7B9
330
7B7
100
AcDbEntity
  8
0
 62
     7
100
AcDbVertex
100
AcDb2dVertex
 10
599.9990679319187
 20
484.3208359029617
 30
0.0
  0
SEQEND
  5
7BA
330
7B7
100
AcDbEntity
  8
0
 62
     7
  0
ENDBLK
  5
7B6
330
7B3
100
AcDbEntity
  8
0
100
AcDbBlockEnd
  0
BLOCK
  5
7BD
330
7BB
100
AcDbEntity
  8
0
100
AcDbBlockBegin
  2
BLOCK_238
 70
     0
 10
0.0
 20
0.0
 30
0.0
  3
BLOCK_238
  1

  0
POLYLINE
  5
7BF
330
7BB
100
AcDbEntity
  8
0
 62
     7
100
AcDb2dPolyline
 66
     1
 10
0.0
 20
0.0
 30
0.0
  0
VERTEX
  5
7C0
330
7BF
100
AcDbEntity
  8
0
 62
     7
100
AcDbVertex
100
AcDb2dVertex
 10
604.999067931919
 20
484.3208359029617
 30
0.0
  0
VERTEX
  5
7C1
330
7BF
100
AcDbEntity
  8
0
 62
     7
100
AcDbVertex
100
AcDb2dVertex
 10
609.9990679319184
 20
484.3208359029617
 30
0.0
  0
SEQEND
  5
7C2
330
7BF
100
AcDbEntity
  8
0
 62
     7
  0
ENDBLK
  5
7BE
330
7BB
100
AcDbEntity
  8
0
100
AcDbBlockEnd
  0
BLOCK
  5
7C5
330
7C3
100
AcDbEntity
  8
0
100
AcDbBlockBegin
  2
BLOCK_239
 70
     0
 10
0.0
 20
0.0
 30
0.0
  3
BLOCK_239
  1

  0
POLYLINE
  5
7C7
330
7C3
100
AcDbEntity
  8
0
 62
     7
100
AcDb2dPolyline
 66
     1
 10
0.0
 20
0.0
 30
0.0
  0
VERTEX
  5
7C8
330
7C7
100
AcDbEntity
  8
0
 62
     7
100
AcDbVertex
100
AcDb2dVertex
 10
599.9990679319187
 20
394.320835902962
 30
0.0
  0
VERTEX
  5
7C9
330
7C7
100
AcDbEntity
  8
0
 62
     7
100
AcDbVertex
100
AcDb2dVertex
 10
599.9990679319187
 20
388.3208359029618
 30
0.0
  0
SEQEND
  5
7CA
330
7C7
100
AcDbEntity
  8
0
 62
     7
  0
ENDBLK
  5
7C6
330
7C3
100
AcDbEntity
  8
0
100
AcDbBlockEnd
  0
BLOCK
  5
7CD
330
7CB
100
AcDbEntity
  8
0
100
AcDbBlockBegin
  2
BLOCK_240
 70
     0
 10
0.0
 20
0.0
 30
0.0
  3
BLOCK_240
  1

  0
POLYLINE
  5
7CF
330
7CB
100
AcDbEntity
  8
0
 62
     7
100
AcDb2dPolyline
 66
     1
 10
0.0
 20
0.0
 30
0.0
  0
VERTEX
  5
7D0
330
7CF
100
AcDbEntity
  8
0
 62
     7
100
AcDbVertex
100
AcDb2dVertex
 10
624.999067931919
 20
484.3208359029617
 30
0.0
  0
VERTEX
  5
7D1
330
7CF
100
AcDbEntity
  8
0
 62
     7
100
AcDbVertex
100
AcDb2dVertex
 10
629.9990679319185
 20
484.3208359029617
 30
0.0
  0
SEQEND
  5
7D2
330
7CF
100
AcDbEntity
  8
0
 62
     7
  0
ENDBLK
  5
7CE
330
7CB
100
AcDbEntity
  8
0
100
AcDbBlockEnd
  0
BLOCK
  5
7D5
330
7D3
100
AcDbEntity
  8
0
100
AcDbBlockBegin
  2
BLOCK_241
 70
     0
 10
0.0
 20
0.0
 30
0.0
  3
BLOCK_241
  1

  0
POLYLINE
  5
7D7
330
7D3
100
AcDbEntity
  8
0
 62
     7
100
AcDb2dPolyline
 66
     1
 10
0.0
 20
0.0
 30
0.0
  0
VERTEX
  5
7D8
330
7D7
100
AcDbEntity
  8
0
 62
     7
100
AcDbVertex
100
AcDb2dVertex
 10
619.7658631498149
 20
388.3208359029618
 30
0.0
  0
VERTEX
  5
7D9
330
7D7
100
AcDbEntity
  8
0
 62
     7
100
AcDbVertex
100
AcDb2dVertex
 10
624.765863149815
 20
388.3208359029618
 30
0.0
  0
SEQEND
  5
7DA
330
7D7
100
AcDbEntity
  8
0
 62
     7
  0
ENDBLK
  5
7D6
330
7D3
100
AcDbEntity
  8
0
100
AcDbBlockEnd
  0
BLOCK
  5
7DD
330
7DB
100
AcDbEntity
  8
0
100
AcDbBlockBegin
  2
BLOCK_242
 70
     0
 10
0.0
 20
0.0
 30
0.0
  3
BLOCK_242
  1

  0
POLYLINE
  5
7DF
330
7DB
100
AcDbEntity
  8
0
 62
     7
100
AcDb2dPolyline
 66
     1
 10
0.0
 20
0.0
 30
0.0
  0
VERTEX
  5
7E0
330
7DF
100
AcDbEntity
  8
0
 62
     7
100
AcDbVertex
100
AcDb2dVertex
 10
609.9990679319184
 20
388.3208359029618
 30
0.0
  0
VERTEX
  5
7E1
330
7DF
100
AcDbEntity
  8
0
 62
     7
100
AcDbVertex
100
AcDb2dVertex
 10
614.9990679319186
 20
388.3208359029618
 30
0.0
  0
SEQEND
  5
7E2
330
7DF
100
AcDbEntity
  8
0
 62
     7
  0
ENDBLK
  5
7DE
330
7DB
100
AcDbEntity
  8
0
100
AcDbBlockEnd
  0
BLOCK
  5
7E5
330
7E3
100
AcDbEntity
  8
0
100
AcDbBlockBegin
  2
BLOCK_243
 70
     0
 10
0.0
 20
0.0
 30
0.0
  3
BLOCK_243
  1

  0
POLYLINE
  5
7E7
330
7E3
100
AcDbEntity
  8
0
 62
     7
100
AcDb2dPolyline
 66
     1
 10
0.0
 20
0.0
 30
0.0
  0
VERTEX
  5
7E8
330
7E7
100
AcDbEntity
  8
0
 62
     7
100
AcDbVertex
100
AcDb2dVertex
 10
569.999067931919
 20
388.3208359029618
 30
0.0
  0
VERTEX
  5
7E9
330
7E7
100
AcDbEntity
  8
0
 62
     7
100
AcDbVertex
100
AcDb2dVertex
 10
574.9990679319185
 20
388.3208359029618
 30
0.0
  0
SEQEND
  5
7EA
330
7E7
100
AcDbEntity
  8
0
 62
     7
  0
ENDBLK
  5
7E6
330
7E3
100
AcDbEntity
  8
0
100
AcDbBlockEnd
  0
BLOCK
  5
7ED
330
7EB
100
AcDbEntity
  8
0
100
AcDbBlockBegin
  2
BLOCK_244
 70
     0
 10
0.0
 20
0.0
 30
0.0
  3
BLOCK_244
  1

  0
POLYLINE
  5
7EF
330
7EB
100
AcDbEntity
  8
0
 62
     7
100
AcDb2dPolyline
 66
     1
 10
0.0
 20
0.0
 30
0.0
  0
VERTEX
  5
7F0
330
7EF
100
AcDbEntity
  8
0
 62
     7
100
AcDbVertex
100
AcDb2dVertex
 10
579.9990679319186
 20
388.3208359029618
 30
0.0
  0
VERTEX
  5
7F1
330
7EF
100
AcDbEntity
  8
0
 62
     7
100
AcDbVertex
100
AcDb2dVertex
 10
584.9990679319188
 20
388.3208359029618
 30
0.0
  0
SEQEND
  5
7F2
330
7EF
100
AcDbEntity
  8
0
 62
     7
  0
ENDBLK
  5
7EE
330
7EB
100
AcDbEntity
  8
0
100
AcDbBlockEnd
  0
BLOCK
  5
7F5
330
7F3
100
AcDbEntity
  8
0
100
AcDbBlockBegin
  2
BLOCK_245
 70
     0
 10
0.0
 20
0.0
 30
0.0
  3
BLOCK_245
  1

  0
POLYLINE
  5
7F7
330
7F3
100
AcDbEntity
  8
0
 62
     7
100
AcDb2dPolyline
 66
     1
 10
0.0
 20
0.0
 30
0.0
  0
VERTEX
  5
7F8
330
7F7
100
AcDbEntity
  8
0
 62
     7
100
AcDbVertex
100
AcDb2dVertex
 10
594.9990679319185
 20
388.3208359029618
 30
0.0
  0
VERTEX
  5
7F9
330
7F7
100
AcDbEntity
  8
0
 62
     7
100
AcDbVertex
100
AcDb2dVertex
 10
589.9990679319184
 20
388.3208359029618
 30
0.0
  0
SEQEND
  5
7FA
330
7F7
100
AcDbEntity
  8
0
 62
     7
  0
ENDBLK
  5
7F6
330
7F3
100
AcDbEntity
  8
0
100
AcDbBlockEnd
  0
BLOCK
  5
7FD
330
7FB
100
AcDbEntity
  8
0
100
AcDbBlockBegin
  2
BLOCK_246
 70
     0
 10
0.0
 20
0.0
 30
0.0
  3
BLOCK_246
  1

  0
POLYLINE
  5
7FF
330
7FB
100
AcDbEntity
  8
0
 62
     7
100
AcDb2dPolyline
 66
     1
 10
0.0
 20
0.0
 30
0.0
  0
VERTEX
  5
800
330
7FF
100
AcDbEntity
  8
0
 62
     7
100
AcDbVertex
100
AcDb2dVertex
 10
624.999067931919
 20
490.3208359029616
 30
0.0
  0
VERTEX
  5
801
330
7FF
100
AcDbEntity
  8
0
 62
     7
100
AcDbVertex
100
AcDb2dVertex
 10
619.9990679319188
 20
490.3208359029616
 30
0.0
  0
SEQEND
  5
802
330
7FF
100
AcDbEntity
  8
0
 62
     7
  0
ENDBLK
  5
7FE
330
7FB
100
AcDbEntity
  8
0
100
AcDbBlockEnd
  0
BLOCK
  5
805
330
803
100
AcDbEntity
  8
0
100
AcDbBlockBegin
  2
BLOCK_247
 70
     0
 10
0.0
 20
0.0
 30
0.0
  3
BLOCK_247
  1

  0
POLYLINE
  5
807
330
803
100
AcDbEntity
  8
0
 62
     7
100
AcDb2dPolyline
 66
     1
 10
0.0
 20
0.0
 30
0.0
  0
VERTEX
  5
808
330
807
100
AcDbEntity
  8
0
 62
     7
100
AcDbVertex
100
AcDb2dVertex
 10
614.9990679319186
 20
484.3208359029617
 30
0.0
  0
VERTEX
  5
809
330
807
100
AcDbEntity
  8
0
 62
     7
100
AcDbVertex
100
AcDb2dVertex
 10
619.9990679319188
 20
484.3208359029617
 30
0.0
  0
SEQEND
  5
80A
330
807
100
AcDbEntity
  8
0
 62
     7
  0
ENDBLK
  5
806
330
803
100
AcDbEntity
  8
0
100
AcDbBlockEnd
  0
BLOCK
  5
80D
330
80B
100
AcDbEntity
  8
0
100
AcDbBlockBegin
  2
BLOCK_248
 70
     0
 10
0.0
 20
0.0
 30
0.0
  3
BLOCK_248
  1

  0
POLYLINE
  5
80F
330
80B
100
AcDbEntity
  8
0
 62
     7
100
AcDb2dPolyline
 66
     1
 10
0.0
 20
0.0
 30
0.0
  0
VERTEX
  5
810
330
80F
100
AcDbEntity
  8
0
 62
     7
100
AcDbVertex
100
AcDb2dVertex
 10
619.7658631498149
 20
394.320835902962
 30
0.0
  0
VERTEX
  5
811
330
80F
100
AcDbEntity
  8
0
 62
     7
100
AcDbVertex
100
AcDb2dVertex
 10
619.7658631498149
 20
388.3208359029618
 30
0.0
  0
SEQEND
  5
812
330
80F
100
AcDbEntity
  8
0
 62
     7
  0
ENDBLK
  5
80E
330
80B
100
AcDbEntity
  8
0
100
AcDbBlockEnd
  0
BLOCK
  5
815
330
813
100
AcDbEntity
  8
0
100
AcDbBlockBegin
  2
BLOCK_249
 70
     0
 10
0.0
 20
0.0
 30
0.0
  3
BLOCK_249
  1

  0
POLYLINE
  5
817
330
813
100
AcDbEntity
  8
0
 62
     7
100
AcDb2dPolyline
 66
     1
 10
0.0
 20
0.0
 30
0.0
  0
VERTEX
  5
818
330
817
100
AcDbEntity
  8
0
 62
     7
100
AcDbVertex
100
AcDb2dVertex
 10
614.9990679319186
 20
388.3208359029618
 30
0.0
  0
VERTEX
  5
819
330
817
100
AcDbEntity
  8
0
 62
     7
100
AcDbVertex
100
AcDb2dVertex
 10
614.9990679319186
 20
394.320835902962
 30
0.0
  0
SEQEND
  5
81A
330
817
100
AcDbEntity
  8
0
 62
     7
  0
ENDBLK
  5
816
330
813
100
AcDbEntity
  8
0
100
AcDbBlockEnd
  0
BLOCK
  5
81D
330
81B
100
AcDbEntity
  8
0
100
AcDbBlockBegin
  2
BLOCK_250
 70
     0
 10
0.0
 20
0.0
 30
0.0
  3
BLOCK_250
  1

  0
POLYLINE
  5
81F
330
81B
100
AcDbEntity
  8
0
 62
     7
100
AcDb2dPolyline
 66
     1
 10
0.0
 20
0.0
 30
0.0
  0
VERTEX
  5
820
330
81F
100
AcDbEntity
  8
0
 62
     7
100
AcDbVertex
100
AcDb2dVertex
 10
599.9990679319187
 20
388.3208359029618
 30
0.0
  0
VERTEX
  5
821
330
81F
100
AcDbEntity
  8
0
 62
     7
100
AcDbVertex
100
AcDb2dVertex
 10
604.999067931919
 20
388.3208359029618
 30
0.0
  0
SEQEND
  5
822
330
81F
100
AcDbEntity
  8
0
 62
     7
  0
ENDBLK
  5
81E
330
81B
100
AcDbEntity
  8
0
100
AcDbBlockEnd
  0
BLOCK
  5
825
330
823
100
AcDbEntity
  8
0
100
AcDbBlockBegin
  2
BLOCK_251
 70
     0
 10
0.0
 20
0.0
 30
0.0
  3
BLOCK_251
  1

  0
POLYLINE
  5
827
330
823
100
AcDbEntity
  8
0
 62
     7
100
AcDb2dPolyline
 66
     1
 10
0.0
 20
0.0
 30
0.0
  0
VERTEX
  5
828
330
827
100
AcDbEntity
  8
0
 62
     7
100
AcDbVertex
100
AcDb2dVertex
 10
614.9990679319186
 20
394.320835902962
 30
0.0
  0
VERTEX
  5
829
330
827
100
AcDbEntity
  8
0
 62
     7
100
AcDbVertex
100
AcDb2dVertex
 10
614.9990679319186
 20
388.3208359029618
 30
0.0
  0
SEQEND
  5
82A
330
827
100
AcDbEntity
  8
0
 62
     7
  0
ENDBLK
  5
826
330
823
100
AcDbEntity
  8
0
100
AcDbBlockEnd
  0
BLOCK
  5
82D
330
82B
100
AcDbEntity
  8
0
100
AcDbBlockBegin
  2
BLOCK_252
 70
     0
 10
0.0
 20
0.0
 30
0.0
  3
BLOCK_252
  1

  0
POLYLINE
  5
82F
330
82B
100
AcDbEntity
  8
0
 62
     7
100
AcDb2dPolyline
 66
     1
 10
0.0
 20
0.0
 30
0.0
  0
VERTEX
  5
830
330
82F
100
AcDbEntity
  8
0
 62
     7
100
AcDbVertex
100
AcDb2dVertex
 10
629.7658631498145
 20
400.3208359029616
 30
0.0
  0
VERTEX
  5
831
330
82F
100
AcDbEntity
  8
0
 62
     7
100
AcDbVertex
100
AcDb2dVertex
 10
629.9990679319185
 20
400.3208359029616
 30
0.0
  0
SEQEND
  5
832
330
82F
100
AcDbEntity
  8
0
 62
     7
  0
ENDBLK
  5
82E
330
82B
100
AcDbEntity
  8
0
100
AcDbBlockEnd
  0
BLOCK
  5
835
330
833
100
AcDbEntity
  8
0
100
AcDbBlockBegin
  2
BLOCK_253
 70
     0
 10
0.0
 20
0.0
 30
0.0
  3
BLOCK_253
  1

  0
POLYLINE
  5
837
330
833
100
AcDbEntity
  8
0
 62
     7
100
AcDb2dPolyline
 66
     1
 10
0.0
 20
0.0
 30
0.0
  0
VERTEX
  5
838
330
837
100
AcDbEntity
  8
0
 62
     7
100
AcDbVertex
100
AcDb2dVertex
 10
619.7658631498149
 20
394.320835902962
 30
0.0
  0
VERTEX
  5
839
330
837
100
AcDbEntity
  8
0
 62
     7
100
AcDbVertex
100
AcDb2dVertex
 10
614.9990679319186
 20
394.320835902962
 30
0.0
  0
SEQEND
  5
83A
330
837
100
AcDbEntity
  8
0
 62
     7
  0
ENDBLK
  5
836
330
833
100
AcDbEntity
  8
0
100
AcDbBlockEnd
  0
BLOCK
  5
83D
330
83B
100
AcDbEntity
  8
0
100
AcDbBlockBegin
  2
BLOCK_254
 70
     0
 10
0.0
 20
0.0
 30
0.0
  3
BLOCK_254
  1

  0
POLYLINE
  5
83F
330
83B
100
AcDbEntity
  8
0
 62
     7
100
AcDb2dPolyline
 66
     1
 10
0.0
 20
0.0
 30
0.0
  0
VERTEX
  5
840
330
83F
100
AcDbEntity
  8
0
 62
     7
100
AcDbVertex
100
AcDb2dVertex
 10
594.9990679319185
 20
484.3208359029617
 30
0.0
  0
VERTEX
  5
841
330
83F
100
AcDbEntity
  8
0
 62
     7
100
AcDbVertex
100
AcDb2dVertex
 10
594.9990679319185
 20
490.3208359029616
 30
0.0
  0
SEQEND
  5
842
330
83F
100
AcDbEntity
  8
0
 62
     7
  0
ENDBLK
  5
83E
330
83B
100
AcDbEntity
  8
0
100
AcDbBlockEnd
  0
BLOCK
  5
845
330
843
100
AcDbEntity
  8
0
100
AcDbBlockBegin
  2
BLOCK_255
 70
     0
 10
0.0
 20
0.0
 30
0.0
  3
BLOCK_255
  1

  0
POLYLINE
  5
847
330
843
100
AcDbEntity
  8
0
 62
     7
100
AcDb2dPolyline
 66
     1
 10
0.0
 20
0.0
 30
0.0
  0
VERTEX
  5
848
330
847
100
AcDbEntity
  8
0
 62
     7
100
AcDbVertex
100
AcDb2dVertex
 10
579.9990679319186
 20
388.3208359029618
 30
0.0
  0
VERTEX
  5
849
330
847
100
AcDbEntity
  8
0
 62
     7
100
AcDbVertex
100
AcDb2dVertex
 10
579.9990679319186
 20
394.320835902962
 30
0.0
  0
SEQEND
  5
84A
330
847
100
AcDbEntity
  8
0
 62
     7
  0
ENDBLK
  5
846
330
843
100
AcDbEntity
  8
0
100
AcDbBlockEnd
  0
BLOCK
  5
84D
330
84B
100
AcDbEntity
  8
0
100
AcDbBlockBegin
  2
BLOCK_256
 70
     0
 10
0.0
 20
0.0
 30
0.0
  3
BLOCK_256
  1

  0
POLYLINE
  5
84F
330
84B
100
AcDbEntity
  8
0
 62
     7
100
AcDb2dPolyline
 66
     1
 10
0.0
 20
0.0
 30
0.0
  0
VERTEX
  5
850
330
84F
100
AcDbEntity
  8
0
 62
     7
100
AcDbVertex
100
AcDb2dVertex
 10
569.999067931919
 20
478.3208359029618
 30
0.0
  0
VERTEX
  5
851
330
84F
100
AcDbEntity
  8
0
 62
     7
100
AcDbVertex
100
AcDb2dVertex
 10
569.999067931919
 20
490.3208359029616
 30
0.0
  0
SEQEND
  5
852
330
84F
100
AcDbEntity
  8
0
 62
     7
  0
ENDBLK
  5
84E
330
84B
100
AcDbEntity
  8
0
100
AcDbBlockEnd
  0
BLOCK
  5
855
330
853
100
AcDbEntity
  8
0
100
AcDbBlockBegin
  2
BLOCK_257
 70
     0
 10
0.0
 20
0.0
 30
0.0
  3
BLOCK_257
  1

  0
POLYLINE
  5
857
330
853
100
AcDbEntity
  8
0
 62
     7
100
AcDb2dPolyline
 66
     1
 10
0.0
 20
0.0
 30
0.0
  0
VERTEX
  5
858
330
857
100
AcDbEntity
  8
0
 62
     7
100
AcDbVertex
100
AcDb2dVertex
 10
594.9990679319185
 20
490.3208359029616
 30
0.0
  0
VERTEX
  5
859
330
857
100
AcDbEntity
  8
0
 62
     7
100
AcDbVertex
100
AcDb2dVertex
 10
589.9990679319184
 20
490.3208359029616
 30
0.0
  0
SEQEND
  5
85A
330
857
100
AcDbEntity
  8
0
 62
     7
  0
ENDBLK
  5
856
330
853
100
AcDbEntity
  8
0
100
AcDbBlockEnd
  0
BLOCK
  5
85D
330
85B
100
AcDbEntity
  8
0
100
AcDbBlockBegin
  2
BLOCK_258
 70
     0
 10
0.0
 20
0.0
 30
0.0
  3
BLOCK_258
  1

  0
POLYLINE
  5
85F
330
85B
100
AcDbEntity
  8
0
 62
     7
100
AcDb2dPolyline
 66
     1
 10
0.0
 20
0.0
 30
0.0
  0
VERTEX
  5
860
330
85F
100
AcDbEntity
  8
0
 62
     7
100
AcDbVertex
100
AcDb2dVertex
 10
609.9990679319184
 20
394.320835902962
 30
0.0
  0
VERTEX
  5
861
330
85F
100
AcDbEntity
  8
0
 62
     7
100
AcDbVertex
100
AcDb2dVertex
 10
609.9990679319184
 20
388.3208359029618
 30
0.0
  0
SEQEND
  5
862
330
85F
100
AcDbEntity
  8
0
 62
     7
  0
ENDBLK
  5
85E
330
85B
100
AcDbEntity
  8
0
100
AcDbBlockEnd
  0
BLOCK
  5
865
330
863
100
AcDbEntity
  8
0
100
AcDbBlockBegin
  2
BLOCK_259
 70
     0
 10
0.0
 20
0.0
 30
0.0
  3
BLOCK_259
  1

  0
POLYLINE
  5
867
330
863
100
AcDbEntity
  8
0
 62
     7
100
AcDb2dPolyline
 66
     1
 10
0.0
 20
0.0
 30
0.0
  0
VERTEX
  5
868
330
867
100
AcDbEntity
  8
0
 62
     7
100
AcDbVertex
100
AcDb2dVertex
 10
629.9990679319185
 20
400.3208359029616
 30
0.0
  0
VERTEX
  5
869
330
867
100
AcDbEntity
  8
0
 62
     7
100
AcDbVertex
100
AcDb2dVertex
 10
629.9990679319185
 20
478.3208359029618
 30
0.0
  0
SEQEND
  5
86A
330
867
100
AcDbEntity
  8
0
 62
     7
  0
ENDBLK
  5
866
330
863
100
AcDbEntity
  8
0
100
AcDbBlockEnd
  0
BLOCK
  5
86D
330
86B
100
AcDbEntity
  8
0
100
AcDbBlockBegin
  2
BLOCK_260
 70
     0
 10
0.0
 20
0.0
 30
0.0
  3
BLOCK_260
  1

  0
POLYLINE
  5
86F
330
86B
100
AcDbEntity
  8
0
 62
     7
100
AcDb2dPolyline
 66
     1
 10
0.0
 20
0.0
 30
0.0
  0
VERTEX
  5
870
330
86F
100
AcDbEntity
  8
0
 62
     7
100
AcDbVertex
100
AcDb2dVertex
 10
569.999067931919
 20
490.3208359029616
 30
0.0
  0
VERTEX
  5
871
330
86F
100
AcDbEntity
  8
0
 62
     7
100
AcDbVertex
100
AcDb2dVertex
 10
569.999067931919
 20
388.3208359029618
 30
0.0
  0
SEQEND
  5
872
330
86F
100
AcDbEntity
  8
0
 62
     7
  0
ENDBLK
  5
86E
330
86B
100
AcDbEntity
  8
0
100
AcDbBlockEnd
  0
BLOCK
  5
875
330
873
100
AcDbEntity
  8
0
100
AcDbBlockBegin
  2
BLOCK_261
 70
     0
 10
0.0
 20
0.0
 30
0.0
  3
BLOCK_261
  1

  0
POLYLINE
  5
877
330
873
100
AcDbEntity
  8
0
 62
     7
100
AcDb2dPolyline
 66
     1
 10
0.0
 20
0.0
 30
0.0
  0
VERTEX
  5
878
330
877
100
AcDbEntity
  8
0
 62
     7
100
AcDbVertex
100
AcDb2dVertex
 10
594.9990679319185
 20
484.3208359029617
 30
0.0
  0
VERTEX
  5
879
330
877
100
AcDbEntity
  8
0
 62
     7
100
AcDbVertex
100
AcDb2dVertex
 10
599.9990679319187
 20
484.3208359029617
 30
0.0
  0
SEQEND
  5
87A
330
877
100
AcDbEntity
  8
0
 62
     7
  0
ENDBLK
  5
876
330
873
100
AcDbEntity
  8
0
100
AcDbBlockEnd
  0
BLOCK
  5
87D
330
87B
100
AcDbEntity
  8
0
100
AcDbBlockBegin
  2
BLOCK_262
 70
     0
 10
0.0
 20
0.0
 30
0.0
  3
BLOCK_262
  1

  0
POLYLINE
  5
87F
330
87B
100
AcDbEntity
  8
0
 62
     7
100
AcDb2dPolyline
 66
     1
 10
0.0
 20
0.0
 30
0.0
  0
VERTEX
  5
880
330
87F
100
AcDbEntity
  8
0
 62
     7
100
AcDbVertex
100
AcDb2dVertex
 10
584.9990679319188
 20
484.3208359029617
 30
0.0
  0
VERTEX
  5
881
330
87F
100
AcDbEntity
  8
0
 62
     7
100
AcDbVertex
100
AcDb2dVertex
 10
584.9990679319188
 20
490.3208359029616
 30
0.0
  0
SEQEND
  5
882
330
87F
100
AcDbEntity
  8
0
 62
     7
  0
ENDBLK
  5
87E
330
87B
100
AcDbEntity
  8
0
100
AcDbBlockEnd
  0
BLOCK
  5
885
330
883
100
AcDbEntity
  8
0
100
AcDbBlockBegin
  2
BLOCK_263
 70
     0
 10
0.0
 20
0.0
 30
0.0
  3
BLOCK_263
  1

  0
POLYLINE
  5
887
330
883
100
AcDbEntity
  8
0
 62
     7
100
AcDb2dPolyline
 66
     1
 10
0.0
 20
0.0
 30
0.0
  0
VERTEX
  5
888
330
887
100
AcDbEntity
  8
0
 62
     7
100
AcDbVertex
100
AcDb2dVertex
 10
609.9990679319184
 20
388.3208359029618
 30
0.0
  0
VERTEX
  5
889
330
887
100
AcDbEntity
  8
0
 62
     7
100
AcDbVertex
100
AcDb2dVertex
 10
609.9990679319184
 20
394.320835902962
 30
0.0
  0
SEQEND
  5
88A
330
887
100
AcDbEntity
  8
0
 62
     7
  0
ENDBLK
  5
886
330
883
100
AcDbEntity
  8
0
100
AcDbBlockEnd
  0
BLOCK
  5
88D
330
88B
100
AcDbEntity
  8
0
100
AcDbBlockBegin
  2
BLOCK_264
 70
     0
 10
0.0
 20
0.0
 30
0.0
  3
BLOCK_264
  1

  0
POLYLINE
  5
88F
330
88B
100
AcDbEntity
  8
0
 62
     7
100
AcDb2dPolyline
 66
     1
 10
0.0
 20
0.0
 30
0.0
  0
VERTEX
  5
890
330
88F
100
AcDbEntity
  8
0
 62
     7
100
AcDbVertex
100
AcDb2dVertex
 10
604.999067931919
 20
394.320835902962
 30
0.0
  0
VERTEX
  5
891
330
88F
100
AcDbEntity
  8
0
 62
     7
100
AcDbVertex
100
AcDb2dVertex
 10
604.999067931919
 20
388.3208359029618
 30
0.0
  0
SEQEND
  5
892
330
88F
100
AcDbEntity
  8
0
 62
     7
  0
ENDBLK
  5
88E
330
88B
100
AcDbEntity
  8
0
100
AcDbBlockEnd
  0
BLOCK
  5
895
330
893
100
AcDbEntity
  8
0
100
AcDbBlockBegin
  2
BLOCK_265
 70
     0
 10
0.0
 20
0.0
 30
0.0
  3
BLOCK_265
  1

  0
POLYLINE
  5
897
330
893
100
AcDbEntity
  8
0
 62
     7
100
AcDb2dPolyline
 66
     1
 10
0.0
 20
0.0
 30
0.0
  0
VERTEX
  5
898
330
897
100
AcDbEntity
  8
0
 62
     7
100
AcDbVertex
100
AcDb2dVertex
 10
629.9990679319185
 20
484.3208359029617
 30
0.0
  0
VERTEX
  5
899
330
897
100
AcDbEntity
  8
0
 62
     7
100
AcDbVertex
100
AcDb2dVertex
 10
629.9990679319185
 20
478.3208359029618
 30
0.0
  0
SEQEND
  5
89A
330
897
100
AcDbEntity
  8
0
 62
     7
  0
ENDBLK
  5
896
330
893
100
AcDbEntity
  8
0
100
AcDbBlockEnd
  0
BLOCK
  5
89D
330
89B
100
AcDbEntity
  8
0
100
AcDbBlockBegin
  2
BLOCK_266
 70
     0
 10
0.0
 20
0.0
 30
0.0
  3
BLOCK_266
  1

  0
POLYLINE
  5
89F
330
89B
100
AcDbEntity
  8
0
 62
     7
100
AcDb2dPolyline
 66
     1
 10
0.0
 20
0.0
 30
0.0
  0
VERTEX
  5
8A0
330
89F
100
AcDbEntity
  8
0
 62
     7
100
AcDbVertex
100
AcDb2dVertex
 10
599.9990679319187
 20
394.320835902962
 30
0.0
  0
VERTEX
  5
8A1
330
89F
100
AcDbEntity
  8
0
 62
     7
100
AcDbVertex
100
AcDb2dVertex
 10
594.9990679319185
 20
394.320835902962
 30
0.0
  0
SEQEND
  5
8A2
330
89F
100
AcDbEntity
  8
0
 62
     7
  0
ENDBLK
  5
89E
330
89B
100
AcDbEntity
  8
0
100
AcDbBlockEnd
  0
BLOCK
  5
8A5
330
8A3
100
AcDbEntity
  8
0
100
AcDbBlockBegin
  2
BLOCK_267
 70
     0
 10
0.0
 20
0.0
 30
0.0
  3
BLOCK_267
  1

  0
POLYLINE
  5
8A7
330
8A3
100
AcDbEntity
  8
0
 62
     7
100
AcDb2dPolyline
 66
     1
 10
0.0
 20
0.0
 30
0.0
  0
VERTEX
  5
8A8
330
8A7
100
AcDbEntity
  8
0
 62
     7
100
AcDbVertex
100
AcDb2dVertex
 10
624.999067931919
 20
484.3208359029617
 30
0.0
  0
VERTEX
  5
8A9
330
8A7
100
AcDbEntity
  8
0
 62
     7
100
AcDbVertex
100
AcDb2dVertex
 10
624.999067931919
 20
490.3208359029616
 30
0.0
  0
SEQEND
  5
8AA
330
8A7
100
AcDbEntity
  8
0
 62
     7
  0
ENDBLK
  5
8A6
330
8A3
100
AcDbEntity
  8
0
100
AcDbBlockEnd
  0
BLOCK
  5
8AD
330
8AB
100
AcDbEntity
  8
0
100
AcDbBlockBegin
  2
BLOCK_268
 70
     0
 10
0.0
 20
0.0
 30
0.0
  3
BLOCK_268
  1

  0
POLYLINE
  5
8AF
330
8AB
100
AcDbEntity
  8
0
 62
     7
100
AcDb2dPolyline
 66
     1
 10
0.0
 20
0.0
 30
0.0
  0
VERTEX
  5
8B0
330
8AF
100
AcDbEntity
  8
0
 62
     7
100
AcDbVertex
100
AcDb2dVertex
 10
584.9990679319188
 20
490.3208359029616
 30
0.0
  0
VERTEX
  5
8B1
330
8AF
100
AcDbEntity
  8
0
 62
     7
100
AcDbVertex
100
AcDb2dVertex
 10
579.9990679319186
 20
490.3208359029616
 30
0.0
  0
SEQEND
  5
8B2
330
8AF
100
AcDbEntity
  8
0
 62
     7
  0
ENDBLK
  5
8AE
330
8AB
100
AcDbEntity
  8
0
100
AcDbBlockEnd
  0
BLOCK
  5
8B5
330
8B3
100
AcDbEntity
  8
0
100
AcDbBlockBegin
  2
BLOCK_269
 70
     0
 10
0.0
 20
0.0
 30
0.0
  3
BLOCK_269
  1

  0
POLYLINE
  5
8B7
330
8B3
100
AcDbEntity
  8
0
 62
     7
100
AcDb2dPolyline
 66
     1
 10
0.0
 20
0.0
 30
0.0
  0
VERTEX
  5
8B8
330
8B7
100
AcDbEntity
  8
0
 62
     7
100
AcDbVertex
100
AcDb2dVertex
 10
599.9990679319187
 20
388.3208359029618
 30
0.0
  0
VERTEX
  5
8B9
330
8B7
100
AcDbEntity
  8
0
 62
     7
100
AcDbVertex
100
AcDb2dVertex
 10
599.9990679319187
 20
394.320835902962
 30
0.0
  0
SEQEND
  5
8BA
330
8B7
100
AcDbEntity
  8
0
 62
     7
  0
ENDBLK
  5
8B6
330
8B3
100
AcDbEntity
  8
0
100
AcDbBlockEnd
  0
BLOCK
  5
8BD
330
8BB
100
AcDbEntity
  8
0
100
AcDbBlockBegin
  2
BLOCK_270
 70
     0
 10
0.0
 20
0.0
 30
0.0
  3
BLOCK_270
  1

  0
POLYLINE
  5
8BF
330
8BB
100
AcDbEntity
  8
0
 62
     7
100
AcDb2dPolyline
 66
     1
 10
0.0
 20
0.0
 30
0.0
  0
VERTEX
  5
8C0
330
8BF
100
AcDbEntity
  8
0
 62
     7
100
AcDbVertex
100
AcDb2dVertex
 10
569.999067931919
 20
400.3208359029616
 30
0.0
  0
VERTEX
  5
8C1
330
8BF
100
AcDbEntity
  8
0
 62
     7
100
AcDbVertex
100
AcDb2dVertex
 10
569.999067931919
 20
388.3208359029618
 30
0.0
  0
SEQEND
  5
8C2
330
8BF
100
AcDbEntity
  8
0
 62
     7
  0
ENDBLK
  5
8BE
330
8BB
100
AcDbEntity
  8
0
100
AcDbBlockEnd
  0
BLOCK
  5
8C5
330
8C3
100
AcDbEntity
  8
0
100
AcDbBlockBegin
  2
BLOCK_271
 70
     0
 10
0.0
 20
0.0
 30
0.0
  3
BLOCK_271
  1

  0
POLYLINE
  5
8C7
330
8C3
100
AcDbEntity
  8
0
 62
     7
100
AcDb2dPolyline
 66
     1
 10
0.0
 20
0.0
 30
0.0
  0
VERTEX
  5
8C8
330
8C7
100
AcDbEntity
  8
0
 62
     7
100
AcDbVertex
100
AcDb2dVertex
 10
574.9990679319185
 20
490.3208359029616
 30
0.0
  0
VERTEX
  5
8C9
330
8C7
100
AcDbEntity
  8
0
 62
     7
100
AcDbVertex
100
AcDb2dVertex
 10
569.999067931919
 20
490.3208359029616
 30
0.0
  0
SEQEND
  5
8CA
330
8C7
100
AcDbEntity
  8
0
 62
     7
  0
ENDBLK
  5
8C6
330
8C3
100
AcDbEntity
  8
0
100
AcDbBlockEnd
  0
BLOCK
  5
8CD
330
8CB
100
AcDbEntity
  8
0
100
AcDbBlockBegin
  2
BLOCK_272
 70
     0
 10
0.0
 20
0.0
 30
0.0
  3
BLOCK_272
  1

  0
POLYLINE
  5
8CF
330
8CB
100
AcDbEntity
  8
0
 62
     7
100
AcDb2dPolyline
 66
     1
 10
0.0
 20
0.0
 30
0.0
  0
VERTEX
  5
8D0
330
8CF
100
AcDbEntity
  8
0
 62
     7
100
AcDbVertex
100
AcDb2dVertex
 10
584.9990679319188
 20
484.3208359029617
 30
0.0
  0
VERTEX
  5
8D1
330
8CF
100
AcDbEntity
  8
0
 62
     7
100
AcDbVertex
100
AcDb2dVertex
 10
589.9990679319184
 20
484.3208359029617
 30
0.0
  0
SEQEND
  5
8D2
330
8CF
100
AcDbEntity
  8
0
 62
     7
  0
ENDBLK
  5
8CE
330
8CB
100
AcDbEntity
  8
0
100
AcDbBlockEnd
  0
BLOCK
  5
8D5
330
8D3
100
AcDbEntity
  8
0
100
AcDbBlockBegin
  2
BLOCK_273
 70
     0
 10
0.0
 20
0.0
 30
0.0
  3
BLOCK_273
  1

  0
POLYLINE
  5
8D7
330
8D3
100
AcDbEntity
  8
0
 62
     7
100
AcDb2dPolyline
 66
     1
 10
0.0
 20
0.0
 30
0.0
  0
VERTEX
  5
8D8
330
8D7
100
AcDbEntity
  8
0
 62
     7
100
AcDbVertex
100
AcDb2dVertex
 10
609.9990679319184
 20
484.3208359029617
 30
0.0
  0
VERTEX
  5
8D9
330
8D7
100
AcDbEntity
  8
0
 62
     7
100
AcDbVertex
100
AcDb2dVertex
 10
609.9990679319184
 20
490.3208359029616
 30
0.0
  0
SEQEND
  5
8DA
330
8D7
100
AcDbEntity
  8
0
 62
     7
  0
ENDBLK
  5
8D6
330
8D3
100
AcDbEntity
  8
0
100
AcDbBlockEnd
  0
BLOCK
  5
8DD
330
8DB
100
AcDbEntity
  8
0
100
AcDbBlockBegin
  2
BLOCK_274
 70
     0
 10
0.0
 20
0.0
 30
0.0
  3
BLOCK_274
  1

  0
POLYLINE
  5
8DF
330
8DB
100
AcDbEntity
  8
0
 62
     7
100
AcDb2dPolyline
 66
     1
 10
0.0
 20
0.0
 30
0.0
  0
VERTEX
  5
8E0
330
8DF
100
AcDbEntity
  8
0
 62
     7
100
AcDbVertex
100
AcDb2dVertex
 10
574.9990679319185
 20
388.3208359029618
 30
0.0
  0
VERTEX
  5
8E1
330
8DF
100
AcDbEntity
  8
0
 62
     7
100
AcDbVertex
100
AcDb2dVertex
 10
574.9990679319185
 20
394.320835902962
 30
0.0
  0
SEQEND
  5
8E2
330
8DF
100
AcDbEntity
  8
0
 62
     7
  0
ENDBLK
  5
8DE
330
8DB
100
AcDbEntity
  8
0
100
AcDbBlockEnd
  0
BLOCK
  5
8E5
330
8E3
100
AcDbEntity
  8
0
100
AcDbBlockBegin
  2
BLOCK_275
 70
     0
 10
0.0
 20
0.0
 30
0.0
  3
BLOCK_275
  1

  0
POLYLINE
  5
8E7
330
8E3
100
AcDbEntity
  8
0
 62
     7
100
AcDb2dPolyline
 66
     1
 10
0.0
 20
0.0
 30
0.0
  0
VERTEX
  5
8E8
330
8E7
100
AcDbEntity
  8
0
 62
     7
100
AcDbVertex
100
AcDb2dVertex
 10
619.9990679319188
 20
484.3208359029617
 30
0.0
  0
VERTEX
  5
8E9
330
8E7
100
AcDbEntity
  8
0
 62
     7
100
AcDbVertex
100
AcDb2dVertex
 10
619.9990679319188
 20
490.3208359029616
 30
0.0
  0
SEQEND
  5
8EA
330
8E7
100
AcDbEntity
  8
0
 62
     7
  0
ENDBLK
  5
8E6
330
8E3
100
AcDbEntity
  8
0
100
AcDbBlockEnd
  0
BLOCK
  5
8ED
330
8EB
100
AcDbEntity
  8
0
100
AcDbBlockBegin
  2
BLOCK_276
 70
     0
 10
0.0
 20
0.0
 30
0.0
  3
BLOCK_276
  1

  0
POLYLINE
  5
8EF
330
8EB
100
AcDbEntity
  8
0
 62
     7
100
AcDb2dPolyline
 66
     1
 10
0.0
 20
0.0
 30
0.0
  0
VERTEX
  5
8F0
330
8EF
100
AcDbEntity
  8
0
 62
     7
100
AcDbVertex
100
AcDb2dVertex
 10
579.9990679319186
 20
490.3208359029616
 30
0.0
  0
VERTEX
  5
8F1
330
8EF
100
AcDbEntity
  8
0
 62
     7
100
AcDbVertex
100
AcDb2dVertex
 10
579.9990679319186
 20
484.3208359029617
 30
0.0
  0
SEQEND
  5
8F2
330
8EF
100
AcDbEntity
  8
0
 62
     7
  0
ENDBLK
  5
8EE
330
8EB
100
AcDbEntity
  8
0
100
AcDbBlockEnd
  0
BLOCK
  5
8F5
330
8F3
100
AcDbEntity
  8
0
100
AcDbBlockBegin
  2
BLOCK_277
 70
     0
 10
0.0
 20
0.0
 30
0.0
  3
BLOCK_277
  1

  0
POLYLINE
  5
8F7
330
8F3
100
AcDbEntity
  8
0
 62
     7
100
AcDb2dPolyline
 66
     1
 10
0.0
 20
0.0
 30
0.0
  0
VERTEX
  5
8F8
330
8F7
100
AcDbEntity
  8
0
 62
     7
100
AcDbVertex
100
AcDb2dVertex
 10
624.765863149815
 20
394.320835902962
 30
0.0
  0
VERTEX
  5
8F9
330
8F7
100
AcDbEntity
  8
0
 62
     7
100
AcDbVertex
100
AcDb2dVertex
 10
624.765863149815
 20
388.3208359029618
 30
0.0
  0
SEQEND
  5
8FA
330
8F7
100
AcDbEntity
  8
0
 62
     7
  0
ENDBLK
  5
8F6
330
8F3
100
AcDbEntity
  8
0
100
AcDbBlockEnd
  0
BLOCK
  5
8FD
330
8FB
100
AcDbEntity
  8
0
100
AcDbBlockBegin
  2
BLOCK_278
 70
     0
 10
0.0
 20
0.0
 30
0.0
  3
BLOCK_278
  1

  0
POLYLINE
  5
8FF
330
8FB
100
AcDbEntity
  8
0
 62
     7
100
AcDb2dPolyline
 66
     1
 10
0.0
 20
0.0
 30
0.0
  0
VERTEX
  5
900
330
8FF
100
AcDbEntity
  8
0
 62
     7
100
AcDbVertex
100
AcDb2dVertex
 10
589.9990679319184
 20
490.3208359029616
 30
0.0
  0
VERTEX
  5
901
330
8FF
100
AcDbEntity
  8
0
 62
     7
100
AcDbVertex
100
AcDb2dVertex
 10
589.9990679319184
 20
484.3208359029617
 30
0.0
  0
SEQEND
  5
902
330
8FF
100
AcDbEntity
  8
0
 62
     7
  0
ENDBLK
  5
8FE
330
8FB
100
AcDbEntity
  8
0
100
AcDbBlockEnd
  0
BLOCK
  5
905
330
903
100
AcDbEntity
  8
0
100
AcDbBlockBegin
  2
BLOCK_279
 70
     0
 10
0.0
 20
0.0
 30
0.0
  3
BLOCK_279
  1

  0
POLYLINE
  5
907
330
903
100
AcDbEntity
  8
0
 62
     7
100
AcDb2dPolyline
 66
     1
 10
0.0
 20
0.0
 30
0.0
  0
VERTEX
  5
908
330
907
100
AcDbEntity
  8
0
 62
     7
100
AcDbVertex
100
AcDb2dVertex
 10
579.9990679319186
 20
394.320835902962
 30
0.0
  0
VERTEX
  5
909
330
907
100
AcDbEntity
  8
0
 62
     7
100
AcDbVertex
100
AcDb2dVertex
 10
574.9990679319185
 20
394.320835902962
 30
0.0
  0
SEQEND
  5
90A
330
907
100
AcDbEntity
  8
0
 62
     7
  0
ENDBLK
  5
906
330
903
100
AcDbEntity
  8
0
100
AcDbBlockEnd
  0
BLOCK
  5
90D
330
90B
100
AcDbEntity
  8
0
100
AcDbBlockBegin
  2
BLOCK_280
 70
     0
 10
0.0
 20
0.0
 30
0.0
  3
BLOCK_280
  1

  0
POLYLINE
  5
90F
330
90B
100
AcDbEntity
  8
0
 62
     7
100
AcDb2dPolyline
 66
     1
 10
0.0
 20
0.0
 30
0.0
  0
VERTEX
  5
910
330
90F
100
AcDbEntity
  8
0
 62
     7
100
AcDbVertex
100
AcDb2dVertex
 10
589.9990679319184
 20
394.320835902962
 30
0.0
  0
VERTEX
  5
911
330
90F
100
AcDbEntity
  8
0
 62
     7
100
AcDbVertex
100
AcDb2dVertex
 10
584.9990679319188
 20
394.320835902962
 30
0.0
  0
SEQEND
  5
912
330
90F
100
AcDbEntity
  8
0
 62
     7
  0
ENDBLK
  5
90E
330
90B
100
AcDbEntity
  8
0
100
AcDbBlockEnd
  0
BLOCK
  5
915
330
913
100
AcDbEntity
  8
0
100
AcDbBlockBegin
  2
BLOCK_281
 70
     0
 10
0.0
 20
0.0
 30
0.0
  3
BLOCK_281
  1

  0
POLYLINE
  5
917
330
913
100
AcDbEntity
  8
0
 62
     7
100
AcDb2dPolyline
 66
     1
 10
0.0
 20
0.0
 30
0.0
  0
VERTEX
  5
918
330
917
100
AcDbEntity
  8
0
 62
     7
100
AcDbVertex
100
AcDb2dVertex
 10
589.9990679319184
 20
388.3208359029618
 30
0.0
  0
VERTEX
  5
919
330
917
100
AcDbEntity
  8
0
 62
     7
100
AcDbVertex
100
AcDb2dVertex
 10
589.9990679319184
 20
394.320835902962
 30
0.0
  0
SEQEND
  5
91A
330
917
100
AcDbEntity
  8
0
 62
     7
  0
ENDBLK
  5
916
330
913
100
AcDbEntity
  8
0
100
AcDbBlockEnd
  0
BLOCK
  5
91D
330
91B
100
AcDbEntity
  8
0
100
AcDbBlockBegin
  2
BLOCK_282
 70
     0
 10
0.0
 20
0.0
 30
0.0
  3
BLOCK_282
  1

  0
POLYLINE
  5
91F
330
91B
100
AcDbEntity
  8
0
 62
     7
100
AcDb2dPolyline
 66
     1
 10
0.0
 20
0.0
 30
0.0
  0
VERTEX
  5
920
330
91F
100
AcDbEntity
  8
0
 62
     7
100
AcDbVertex
100
AcDb2dVertex
 10
604.999067931919
 20
490.3208359029616
 30
0.0
  0
VERTEX
  5
921
330
91F
100
AcDbEntity
  8
0
 62
     7
100
AcDbVertex
100
AcDb2dVertex
 10
599.9990679319187
 20
490.3208359029616
 30
0.0
  0
SEQEND
  5
922
330
91F
100
AcDbEntity
  8
0
 62
     7
  0
ENDBLK
  5
91E
330
91B
100
AcDbEntity
  8
0
100
AcDbBlockEnd
  0
BLOCK
  5
925
330
923
100
AcDbEntity
  8
0
100
AcDbBlockBegin
  2
BLOCK_283
 70
     0
 10
0.0
 20
0.0
 30
0.0
  3
BLOCK_283
  1

  0
POLYLINE
  5
927
330
923
100
AcDbEntity
  8
0
 62
     7
100
AcDb2dPolyline
 66
     1
 10
0.0
 20
0.0
 30
0.0
  0
VERTEX
  5
928
330
927
100
AcDbEntity
  8
0
 62
     7
100
AcDbVertex
100
AcDb2dVertex
 10
584.9990679319188
 20
394.320835902962
 30
0.0
  0
VERTEX
  5
929
330
927
100
AcDbEntity
  8
0
 62
     7
100
AcDbVertex
100
AcDb2dVertex
 10
584.9990679319188
 20
388.3208359029618
 30
0.0
  0
SEQEND
  5
92A
330
927
100
AcDbEntity
  8
0
 62
     7
  0
ENDBLK
  5
926
330
923
100
AcDbEntity
  8
0
100
AcDbBlockEnd
  0
BLOCK
  5
92D
330
92B
100
AcDbEntity
  8
0
100
AcDbBlockBegin
  2
BLOCK_284
 70
     0
 10
0.0
 20
0.0
 30
0.0
  3
BLOCK_284
  1

  0
POLYLINE
  5
92F
330
92B
100
AcDbEntity
  8
0
 62
     7
100
AcDb2dPolyline
 66
     1
 10
0.0
 20
0.0
 30
0.0
  0
VERTEX
  5
930
330
92F
100
AcDbEntity
  8
0
 62
     7
100
AcDbVertex
100
AcDb2dVertex
 10
574.9990679319185
 20
484.3208359029617
 30
0.0
  0
VERTEX
  5
931
330
92F
100
AcDbEntity
  8
0
 62
     7
100
AcDbVertex
100
AcDb2dVertex
 10
579.9990679319186
 20
484.3208359029617
 30
0.0
  0
SEQEND
  5
932
330
92F
100
AcDbEntity
  8
0
 62
     7
  0
ENDBLK
  5
92E
330
92B
100
AcDbEntity
  8
0
100
AcDbBlockEnd
  0
BLOCK
  5
935
330
933
100
AcDbEntity
  8
0
100
AcDbBlockBegin
  2
BLOCK_285
 70
     0
 10
0.0
 20
0.0
 30
0.0
  3
BLOCK_285
  1

  0
POLYLINE
  5
937
330
933
100
AcDbEntity
  8
0
 62
     7
100
AcDb2dPolyline
 66
     1
 10
0.0
 20
0.0
 30
0.0
  0
VERTEX
  5
938
330
937
100
AcDbEntity
  8
0
 62
     7
100
AcDbVertex
100
AcDb2dVertex
 10
614.9990679319186
 20
484.3208359029617
 30
0.0
  0
VERTEX
  5
939
330
937
100
AcDbEntity
  8
0
 62
     7
100
AcDbVertex
100
AcDb2dVertex
 10
614.9990679319186
 20
490.3208359029616
 30
0.0
  0
SEQEND
  5
93A
330
937
100
AcDbEntity
  8
0
 62
     7
  0
ENDBLK
  5
936
330
933
100
AcDbEntity
  8
0
100
AcDbBlockEnd
  0
BLOCK
  5
93D
330
93B
100
AcDbEntity
  8
0
100
AcDbBlockBegin
  2
BLOCK_286
 70
     0
 10
0.0
 20
0.0
 30
0.0
  3
BLOCK_286
  1

  0
POLYLINE
  5
93F
330
93B
100
AcDbEntity
  8
0
 62
     7
100
AcDb2dPolyline
 66
     1
 10
0.0
 20
0.0
 30
0.0
  0
VERTEX
  5
940
330
93F
100
AcDbEntity
  8
0
 62
     7
100
AcDbVertex
100
AcDb2dVertex
 10
589.9990679319184
 20
484.3208359029617
 30
0.0
  0
VERTEX
  5
941
330
93F
100
AcDbEntity
  8
0
 62
     7
100
AcDbVertex
100
AcDb2dVertex
 10
589.9990679319184
 20
490.3208359029616
 30
0.0
  0
SEQEND
  5
942
330
93F
100
AcDbEntity
  8
0
 62
     7
  0
ENDBLK
  5
93E
330
93B
100
AcDbEntity
  8
0
100
AcDbBlockEnd
  0
ENDSEC
  0
SECTION
  2
ENTITIES
  0
INSERT
  5
41
330
1F
100
AcDbEntity
  8
0
100
AcDbBlockReference
  2
BLOCK_2
 10
0.0
 20
0.0
 30
0.0
  0
INSERT
  5
4C
330
1F
100
AcDbEntity
  8
0
100
AcDbBlockReference
  2
BLOCK_3
 10
0.0
 20
0.0
 30
0.0
  0
INSERT
  5
51
330
1F
100
AcDbEntity
  8
0
100
AcDbBlockReference
  2
BLOCK_4
 10
0.0
 20
0.0
 30
0.0
  0
INSERT
  5
56
330
1F
100
AcDbEntity
  8
0
100
AcDbBlockReference
  2
BLOCK_5
 10
0.0
 20
0.0
 30
0.0
  0
INSERT
  5
5B
330
1F
100
AcDbEntity
  8
0
100
AcDbBlockReference
  2
BLOCK_6
 10
0.0
 20
0.0
 30
0.0
  0
INSERT
  5
60
330
1F
100
AcDbEntity
  8
0
100
AcDbBlockReference
  2
BLOCK_7
 10
0.0
 20
0.0
 30
0.0
  0
INSERT
  5
65
330
1F
100
AcDbEntity
  8
0
100
AcDbBlockReference
  2
BLOCK_8
 10
0.0
 20
0.0
 30
0.0
  0
INSERT
  5
6A
330
1F
100
AcDbEntity
  8
0
100
AcDbBlockReference
  2
BLOCK_9
 10
0.0
 20
0.0
 30
0.0
  0
INSERT
  5
6F
330
1F
100
AcDbEntity
  8
0
100
AcDbBlockReference
  2
BLOCK_10
 10
0.0
 20
0.0
 30
0.0
  0
INSERT
  5
74
330
1F
100
AcDbEntity
  8
0
100
AcDbBlockReference
  2
BLOCK_11
 10
0.0
 20
0.0
 30
0.0
  0
INSERT
  5
79
330
1F
100
AcDbEntity
  8
0
100
AcDbBlockReference
  2
BLOCK_12
 10
0.0
 20
0.0
 30
0.0
  0
INSERT
  5
84
330
1F
100
AcDbEntity
  8
0
100
AcDbBlockReference
  2
BLOCK_13
 10
0.0
 20
0.0
 30
0.0
  0
INSERT
  5
9B
330
1F
100
AcDbEntity
  8
0
100
AcDbBlockReference
  2
BLOCK_14
 10
0.0
 20
0.0
 30
0.0
  0
INSERT
  5
A3
330
1F
100
AcDbEntity
  8
0
100
AcDbBlockReference
  2
BLOCK_15
 10
0.0
 20
0.0
 30
0.0
  0
INSERT
  5
AB
330
1F
100
AcDbEntity
  8
0
100
AcDbBlockReference
  2
BLOCK_16
 10
0.0
 20
0.0
 30
0.0
  0
INSERT
  5
B3
330
1F
100
AcDbEntity
  8
0
100
AcDbBlockReference
  2
BLOCK_17
 10
0.0
 20
0.0
 30
0.0
  0
INSERT
  5
BB
330
1F
100
AcDbEntity
  8
0
100
AcDbBlockReference
  2
BLOCK_18
 10
0.0
 20
0.0
 30
0.0
  0
INSERT
  5
C3
330
1F
100
AcDbEntity
  8
0
100
AcDbBlockReference
  2
BLOCK_19
 10
0.0
 20
0.0
 30
0.0
  0
INSERT
  5
CB
330
1F
100
AcDbEntity
  8
0
100
AcDbBlockReference
  2
BLOCK_20
 10
0.0
 20
0.0
 30
0.0
  0
INSERT
  5
D3
330
1F
100
AcDbEntity
  8
0
100
AcDbBlockReference
  2
BLOCK_21
 10
0.0
 20
0.0
 30
0.0
  0
INSERT
  5
DB
330
1F
100
AcDbEntity
  8
0
100
AcDbBlockReference
  2
BLOCK_22
 10
0.0
 20
0.0
 30
0.0
  0
INSERT
  5
E3
330
1F
100
AcDbEntity
  8
0
100
AcDbBlockReference
  2
BLOCK_23
 10
0.0
 20
0.0
 30
0.0
  0
INSERT
  5
EB
330
1F
100
AcDbEntity
  8
0
100
AcDbBlockReference
  2
BLOCK_24
 10
0.0
 20
0.0
 30
0.0
  0
INSERT
  5
F3
330
1F
100
AcDbEntity
  8
0
100
AcDbBlockReference
  2
BLOCK_25
 10
0.0
 20
0.0
 30
0.0
  0
INSERT
  5
FB
330
1F
100
AcDbEntity
  8
0
100
AcDbBlockReference
  2
BLOCK_26
 10
0.0
 20
0.0
 30
0.0
  0
INSERT
  5
103
330
1F
100
AcDbEntity
  8
0
100
AcDbBlockReference
  2
BLOCK_27
 10
0.0
 20
0.0
 30
0.0
  0
INSERT
  5
10B
330
1F
100
AcDbEntity
  8
0
100
AcDbBlockReference
  2
BLOCK_28
 10
0.0
 20
0.0
 30
0.0
  0
INSERT
  5
113
330
1F
100
AcDbEntity
  8
0
100
AcDbBlockReference
  2
BLOCK_29
 10
0.0
 20
0.0
 30
0.0
  0
INSERT
  5
11B
330
1F
100
AcDbEntity
  8
0
100
AcDbBlockReference
  2
BLOCK_30
 10
0.0
 20
0.0
 30
0.0
  0
INSERT
  5
126
330
1F
100
AcDbEntity
  8
0
100
AcDbBlockReference
  2
BLOCK_31
 10
0.0
 20
0.0
 30
0.0
  0
INSERT
  5
12E
330
1F
100
AcDbEntity
  8
0
100
AcDbBlockReference
  2
BLOCK_32
 10
0.0
 20
0.0
 30
0.0
  0
INSERT
  5
136
330
1F
100
AcDbEntity
  8
0
100
AcDbBlockReference
  2
BLOCK_33
 10
0.0
 20
0.0
 30
0.0
  0
INSERT
  5
13E
330
1F
100
AcDbEntity
  8
0
100
AcDbBlockReference
  2
BLOCK_34
 10
0.0
 20
0.0
 30
0.0
  0
INSERT
  5
146
330
1F
100
AcDbEntity
  8
0
100
AcDbBlockReference
  2
BLOCK_35
 10
0.0
 20
0.0
 30
0.0
  0
INSERT
  5
14E
330
1F
100
AcDbEntity
  8
0
100
AcDbBlockReference
  2
BLOCK_36
 10
0.0
 20
0.0
 30
0.0
  0
INSERT
  5
156
330
1F
100
AcDbEntity
  8
0
100
AcDbBlockReference
  2
BLOCK_37
 10
0.0
 20
0.0
 30
0.0
  0
INSERT
  5
15E
330
1F
100
AcDbEntity
  8
0
100
AcDbBlockReference
  2
BLOCK_38
 10
0.0
 20
0.0
 30
0.0
  0
INSERT
  5
166
330
1F
100
AcDbEntity
  8
0
100
AcDbBlockReference
  2
BLOCK_39
 10
0.0
 20
0.0
 30
0.0
  0
INSERT
  5
16E
330
1F
100
AcDbEntity
  8
0
100
AcDbBlockReference
  2
BLOCK_40
 10
0.0
 20
0.0
 30
0.0
  0
INSERT
  5
176
330
1F
100
AcDbEntity
  8
0
100
AcDbBlockReference
  2
BLOCK_41
 10
0.0
 20
0.0
 30
0.0
  0
INSERT
  5
17E
330
1F
100
AcDbEntity
  8
0
100
AcDbBlockReference
  2
BLOCK_42
 10
0.0
 20
0.0
 30
0.0
  0
INSERT
  5
186
330
1F
100
AcDbEntity
  8
0
100
AcDbBlockReference
  2
BLOCK_43
 10
0.0
 20
0.0
 30
0.0
  0
INSERT
  5
18E
330
1F
100
AcDbEntity
  8
0
100
AcDbBlockReference
  2
BLOCK_44
 10
0.0
 20
0.0
 30
0.0
  0
INSERT
  5
196
330
1F
100
AcDbEntity
  8
0
100
AcDbBlockReference
  2
BLOCK_45
 10
0.0
 20
0.0
 30
0.0
  0
INSERT
  5
19E
330
1F
100
AcDbEntity
  8
0
100
AcDbBlockReference
  2
BLOCK_46
 10
0.0
 20
0.0
 30
0.0
  0
INSERT
  5
1A6
330
1F
100
AcDbEntity
  8
0
100
AcDbBlockReference
  2
BLOCK_47
 10
0.0
 20
0.0
 30
0.0
  0
INSERT
  5
1AE
330
1F
100
AcDbEntity
  8
0
100
AcDbBlockReference
  2
BLOCK_48
 10
0.0
 20
0.0
 30
0.0
  0
INSERT
  5
1B6
330
1F
100
AcDbEntity
  8
0
100
AcDbBlockReference
  2
BLOCK_49
 10
0.0
 20
0.0
 30
0.0
  0
INSERT
  5
1BE
330
1F
100
AcDbEntity
  8
0
100
AcDbBlockReference
  2
BLOCK_50
 10
0.0
 20
0.0
 30
0.0
  0
INSERT
  5
1C6
330
1F
100
AcDbEntity
  8
0
100
AcDbBlockReference
  2
BLOCK_51
 10
0.0
 20
0.0
 30
0.0
  0
INSERT
  5
1CE
330
1F
100
AcDbEntity
  8
0
100
AcDbBlockReference
  2
BLOCK_52
 10
0.0
 20
0.0
 30
0.0
  0
INSERT
  5
1D6
330
1F
100
AcDbEntity
  8
0
100
AcDbBlockReference
  2
BLOCK_53
 10
0.0
 20
0.0
 30
0.0
  0
INSERT
  5
1DE
330
1F
100
AcDbEntity
  8
0
100
AcDbBlockReference
  2
BLOCK_54
 10
0.0
 20
0.0
 30
0.0
  0
INSERT
  5
1E6
330
1F
100
AcDbEntity
  8
0
100
AcDbBlockReference
  2
BLOCK_55
 10
0.0
 20
0.0
 30
0.0
  0
INSERT
  5
1EE
330
1F
100
AcDbEntity
  8
0
100
AcDbBlockReference
  2
BLOCK_56
 10
0.0
 20
0.0
 30
0.0
  0
INSERT
  5
1F6
330
1F
100
AcDbEntity
  8
0
100
AcDbBlockReference
  2
BLOCK_57
 10
0.0
 20
0.0
 30
0.0
  0
INSERT
  5
1FE
330
1F
100
AcDbEntity
  8
0
100
AcDbBlockReference
  2
BLOCK_58
 10
0.0
 20
0.0
 30
0.0
  0
INSERT
  5
206
330
1F
100
AcDbEntity
  8
0
100
AcDbBlockReference
  2
BLOCK_59
 10
0.0
 20
0.0
 30
0.0
  0
INSERT
  5
20E
330
1F
100
AcDbEntity
  8
0
100
AcDbBlockReference
  2
BLOCK_60
 10
0.0
 20
0.0
 30
0.0
  0
INSERT
  5
216
330
1F
100
AcDbEntity
  8
0
100
AcDbBlockReference
  2
BLOCK_61
 10
0.0
 20
0.0
 30
0.0
  0
INSERT
  5
21E
330
1F
100
AcDbEntity
  8
0
100
AcDbBlockReference
  2
BLOCK_62
 10
0.0
 20
0.0
 30
0.0
  0
INSERT
  5
226
330
1F
100
AcDbEntity
  8
0
100
AcDbBlockReference
  2
BLOCK_63
 10
0.0
 20
0.0
 30
0.0
  0
INSERT
  5
22E
330
1F
100
AcDbEntity
  8
0
100
AcDbBlockReference
  2
BLOCK_64
 10
0.0
 20
0.0
 30
0.0
  0
INSERT
  5
236
330
1F
100
AcDbEntity
  8
0
100
AcDbBlockReference
  2
BLOCK_65
 10
0.0
 20
0.0
 30
0.0
  0
INSERT
  5
23E
330
1F
100
AcDbEntity
  8
0
100
AcDbBlockReference
  2
BLOCK_66
 10
0.0
 20
0.0
 30
0.0
  0
INSERT
  5
246
330
1F
100
AcDbEntity
  8
0
100
AcDbBlockReference
  2
BLOCK_67
 10
0.0
 20
0.0
 30
0.0
  0
INSERT
  5
24E
330
1F
100
AcDbEntity
  8
0
100
AcDbBlockReference
  2
BLOCK_68
 10
0.0
 20
0.0
 30
0.0
  0
INSERT
  5
256
330
1F
100
AcDbEntity
  8
0
100
AcDbBlockReference
  2
BLOCK_69
 10
0.0
 20
0.0
 30
0.0
  0
INSERT
  5
25E
330
1F
100
AcDbEntity
  8
0
100
AcDbBlockReference
  2
BLOCK_70
 10
0.0
 20
0.0
 30
0.0
  0
INSERT
  5
266
330
1F
100
AcDbEntity
  8
0
100
AcDbBlockReference
  2
BLOCK_71
 10
0.0
 20
0.0
 30
0.0
  0
INSERT
  5
26E
330
1F
100
AcDbEntity
  8
0
100
AcDbBlockReference
  2
BLOCK_72
 10
0.0
 20
0.0
 30
0.0
  0
INSERT
  5
276
330
1F
100
AcDbEntity
  8
0
100
AcDbBlockReference
  2
BLOCK_73
 10
0.0
 20
0.0
 30
0.0
  0
INSERT
  5
27E
330
1F
100
AcDbEntity
  8
0
100
AcDbBlockReference
  2
BLOCK_74
 10
0.0
 20
0.0
 30
0.0
  0
INSERT
  5
286
330
1F
100
AcDbEntity
  8
0
100
AcDbBlockReference
  2
BLOCK_75
 10
0.0
 20
0.0
 30
0.0
  0
INSERT
  5
28E
330
1F
100
AcDbEntity
  8
0
100
AcDbBlockReference
  2
BLOCK_76
 10
0.0
 20
0.0
 30
0.0
  0
INSERT
  5
296
330
1F
100
AcDbEntity
  8
0
100
AcDbBlockReference
  2
BLOCK_77
 10
0.0
 20
0.0
 30
0.0
  0
INSERT
  5
29E
330
1F
100
AcDbEntity
  8
0
100
AcDbBlockReference
  2
BLOCK_78
 10
0.0
 20
0.0
 30
0.0
  0
INSERT
  5
2A6
330
1F
100
AcDbEntity
  8
0
100
AcDbBlockReference
  2
BLOCK_79
 10
0.0
 20
0.0
 30
0.0
  0
INSERT
  5
2AE
330
1F
100
AcDbEntity
  8
0
100
AcDbBlockReference
  2
BLOCK_80
 10
0.0
 20
0.0
 30
0.0
  0
INSERT
  5
2B6
330
1F
100
AcDbEntity
  8
0
100
AcDbBlockReference
  2
BLOCK_81
 10
0.0
 20
0.0
 30
0.0
  0
INSERT
  5
2BE
330
1F
100
AcDbEntity
  8
0
100
AcDbBlockReference
  2
BLOCK_82
 10
0.0
 20
0.0
 30
0.0
  0
INSERT
  5
2C6
330
1F
100
AcDbEntity
  8
0
100
AcDbBlockReference
  2
BLOCK_83
 10
0.0
 20
0.0
 30
0.0
  0
INSERT
  5
2CE
330
1F
100
AcDbEntity
  8
0
100
AcDbBlockReference
  2
BLOCK_84
 10
0.0
 20
0.0
 30
0.0
  0
INSERT
  5
2D6
330
1F
100
AcDbEntity
  8
0
100
AcDbBlockReference
  2
BLOCK_85
 10
0.0
 20
0.0
 30
0.0
  0
INSERT
  5
2DE
330
1F
100
AcDbEntity
  8
0
100
AcDbBlockReference
  2
BLOCK_86
 10
0.0
 20
0.0
 30
0.0
  0
INSERT
  5
2E6
330
1F
100
AcDbEntity
  8
0
100
AcDbBlockReference
  2
BLOCK_87
 10
0.0
 20
0.0
 30
0.0
  0
INSERT
  5
2EE
330
1F
100
AcDbEntity
  8
0
100
AcDbBlockReference
  2
BLOCK_88
 10
0.0
 20
0.0
 30
0.0
  0
INSERT
  5
2F6
330
1F
100
AcDbEntity
  8
0
100
AcDbBlockReference
  2
BLOCK_89
 10
0.0
 20
0.0
 30
0.0
  0
INSERT
  5
2FE
330
1F
100
AcDbEntity
  8
0
100
AcDbBlockReference
  2
BLOCK_90
 10
0.0
 20
0.0
 30
0.0
  0
INSERT
  5
306
330
1F
100
AcDbEntity
  8
0
100
AcDbBlockReference
  2
BLOCK_91
 10
0.0
 20
0.0
 30
0.0
  0
INSERT
  5
30E
330
1F
100
AcDbEntity
  8
0
100
AcDbBlockReference
  2
BLOCK_92
 10
0.0
 20
0.0
 30
0.0
  0
INSERT
  5
316
330
1F
100
AcDbEntity
  8
0
100
AcDbBlockReference
  2
BLOCK_93
 10
0.0
 20
0.0
 30
0.0
  0
INSERT
  5
31E
330
1F
100
AcDbEntity
  8
0
100
AcDbBlockReference
  2
BLOCK_94
 10
0.0
 20
0.0
 30
0.0
  0
INSERT
  5
326
330
1F
100
AcDbEntity
  8
0
100
AcDbBlockReference
  2
BLOCK_95
 10
0.0
 20
0.0
 30
0.0
  0
INSERT
  5
32E
330
1F
100
AcDbEntity
  8
0
100
AcDbBlockReference
  2
BLOCK_96
 10
0.0
 20
0.0
 30
0.0
  0
INSERT
  5
336
330
1F
100
AcDbEntity
  8
0
100
AcDbBlockReference
  2
BLOCK_97
 10
0.0
 20
0.0
 30
0.0
  0
INSERT
  5
33E
330
1F
100
AcDbEntity
  8
0
100
AcDbBlockReference
  2
BLOCK_98
 10
0.0
 20
0.0
 30
0.0
  0
INSERT
  5
346
330
1F
100
AcDbEntity
  8
0
100
AcDbBlockReference
  2
BLOCK_99
 10
0.0
 20
0.0
 30
0.0
  0
INSERT
  5
34E
330
1F
100
AcDbEntity
  8
0
100
AcDbBlockReference
  2
BLOCK_100
 10
0.0
 20
0.0
 30
0.0
  0
INSERT
  5
356
330
1F
100
AcDbEntity
  8
0
100
AcDbBlockReference
  2
BLOCK_101
 10
0.0
 20
0.0
 30
0.0
  0
INSERT
  5
35E
330
1F
100
AcDbEntity
  8
0
100
AcDbBlockReference
  2
BLOCK_102
 10
0.0
 20
0.0
 30
0.0
  0
INSERT
  5
366
330
1F
100
AcDbEntity
  8
0
100
AcDbBlockReference
  2
BLOCK_103
 10
0.0
 20
0.0
 30
0.0
  0
INSERT
  5
36E
330
1F
100
AcDbEntity
  8
0
100
AcDbBlockReference
  2
BLOCK_104
 10
0.0
 20
0.0
 30
0.0
  0
INSERT
  5
376
330
1F
100
AcDbEntity
  8
0
100
AcDbBlockReference
  2
BLOCK_105
 10
0.0
 20
0.0
 30
0.0
  0
INSERT
  5
37E
330
1F
100
AcDbEntity
  8
0
100
AcDbBlockReference
  2
BLOCK_106
 10
0.0
 20
0.0
 30
0.0
  0
INSERT
  5
386
330
1F
100
AcDbEntity
  8
0
100
AcDbBlockReference
  2
BLOCK_107
 10
0.0
 20
0.0
 30
0.0
  0
INSERT
  5
38E
330
1F
100
AcDbEntity
  8
0
100
AcDbBlockReference
  2
BLOCK_108
 10
0.0
 20
0.0
 30
0.0
  0
INSERT
  5
396
330
1F
100
AcDbEntity
  8
0
100
AcDbBlockReference
  2
BLOCK_109
 10
0.0
 20
0.0
 30
0.0
  0
INSERT
  5
39E
330
1F
100
AcDbEntity
  8
0
100
AcDbBlockReference
  2
BLOCK_110
 10
0.0
 20
0.0
 30
0.0
  0
INSERT
  5
3A6
330
1F
100
AcDbEntity
  8
0
100
AcDbBlockReference
  2
BLOCK_111
 10
0.0
 20
0.0
 30
0.0
  0
INSERT
  5
3AE
330
1F
100
AcDbEntity
  8
0
100
AcDbBlockReference
  2
BLOCK_112
 10
0.0
 20
0.0
 30
0.0
  0
INSERT
  5
3B6
330
1F
100
AcDbEntity
  8
0
100
AcDbBlockReference
  2
BLOCK_113
 10
0.0
 20
0.0
 30
0.0
  0
INSERT
  5
3BE
330
1F
100
AcDbEntity
  8
0
100
AcDbBlockReference
  2
BLOCK_114
 10
0.0
 20
0.0
 30
0.0
  0
INSERT
  5
3C6
330
1F
100
AcDbEntity
  8
0
100
AcDbBlockReference
  2
BLOCK_115
 10
0.0
 20
0.0
 30
0.0
  0
INSERT
  5
3CE
330
1F
100
AcDbEntity
  8
0
100
AcDbBlockReference
  2
BLOCK_116
 10
0.0
 20
0.0
 30
0.0
  0
INSERT
  5
3D6
330
1F
100
AcDbEntity
  8
0
100
AcDbBlockReference
  2
BLOCK_117
 10
0.0
 20
0.0
 30
0.0
  0
INSERT
  5
3DE
330
1F
100
AcDbEntity
  8
0
100
AcDbBlockReference
  2
BLOCK_118
 10
0.0
 20
0.0
 30
0.0
  0
INSERT
  5
3E6
330
1F
100
AcDbEntity
  8
0
100
AcDbBlockReference
  2
BLOCK_119
 10
0.0
 20
0.0
 30
0.0
  0
INSERT
  5
3EE
330
1F
100
AcDbEntity
  8
0
100
AcDbBlockReference
  2
BLOCK_120
 10
0.0
 20
0.0
 30
0.0
  0
INSERT
  5
3F6
330
1F
100
AcDbEntity
  8
0
100
AcDbBlockReference
  2
BLOCK_121
 10
0.0
 20
0.0
 30
0.0
  0
INSERT
  5
3FE
330
1F
100
AcDbEntity
  8
0
100
AcDbBlockReference
  2
BLOCK_122
 10
0.0
 20
0.0
 30
0.0
  0
INSERT
  5
406
330
1F
100
AcDbEntity
  8
0
100
AcDbBlockReference
  2
BLOCK_123
 10
0.0
 20
0.0
 30
0.0
  0
INSERT
  5
40E
330
1F
100
AcDbEntity
  8
0
100
AcDbBlockReference
  2
BLOCK_124
 10
0.0
 20
0.0
 30
0.0
  0
INSERT
  5
416
330
1F
100
AcDbEntity
  8
0
100
AcDbBlockReference
  2
BLOCK_125
 10
0.0
 20
0.0
 30
0.0
  0
INSERT
  5
41E
330
1F
100
AcDbEntity
  8
0
100
AcDbBlockReference
  2
BLOCK_126
 10
0.0
 20
0.0
 30
0.0
  0
INSERT
  5
426
330
1F
100
AcDbEntity
  8
0
100
AcDbBlockReference
  2
BLOCK_127
 10
0.0
 20
0.0
 30
0.0
  0
INSERT
  5
42E
330
1F
100
AcDbEntity
  8
0
100
AcDbBlockReference
  2
BLOCK_128
 10
0.0
 20
0.0
 30
0.0
  0
INSERT
  5
436
330
1F
100
AcDbEntity
  8
0
100
AcDbBlockReference
  2
BLOCK_129
 10
0.0
 20
0.0
 30
0.0
  0
INSERT
  5
43E
330
1F
100
AcDbEntity
  8
0
100
AcDbBlockReference
  2
BLOCK_130
 10
0.0
 20
0.0
 30
0.0
  0
INSERT
  5
446
330
1F
100
AcDbEntity
  8
0
100
AcDbBlockReference
  2
BLOCK_131
 10
0.0
 20
0.0
 30
0.0
  0
INSERT
  5
451
330
1F
100
AcDbEntity
  8
0
100
AcDbBlockReference
  2
BLOCK_132
 10
0.0
 20
0.0
 30
0.0
  0
INSERT
  5
45C
330
1F
100
AcDbEntity
  8
0
100
AcDbBlockReference
  2
BLOCK_133
 10
0.0
 20
0.0
 30
0.0
  0
INSERT
  5
467
330
1F
100
AcDbEntity
  8
0
100
AcDbBlockReference
  2
BLOCK_134
 10
0.0
 20
0.0
 30
0.0
  0
INSERT
  5
472
330
1F
100
AcDbEntity
  8
0
100
AcDbBlockReference
  2
BLOCK_135
 10
0.0
 20
0.0
 30
0.0
  0
INSERT
  5
47D
330
1F
100
AcDbEntity
  8
0
100
AcDbBlockReference
  2
BLOCK_136
 10
0.0
 20
0.0
 30
0.0
  0
INSERT
  5
485
330
1F
100
AcDbEntity
  8
0
100
AcDbBlockReference
  2
BLOCK_137
 10
0.0
 20
0.0
 30
0.0
  0
INSERT
  5
48D
330
1F
100
AcDbEntity
  8
0
100
AcDbBlockReference
  2
BLOCK_138
 10
0.0
 20
0.0
 30
0.0
  0
INSERT
  5
495
330
1F
100
AcDbEntity
  8
0
100
AcDbBlockReference
  2
BLOCK_139
 10
0.0
 20
0.0
 30
0.0
  0
INSERT
  5
49D
330
1F
100
AcDbEntity
  8
0
100
AcDbBlockReference
  2
BLOCK_140
 10
0.0
 20
0.0
 30
0.0
  0
INSERT
  5
4A5
330
1F
100
AcDbEntity
  8
0
100
AcDbBlockReference
  2
BLOCK_141
 10
0.0
 20
0.0
 30
0.0
  0
INSERT
  5
4B0
330
1F
100
AcDbEntity
  8
0
100
AcDbBlockReference
  2
BLOCK_142
 10
0.0
 20
0.0
 30
0.0
  0
INSERT
  5
4BB
330
1F
100
AcDbEntity
  8
0
100
AcDbBlockReference
  2
BLOCK_143
 10
0.0
 20
0.0
 30
0.0
  0
INSERT
  5
4C0
330
1F
100
AcDbEntity
  8
0
100
AcDbBlockReference
  2
BLOCK_144
 10
0.0
 20
0.0
 30
0.0
  0
INSERT
  5
4C8
330
1F
100
AcDbEntity
  8
0
100
AcDbBlockReference
  2
BLOCK_145
 10
0.0
 20
0.0
 30
0.0
  0
INSERT
  5
4D0
330
1F
100
AcDbEntity
  8
0
100
AcDbBlockReference
  2
BLOCK_146
 10
0.0
 20
0.0
 30
0.0
  0
INSERT
  5
4D8
330
1F
100
AcDbEntity
  8
0
100
AcDbBlockReference
  2
BLOCK_147
 10
0.0
 20
0.0
 30
0.0
  0
INSERT
  5
4E3
330
1F
100
AcDbEntity
  8
0
100
AcDbBlockReference
  2
BLOCK_148
 10
0.0
 20
0.0
 30
0.0
  0
INSERT
  5
4EE
330
1F
100
AcDbEntity
  8
0
100
AcDbBlockReference
  2
BLOCK_149
 10
0.0
 20
0.0
 30
0.0
  0
INSERT
  5
4F6
330
1F
100
AcDbEntity
  8
0
100
AcDbBlockReference
  2
BLOCK_150
 10
0.0
 20
0.0
 30
0.0
  0
INSERT
  5
4FE
330
1F
100
AcDbEntity
  8
0
100
AcDbBlockReference
  2
BLOCK_151
 10
0.0
 20
0.0
 30
0.0
  0
INSERT
  5
506
330
1F
100
AcDbEntity
  8
0
100
AcDbBlockReference
  2
BLOCK_152
 10
0.0
 20
0.0
 30
0.0
  0
INSERT
  5
50E
330
1F
100
AcDbEntity
  8
0
100
AcDbBlockReference
  2
BLOCK_153
 10
0.0
 20
0.0
 30
0.0
  0
INSERT
  5
516
330
1F
100
AcDbEntity
  8
0
100
AcDbBlockReference
  2
BLOCK_154
 10
0.0
 20
0.0
 30
0.0
  0
INSERT
  5
51E
330
1F
100
AcDbEntity
  8
0
100
AcDbBlockReference
  2
BLOCK_155
 10
0.0
 20
0.0
 30
0.0
  0
INSERT
  5
526
330
1F
100
AcDbEntity
  8
0
100
AcDbBlockReference
  2
BLOCK_156
 10
0.0
 20
0.0
 30
0.0
  0
INSERT
  5
52E
330
1F
100
AcDbEntity
  8
0
100
AcDbBlockReference
  2
BLOCK_157
 10
0.0
 20
0.0
 30
0.0
  0
INSERT
  5
536
330
1F
100
AcDbEntity
  8
0
100
AcDbBlockReference
  2
BLOCK_158
 10
0.0
 20
0.0
 30
0.0
  0
INSERT
  5
53E
330
1F
100
AcDbEntity
  8
0
100
AcDbBlockReference
  2
BLOCK_159
 10
0.0
 20
0.0
 30
0.0
  0
INSERT
  5
546
330
1F
100
AcDbEntity
  8
0
100
AcDbBlockReference
  2
BLOCK_160
 10
0.0
 20
0.0
 30
0.0
  0
INSERT
  5
54E
330
1F
100
AcDbEntity
  8
0
100
AcDbBlockReference
  2
BLOCK_161
 10
0.0
 20
0.0
 30
0.0
  0
INSERT
  5
556
330
1F
100
AcDbEntity
  8
0
100
AcDbBlockReference
  2
BLOCK_162
 10
0.0
 20
0.0
 30
0.0
  0
INSERT
  5
561
330
1F
100
AcDbEntity
  8
0
100
AcDbBlockReference
  2
BLOCK_163
 10
0.0
 20
0.0
 30
0.0
  0
INSERT
  5
569
330
1F
100
AcDbEntity
  8
0
100
AcDbBlockReference
  2
BLOCK_164
 10
0.0
 20
0.0
 30
0.0
  0
INSERT
  5
571
330
1F
100
AcDbEntity
  8
0
100
AcDbBlockReference
  2
BLOCK_165
 10
0.0
 20
0.0
 30
0.0
  0
INSERT
  5
579
330
1F
100
AcDbEntity
  8
0
100
AcDbBlockReference
  2
BLOCK_166
 10
0.0
 20
0.0
 30
0.0
  0
INSERT
  5
581
330
1F
100
AcDbEntity
  8
0
100
AcDbBlockReference
  2
BLOCK_167
 10
0.0
 20
0.0
 30
0.0
  0
INSERT
  5
589
330
1F
100
AcDbEntity
  8
0
100
AcDbBlockReference
  2
BLOCK_168
 10
0.0
 20
0.0
 30
0.0
  0
INSERT
  5
591
330
1F
100
AcDbEntity
  8
0
100
AcDbBlockReference
  2
BLOCK_169
 10
0.0
 20
0.0
 30
0.0
  0
INSERT
  5
599
330
1F
100
AcDbEntity
  8
0
100
AcDbBlockReference
  2
BLOCK_170
 10
0.0
 20
0.0
 30
0.0
  0
INSERT
  5
5A1
330
1F
100
AcDbEntity
  8
0
100
AcDbBlockReference
  2
BLOCK_171
 10
0.0
 20
0.0
 30
0.0
  0
INSERT
  5
5A9
330
1F
100
AcDbEntity
  8
0
100
AcDbBlockReference
  2
BLOCK_172
 10
0.0
 20
0.0
 30
0.0
  0
INSERT
  5
5B1
330
1F
100
AcDbEntity
  8
0
100
AcDbBlockReference
  2
BLOCK_173
 10
0.0
 20
0.0
 30
0.0
  0
INSERT
  5
5B9
330
1F
100
AcDbEntity
  8
0
100
AcDbBlockReference
  2
BLOCK_174
 10
0.0
 20
0.0
 30
0.0
  0
INSERT
  5
5C1
330
1F
100
AcDbEntity
  8
0
100
AcDbBlockReference
  2
BLOCK_175
 10
0.0
 20
0.0
 30
0.0
  0
INSERT
  5
5C9
330
1F
100
AcDbEntity
  8
0
100
AcDbBlockReference
  2
BLOCK_176
 10
0.0
 20
0.0
 30
0.0
  0
INSERT
  5
5D1
330
1F
100
AcDbEntity
  8
0
100
AcDbBlockReference
  2
BLOCK_177
 10
0.0
 20
0.0
 30
0.0
  0
INSERT
  5
5D9
330
1F
100
AcDbEntity
  8
0
100
AcDbBlockReference
  2
BLOCK_178
 10
0.0
 20
0.0
 30
0.0
  0
INSERT
  5
5E1
330
1F
100
AcDbEntity
  8
0
100
AcDbBlockReference
  2
BLOCK_179
 10
0.0
 20
0.0
 30
0.0
  0
INSERT
  5
5E9
330
1F
100
AcDbEntity
  8
0
100
AcDbBlockReference
  2
BLOCK_180
 10
0.0
 20
0.0
 30
0.0
  0
INSERT
  5
5F1
330
1F
100
AcDbEntity
  8
0
100
AcDbBlockReference
  2
BLOCK_181
 10
0.0
 20
0.0
 30
0.0
  0
INSERT
  5
5F9
330
1F
100
AcDbEntity
  8
0
100
AcDbBlockReference
  2
BLOCK_182
 10
0.0
 20
0.0
 30
0.0
  0
INSERT
  5
604
330
1F
100
AcDbEntity
  8
0
100
AcDbBlockReference
  2
BLOCK_183
 10
0.0
 20
0.0
 30
0.0
  0
INSERT
  5
60C
330
1F
100
AcDbEntity
  8
0
100
AcDbBlockReference
  2
BLOCK_184
 10
0.0
 20
0.0
 30
0.0
  0
INSERT
  5
614
330
1F
100
AcDbEntity
  8
0
100
AcDbBlockReference
  2
BLOCK_185
 10
0.0
 20
0.0
 30
0.0
  0
INSERT
  5
61C
330
1F
100
AcDbEntity
  8
0
100
AcDbBlockReference
  2
BLOCK_186
 10
0.0
 20
0.0
 30
0.0
  0
INSERT
  5
624
330
1F
100
AcDbEntity
  8
0
100
AcDbBlockReference
  2
BLOCK_187
 10
0.0
 20
0.0
 30
0.0
  0
INSERT
  5
62C
330
1F
100
AcDbEntity
  8
0
100
AcDbBlockReference
  2
BLOCK_188
 10
0.0
 20
0.0
 30
0.0
  0
INSERT
  5
634
330
1F
100
AcDbEntity
  8
0
100
AcDbBlockReference
  2
BLOCK_189
 10
0.0
 20
0.0
 30
0.0
  0
INSERT
  5
63C
330
1F
100
AcDbEntity
  8
0
100
AcDbBlockReference
  2
BLOCK_190
 10
0.0
 20
0.0
 30
0.0
  0
INSERT
  5
644
330
1F
100
AcDbEntity
  8
0
100
AcDbBlockReference
  2
BLOCK_191
 10
0.0
 20
0.0
 30
0.0
  0
INSERT
  5
64C
330
1F
100
AcDbEntity
  8
0
100
AcDbBlockReference
  2
BLOCK_192
 10
0.0
 20
0.0
 30
0.0
  0
INSERT
  5
654
330
1F
100
AcDbEntity
  8
0
100
AcDbBlockReference
  2
BLOCK_193
 10
0.0
 20
0.0
 30
0.0
  0
INSERT
  5
65C
330
1F
100
AcDbEntity
  8
0
100
AcDbBlockReference
  2
BLOCK_194
 10
0.0
 20
0.0
 30
0.0
  0
INSERT
  5
664
330
1F
100
AcDbEntity
  8
0
100
AcDbBlockReference
  2
BLOCK_195
 10
0.0
 20
0.0
 30
0.0
  0
INSERT
  5
66C
330
1F
100
AcDbEntity
  8
0
100
AcDbBlockReference
  2
BLOCK_196
 10
0.0
 20
0.0
 30
0.0
  0
INSERT
  5
674
330
1F
100
AcDbEntity
  8
0
100
AcDbBlockReference
  2
BLOCK_197
 10
0.0
 20
0.0
 30
0.0
  0
INSERT
  5
67C
330
1F
100
AcDbEntity
  8
0
100
AcDbBlockReference
  2
BLOCK_198
 10
0.0
 20
0.0
 30
0.0
  0
INSERT
  5
684
330
1F
100
AcDbEntity
  8
0
100
AcDbBlockReference
  2
BLOCK_199
 10
0.0
 20
0.0
 30
0.0
  0
INSERT
  5
68C
330
1F
100
AcDbEntity
  8
0
100
AcDbBlockReference
  2
BLOCK_200
 10
0.0
 20
0.0
 30
0.0
  0
INSERT
  5
694
330
1F
100
AcDbEntity
  8
0
100
AcDbBlockReference
  2
BLOCK_201
 10
0.0
 20
0.0
 30
0.0
  0
INSERT
  5
69C
330
1F
100
AcDbEntity
  8
0
100
AcDbBlockReference
  2
BLOCK_202
 10
0.0
 20
0.0
 30
0.0
  0
INSERT
  5
6A4
330
1F
100
AcDbEntity
  8
0
100
AcDbBlockReference
  2
BLOCK_203
 10
0.0
 20
0.0
 30
0.0
  0
INSERT
  5
6AC
330
1F
100
AcDbEntity
  8
0
100
AcDbBlockReference
  2
BLOCK_204
 10
0.0
 20
0.0
 30
0.0
  0
INSERT
  5
6B4
330
1F
100
AcDbEntity
  8
0
100
AcDbBlockReference
  2
BLOCK_205
 10
0.0
 20
0.0
 30
0.0
  0
INSERT
  5
6BC
330
1F
100
AcDbEntity
  8
0
100
AcDbBlockReference
  2
BLOCK_206
 10
0.0
 20
0.0
 30
0.0
  0
INSERT
  5
6C4
330
1F
100
AcDbEntity
  8
0
100
AcDbBlockReference
  2
BLOCK_207
 10
0.0
 20
0.0
 30
0.0
  0
INSERT
  5
6CC
330
1F
100
AcDbEntity
  8
0
100
AcDbBlockReference
  2
BLOCK_208
 10
0.0
 20
0.0
 30
0.0
  0
INSERT
  5
6D4
330
1F
100
AcDbEntity
  8
0
100
AcDbBlockReference
  2
BLOCK_209
 10
0.0
 20
0.0
 30
0.0
  0
INSERT
  5
6DC
330
1F
100
AcDbEntity
  8
0
100
AcDbBlockReference
  2
BLOCK_210
 10
0.0
 20
0.0
 30
0.0
  0
INSERT
  5
6E4
330
1F
100
AcDbEntity
  8
0
100
AcDbBlockReference
  2
BLOCK_211
 10
0.0
 20
0.0
 30
0.0
  0
INSERT
  5
6EC
330
1F
100
AcDbEntity
  8
0
100
AcDbBlockReference
  2
BLOCK_212
 10
0.0
 20
0.0
 30
0.0
  0
INSERT
  5
6F4
330
1F
100
AcDbEntity
  8
0
100
AcDbBlockReference
  2
BLOCK_213
 10
0.0
 20
0.0
 30
0.0
  0
INSERT
  5
6FC
330
1F
100
AcDbEntity
  8
0
100
AcDbBlockReference
  2
BLOCK_214
 10
0.0
 20
0.0
 30
0.0
  0
INSERT
  5
704
330
1F
100
AcDbEntity
  8
0
100
AcDbBlockReference
  2
BLOCK_215
 10
0.0
 20
0.0
 30
0.0
  0
INSERT
  5
70C
330
1F
100
AcDbEntity
  8
0
100
AcDbBlockReference
  2
BLOCK_216
 10
0.0
 20
0.0
 30
0.0
  0
INSERT
  5
714
330
1F
100
AcDbEntity
  8
0
100
AcDbBlockReference
  2
BLOCK_217
 10
0.0
 20
0.0
 30
0.0
  0
INSERT
  5
71C
330
1F
100
AcDbEntity
  8
0
100
AcDbBlockReference
  2
BLOCK_218
 10
0.0
 20
0.0
 30
0.0
  0
INSERT
  5
724
330
1F
100
AcDbEntity
  8
0
100
AcDbBlockReference
  2
BLOCK_219
 10
0.0
 20
0.0
 30
0.0
  0
INSERT
  5
72C
330
1F
100
AcDbEntity
  8
0
100
AcDbBlockReference
  2
BLOCK_220
 10
0.0
 20
0.0
 30
0.0
  0
INSERT
  5
734
330
1F
100
AcDbEntity
  8
0
100
AcDbBlockReference
  2
BLOCK_221
 10
0.0
 20
0.0
 30
0.0
  0
INSERT
  5
73C
330
1F
100
AcDbEntity
  8
0
100
AcDbBlockReference
  2
BLOCK_222
 10
0.0
 20
0.0
 30
0.0
  0
INSERT
  5
744
330
1F
100
AcDbEntity
  8
0
100
AcDbBlockReference
  2
BLOCK_223
 10
0.0
 20
0.0
 30
0.0
  0
INSERT
  5
74C
330
1F
100
AcDbEntity
  8
0
100
AcDbBlockReference
  2
BLOCK_224
 10
0.0
 20
0.0
 30
0.0
  0
INSERT
  5
754
330
1F
100
AcDbEntity
  8
0
100
AcDbBlockReference
  2
BLOCK_225
 10
0.0
 20
0.0
 30
0.0
  0
INSERT
  5
75C
330
1F
100
AcDbEntity
  8
0
100
AcDbBlockReference
  2
BLOCK_226
 10
0.0
 20
0.0
 30
0.0
  0
INSERT
  5
764
330
1F
100
AcDbEntity
  8
0
100
AcDbBlockReference
  2
BLOCK_227
 10
0.0
 20
0.0
 30
0.0
  0
INSERT
  5
76C
330
1F
100
AcDbEntity
  8
0
100
AcDbBlockReference
  2
BLOCK_228
 10
0.0
 20
0.0
 30
0.0
  0
INSERT
  5
774
330
1F
100
AcDbEntity
  8
0
100
AcDbBlockReference
  2
BLOCK_229
 10
0.0
 20
0.0
 30
0.0
  0
INSERT
  5
77C
330
1F
100
AcDbEntity
  8
0
100
AcDbBlockReference
  2
BLOCK_230
 10
0.0
 20
0.0
 30
0.0
  0
INSERT
  5
784
330
1F
100
AcDbEntity
  8
0
100
AcDbBlockReference
  2
BLOCK_231
 10
0.0
 20
0.0
 30
0.0
  0
INSERT
  5
78C
330
1F
100
AcDbEntity
  8
0
100
AcDbBlockReference
  2
BLOCK_232
 10
0.0
 20
0.0
 30
0.0
  0
INSERT
  5
794
330
1F
100
AcDbEntity
  8
0
100
AcDbBlockReference
  2
BLOCK_233
 10
0.0
 20
0.0
 30
0.0
  0
INSERT
  5
79C
330
1F
100
AcDbEntity
  8
0
100
AcDbBlockReference
  2
BLOCK_234
 10
0.0
 20
0.0
 30
0.0
  0
INSERT
  5
7A4
330
1F
100
AcDbEntity
  8
0
100
AcDbBlockReference
  2
BLOCK_235
 10
0.0
 20
0.0
 30
0.0
  0
INSERT
  5
7AC
330
1F
100
AcDbEntity
  8
0
100
AcDbBlockReference
  2
BLOCK_236
 10
0.0
 20
0.0
 30
0.0
  0
INSERT
  5
7B4
330
1F
100
AcDbEntity
  8
0
100
AcDbBlockReference
  2
BLOCK_237
 10
0.0
 20
0.0
 30
0.0
  0
INSERT
  5
7BC
330
1F
100
AcDbEntity
  8
0
100
AcDbBlockReference
  2
BLOCK_238
 10
0.0
 20
0.0
 30
0.0
  0
INSERT
  5
7C4
330
1F
100
AcDbEntity
  8
0
100
AcDbBlockReference
  2
BLOCK_239
 10
0.0
 20
0.0
 30
0.0
  0
INSERT
  5
7CC
330
1F
100
AcDbEntity
  8
0
100
AcDbBlockReference
  2
BLOCK_240
 10
0.0
 20
0.0
 30
0.0
  0
INSERT
  5
7D4
330
1F
100
AcDbEntity
  8
0
100
AcDbBlockReference
  2
BLOCK_241
 10
0.0
 20
0.0
 30
0.0
  0
INSERT
  5
7DC
330
1F
100
AcDbEntity
  8
0
100
AcDbBlockReference
  2
BLOCK_242
 10
0.0
 20
0.0
 30
0.0
  0
INSERT
  5
7E4
330
1F
100
AcDbEntity
  8
0
100
AcDbBlockReference
  2
BLOCK_243
 10
0.0
 20
0.0
 30
0.0
  0
INSERT
  5
7EC
330
1F
100
AcDbEntity
  8
0
100
AcDbBlockReference
  2
BLOCK_244
 10
0.0
 20
0.0
 30
0.0
  0
INSERT
  5
7F4
330
1F
100
AcDbEntity
  8
0
100
AcDbBlockReference
  2
BLOCK_245
 10
0.0
 20
0.0
 30
0.0
  0
INSERT
  5
7FC
330
1F
100
AcDbEntity
  8
0
100
AcDbBlockReference
  2
BLOCK_246
 10
0.0
 20
0.0
 30
0.0
  0
INSERT
  5
804
330
1F
100
AcDbEntity
  8
0
100
AcDbBlockReference
  2
BLOCK_247
 10
0.0
 20
0.0
 30
0.0
  0
INSERT
  5
80C
330
1F
100
AcDbEntity
  8
0
100
AcDbBlockReference
  2
BLOCK_248
 10
0.0
 20
0.0
 30
0.0
  0
INSERT
  5
814
330
1F
100
AcDbEntity
  8
0
100
AcDbBlockReference
  2
BLOCK_249
 10
0.0
 20
0.0
 30
0.0
  0
INSERT
  5
81C
330
1F
100
AcDbEntity
  8
0
100
AcDbBlockReference
  2
BLOCK_250
 10
0.0
 20
0.0
 30
0.0
  0
INSERT
  5
824
330
1F
100
AcDbEntity
  8
0
100
AcDbBlockReference
  2
BLOCK_251
 10
0.0
 20
0.0
 30
0.0
  0
INSERT
  5
82C
330
1F
100
AcDbEntity
  8
0
100
AcDbBlockReference
  2
BLOCK_252
 10
0.0
 20
0.0
 30
0.0
  0
INSERT
  5
834
330
1F
100
AcDbEntity
  8
0
100
AcDbBlockReference
  2
BLOCK_253
 10
0.0
 20
0.0
 30
0.0
  0
INSERT
  5
83C
330
1F
100
AcDbEntity
  8
0
100
AcDbBlockReference
  2
BLOCK_254
 10
0.0
 20
0.0
 30
0.0
  0
INSERT
  5
844
330
1F
100
AcDbEntity
  8
0
100
AcDbBlockReference
  2
BLOCK_255
 10
0.0
 20
0.0
 30
0.0
  0
INSERT
  5
84C
330
1F
100
AcDbEntity
  8
0
100
AcDbBlockReference
  2
BLOCK_256
 10
0.0
 20
0.0
 30
0.0
  0
INSERT
  5
854
330
1F
100
AcDbEntity
  8
0
100
AcDbBlockReference
  2
BLOCK_257
 10
0.0
 20
0.0
 30
0.0
  0
INSERT
  5
85C
330
1F
100
AcDbEntity
  8
0
100
AcDbBlockReference
  2
BLOCK_258
 10
0.0
 20
0.0
 30
0.0
  0
INSERT
  5
864
330
1F
100
AcDbEntity
  8
0
100
AcDbBlockReference
  2
BLOCK_259
 10
0.0
 20
0.0
 30
0.0
  0
INSERT
  5
86C
330
1F
100
AcDbEntity
  8
0
100
AcDbBlockReference
  2
BLOCK_260
 10
0.0
 20
0.0
 30
0.0
  0
INSERT
  5
874
330
1F
100
AcDbEntity
  8
0
100
AcDbBlockReference
  2
BLOCK_261
 10
0.0
 20
0.0
 30
0.0
  0
INSERT
  5
87C
330
1F
100
AcDbEntity
  8
0
100
AcDbBlockReference
  2
BLOCK_262
 10
0.0
 20
0.0
 30
0.0
  0
INSERT
  5
884
330
1F
100
AcDbEntity
  8
0
100
AcDbBlockReference
  2
BLOCK_263
 10
0.0
 20
0.0
 30
0.0
  0
INSERT
  5
88C
330
1F
100
AcDbEntity
  8
0
100
AcDbBlockReference
  2
BLOCK_264
 10
0.0
 20
0.0
 30
0.0
  0
INSERT
  5
894
330
1F
100
AcDbEntity
  8
0
100
AcDbBlockReference
  2
BLOCK_265
 10
0.0
 20
0.0
 30
0.0
  0
INSERT
  5
89C
330
1F
100
AcDbEntity
  8
0
100
AcDbBlockReference
  2
BLOCK_266
 10
0.0
 20
0.0
 30
0.0
  0
INSERT
  5
8A4
330
1F
100
AcDbEntity
  8
0
100
AcDbBlockReference
  2
BLOCK_267
 10
0.0
 20
0.0
 30
0.0
  0
INSERT
  5
8AC
330
1F
100
AcDbEntity
  8
0
100
AcDbBlockReference
  2
BLOCK_268
 10
0.0
 20
0.0
 30
0.0
  0
INSERT
  5
8B4
330
1F
100
AcDbEntity
  8
0
100
AcDbBlockReference
  2
BLOCK_269
 10
0.0
 20
0.0
 30
0.0
  0
INSERT
  5
8BC
330
1F
100
AcDbEntity
  8
0
100
AcDbBlockReference
  2
BLOCK_270
 10
0.0
 20
0.0
 30
0.0
  0
INSERT
  5
8C4
330
1F
100
AcDbEntity
  8
0
100
AcDbBlockReference
  2
BLOCK_271
 10
0.0
 20
0.0
 30
0.0
  0
INSERT
  5
8CC
330
1F
100
AcDbEntity
  8
0
100
AcDbBlockReference
  2
BLOCK_272
 10
0.0
 20
0.0
 30
0.0
  0
INSERT
  5
8D4
330
1F
100
AcDbEntity
  8
0
100
AcDbBlockReference
  2
BLOCK_273
 10
0.0
 20
0.0
 30
0.0
  0
INSERT
  5
8DC
330
1F
100
AcDbEntity
  8
0
100
AcDbBlockReference
  2
BLOCK_274
 10
0.0
 20
0.0
 30
0.0
  0
INSERT
  5
8E4
330
1F
100
AcDbEntity
  8
0
100
AcDbBlockReference
  2
BLOCK_275
 10
0.0
 20
0.0
 30
0.0
  0
INSERT
  5
8EC
330
1F
100
AcDbEntity
  8
0
100
AcDbBlockReference
  2
BLOCK_276
 10
0.0
 20
0.0
 30
0.0
  0
INSERT
  5
8F4
330
1F
100
AcDbEntity
  8
0
100
AcDbBlockReference
  2
BLOCK_277
 10
0.0
 20
0.0
 30
0.0
  0
INSERT
  5
8FC
330
1F
100
AcDbEntity
  8
0
100
AcDbBlockReference
  2
BLOCK_278
 10
0.0
 20
0.0
 30
0.0
  0
INSERT
  5
904
330
1F
100
AcDbEntity
  8
0
100
AcDbBlockReference
  2
BLOCK_279
 10
0.0
 20
0.0
 30
0.0
  0
INSERT
  5
90C
330
1F
100
AcDbEntity
  8
0
100
AcDbBlockReference
  2
BLOCK_280
 10
0.0
 20
0.0
 30
0.0
  0
INSERT
  5
914
330
1F
100
AcDbEntity
  8
0
100
AcDbBlockReference
  2
BLOCK_281
 10
0.0
 20
0.0
 30
0.0
  0
INSERT
  5
91C
330
1F
100
AcDbEntity
  8
0
100
AcDbBlockReference
  2
BLOCK_282
 10
0.0
 20
0.0
 30
0.0
  0
INSERT
  5
924
330
1F
100
AcDbEntity
  8
0
100
AcDbBlockReference
  2
BLOCK_283
 10
0.0
 20
0.0
 30
0.0
  0
INSERT
  5
92C
330
1F
100
AcDbEntity
  8
0
100
AcDbBlockReference
  2
BLOCK_284
 10
0.0
 20
0.0
 30
0.0
  0
INSERT
  5
934
330
1F
100
AcDbEntity
  8
0
100
AcDbBlockReference
  2
BLOCK_285
 10
0.0
 20
0.0
 30
0.0
  0
INSERT
  5
93C
330
1F
100
AcDbEntity
  8
0
100
AcDbBlockReference
  2
BLOCK_286
 10
0.0
 20
0.0
 30
0.0
  0
MTEXT
  5
943
330
1F
100
AcDbEntity
  8
0
 62
     7
100
AcDbMText
 10
569.5185788419604
 20
369.5513756675846
 30
0.0
 40
8.085660366580065
 41
0.0
 71
     7
 72
     1
  1
\fImpact|b0|i0|c0|p34;\W1;FA20 HYUNHO
  0
ENDSEC
  0
SECTION
  2
OBJECTS
  0
DICTIONARY
  5
C
330
0
100
AcDbDictionary
  3
ACAD_GROUP
350
D
  3
ACAD_LAYOUT
350
1A
  3
ACAD_MATERIAL
350
3B
  3
ACAD_MLEADERSTYLE
350
946
  3
ACAD_MLINESTYLE
350
17
  3
ACAD_PLOTSETTINGS
350
19
  3
ACAD_VISUALSTYLE
350
2A
  3
ACDBVARIABLEDICTIONARY
350
944
1001
ACAD
1000
TREAT_AS_HARD
1070
     0
  0
DICTIONARY
  5
D
102
{ACAD_REACTORS
330
C
102
}
330
C
100
AcDbDictionary
1001
ACAD
1000
TREAT_AS_HARD
1070
     0
  0
DICTIONARY
  5
1A
102
{ACAD_REACTORS
330
C
102
}
330
C
100
AcDbDictionary
1001
ACAD
1000
TREAT_AS_HARD
1070
     0
  0
DICTIONARY
  5
3B
102
{ACAD_REACTORS
330
C
102
}
330
C
100
AcDbDictionary
  3
BYBLOCK
350
3D
  3
BYLAYER
350
3C
  3
GLOBAL
350
3E
1001
ACAD
1000
TREAT_AS_HARD
1070
     0
  0
DICTIONARY
  5
946
102
{ACAD_REACTORS
330
C
102
}
330
C
100
AcDbDictionary
1001
ACAD
1000
TREAT_AS_HARD
1070
     0
  0
DICTIONARY
  5
17
102
{ACAD_REACTORS
330
C
102
}
330
C
100
AcDbDictionary
  3
STANDARD
350
18
1001
ACAD
1000
TREAT_AS_HARD
1070
     0
  0
DICTIONARY
  5
19
102
{ACAD_REACTORS
330
C
102
}
330
C
100
AcDbDictionary
1001
ACAD
1000
TREAT_AS_HARD
1070
     0
  0
DICTIONARY
  5
2A
102
{ACAD_REACTORS
330
C
102
}
330
C
100
AcDbDictionary
  3
2DWIREFRAME
350
2F
  3
3D_HIDDEN
350
31
  3
3DWIREFRAME
350
30
  3
BASIC
350
32
  3
BRIGHTEN
350
36
  3
COLORCHANGE
350
3A
  3
CONCEPTUAL
350
34
  3
DIM
350
35
  3
FACEPATTERN
350
39
  3
FLAT
350
2B
  3
FLATWITHEDGES
350
2C
  3
GOURAUD
350
2D
  3
GOURAUDWITHEDGES
350
2E
  3
LINEPATTERN
350
38
  3
REALISTIC
350
33
  3
THICKEN
350
37
1001
ACAD
1000
TREAT_AS_HARD
1070
     0
  0
DICTIONARY
  5
944
102
{ACAD_REACTORS
330
C
102
}
330
C
100
AcDbDictionary
  3
DIMASSOC
350
947
  3
HIDETEXT
350
948
1001
ACAD
1000
TREAT_AS_HARD
1070
     0
  0
MATERIAL
  5
3D
102
{ACAD_REACTORS
330
3B
102
}
102
{ACAD_XDICTIONARY
360
94B
102
}
330
3B
100
AcDbMaterial
  1
ByBlock
  0
MATERIAL
  5
3C
102
{ACAD_REACTORS
330
3B
102
}
102
{ACAD_XDICTIONARY
360
949
102
}
330
3B
100
AcDbMaterial
  1
ByLayer
  0
MATERIAL
  5
3E
102
{ACAD_REACTORS
330
3B
102
}
102
{ACAD_XDICTIONARY
360
94D
102
}
330
3B
100
AcDbMaterial
  1
Global
  0
MLINESTYLE
  5
18
102
{ACAD_REACTORS
330
17
102
}
330
17
100
AcDbMlineStyle
  2
Standard
 70
     0
  3

 62
   256
 51
90.0
 52
90.0
 71
     2
 49
0.5
 62
   256
  6
BYLAYER
 49
-0.5
 62
   256
  6
BYLAYER
  0
ACAD_PROXY_OBJECT
  5
2F
102
{ACAD_REACTORS
330
2A
102
}
330
2A
100
AcDbZombieObject
 90
      499
 91
      501
 93
      436
310
42CC9915DA5C99599C985B595049028333333333333E3BF0000000000000FB0107901411070040501600405405064090741402480A0340
1001
ACAD
1000
AcDbSavedByObjectVersion
1070
     0
  0
ACAD_PROXY_OBJECT
  5
31
102
{ACAD_REACTORS
330
2A
102
}
330
2A
100
AcDbZombieObject
 90
      499
 91
      501
 93
      500
310
424CD108121A5919195B90640502408333333333333E3BF0000000000000FB01079024090700405020000000000001110200405405064090740C02480A0340
1001
ACAD
1000
AcDbSavedByObjectVersion
1070
     0
  0
ACAD_PROXY_OBJECT
  5
30
102
{ACAD_REACTORS
330
2A
102
}
330
2A
100
AcDbZombieObject
 90
      499
 91
      501
 93
      436
310
42CCD915DA5C99599C985B595059028333333333333E3BF0000000000000FB0107901411070040501600405405064090741402480A0340
1001
ACAD
1000
AcDbSavedByObjectVersion
1070
     0
  0
ACAD_PROXY_OBJECT
  5
32
102
{ACAD_REACTORS
330
2A
102
}
330
2A
100
AcDbZombieObject
 90
      499
 91
      501
 93
      388
310
4150985CDA58D07406404333333333333E3BF0000000000000FB0107A41107004050150841D405064090741402480A0350
1001
ACAD
1000
AcDbSavedByObjectVersion
1070
     0
  0
ACAD_PROXY_OBJECT
  5
36
102
{ACAD_REACTORS
330
2A
102
}
330
2A
100
AcDbZombieObject
 90
      499
 91
      501
 93
      428
310
42109C9A59DA1D195B90C409028333333333333E3BF0000000000000FB010790141107004050150841D405064090741402480A029950
1001
ACAD
1000
AcDbSavedByObjectVersion
1070
     0
  0
ACAD_PROXY_OBJECT
  5
3A
102
{ACAD_REACTORS
330
2A
102
}
330
2A
100
AcDbZombieObject
 90
      499
 91
      501
 93
      452
310
42D0DBDB1BDC90DA185B99D95104090240C333333333333E3BF0000000000000FB0108901411070040501508421405064090741402480A0350
1001
ACAD
1000
AcDbSavedByObjectVersion
1070
     0
  0
ACAD_PROXY_OBJECT
  5
34
102
{ACAD_REACTORS
330
2A
102
}
330
2A
100
AcDbZombieObject
 90
      499
 91
      501
 93
      500
310
4290DBDB98D95C1D1D585B10940D028333333333333E3BF0000000000000FB0107902409070040501000000000000111010841D405064090740C02480A0340
1001
ACAD
1000
AcDbSavedByObjectVersion
1070
     0
  0
ACAD_PROXY_OBJECT
  5
35
102
{ACAD_REACTORS
330
2A
102
}
330
2A
100
AcDbZombieObject
 90
      499
 91
      501
 93
      412
310
40D11A5B50B409028333333333333E3BF0000000000000FB010790141107004050150841D405064090741402480A02677FFFFFD0
1001
ACAD
1000
AcDbSavedByObjectVersion
1070
     0
  0
ACAD_PROXY_OBJECT
  5
39
102
{ACAD_REACTORS
330
2A
102
}
330
2A
100
AcDbZombieObject
 90
      499
 91
      501
 93
      444
310
42D19858D95C185D1D195C9B90F409028333333333333E3BF0000000000000FB010790141107004050150841D405064090741402480A0350
1001
ACAD
1000
AcDbSavedByObjectVersion
1070
     0
  0
ACAD_PROXY_OBJECT
  5
2B
102
{ACAD_REACTORS
330
2A
102
}
330
2A
100
AcDbZombieObject
 90
      499
 91
      501
 93
      388
310
41119B185D240901404333333333333E3BF0000000000000F9010740A41107004050150841D405064090741402480A1B50
1001
ACAD
1000
AcDbSavedByObjectVersion
1070
     0
  0
ACAD_PROXY_OBJECT
  5
2C
102
{ACAD_REACTORS
330
2A
102
}
330
2A
100
AcDbZombieObject
 90
      499
 91
      501
 93
      476
310
43519B185D15DA5D1A115919D95CD0140901404333333333333E3BF0000000000000F9010740901411070040501600405405064090741402480A1B50
1001
ACAD
1000
AcDbSavedByObjectVersion
1070
     0
  0
ACAD_PROXY_OBJECT
  5
2D
102
{ACAD_REACTORS
330
2A
102
}
330
2A
100
AcDbZombieObject
 90
      499
 91
      501
 93
      412
310
41D1DBDD5C985D5910240902404333333333333E3BF0000000000000F9010740A411070040501641D405064090741402480A1B50
1001
ACAD
1000
AcDbSavedByObjectVersion
1070
     0
  0
ACAD_PROXY_OBJECT
  5
2E
102
{ACAD_REACTORS
330
2A
102
}
330
2A
100
AcDbZombieObject
 90
      499
 91
      501
 93
      500
310
4411DBDD5C985D5915DA5D1A115919D95CD0340902404333333333333E3BF0000000000000F9010740901411070040501600405405064090741402480A1B50
1001
ACAD
1000
AcDbSavedByObjectVersion
1070
     0
  0
ACAD_PROXY_OBJECT
  5
38
102
{ACAD_REACTORS
330
2A
102
}
330
2A
100
AcDbZombieObject
 90
      499
 91
      501
 93
      444
310
42D31A5B995C185D1D195C9B90E409028333333333333E3BF0000000000000FB010790141107004050750841D405064090741402483A0350
1001
ACAD
1000
AcDbSavedByObjectVersion
1070
     0
  0
ACAD_PROXY_OBJECT
  5
33
102
{ACAD_REACTORS
330
2A
102
}
330
2A
100
AcDbZombieObject
 90
      499
 91
      501
 93
      420
310
425499585B1A5CDD1A58D08409028333333333333E3BF0000000000000FB01079019070040501508421405064090741402480A1B40
1001
ACAD
1000
AcDbSavedByObjectVersion
1070
     0
  0
ACAD_PROXY_OBJECT
  5
37
102
{ACAD_REACTORS
330
2A
102
}
330
2A
100
AcDbZombieObject
 90
      499
 91
      501
 93
      412
310
41D51A1A58DAD95B90D409028333333333333E3BF0000000000000FB010790141107004050150C41D405064090741402480A0350
1001
ACAD
1000
AcDbSavedByObjectVersion
1070
     0
  0
DICTIONARYVAR
  5
947
102
{ACAD_REACTORS
330
944
102
}
330
944
100
DictionaryVariables
280
     0
  1
2
  0
DICTIONARYVAR
  5
948
102
{ACAD_REACTORS
330
944
102
}
330
944
100
DictionaryVariables
280
     0
  1
1
  0
DICTIONARY
  5
94B
330
3D
100
AcDbDictionary
  3
ACAD_XREC_ROUNDTRIP
360
94C
1001
ACAD
1000
TREAT_AS_HARD
1070
     1
  0
DICTIONARY
  5
949
330
3C
100
AcDbDictionary
  3
ACAD_XREC_ROUNDTRIP
360
94A
1001
ACAD
1000
TREAT_AS_HARD
1070
     1
  0
DICTIONARY
  5
94D
330
3E
100
AcDbDictionary
  3
ACAD_XREC_ROUNDTRIP
360
94E
1001
ACAD
1000
TREAT_AS_HARD
1070
     1
  0
XRECORD
  5
94C
102
{ACAD_REACTORS
330
94B
102
}
330
94B
100
AcDbXrecord
102
MATERIAL
148
0.0
149
0.0
149
0.0
 93
        0
 94
      127
282
     0
 72
     1
 77
     1
171
     1
175
     1
179
     1
273
     0
  0
XRECORD
  5
94A
102
{ACAD_REACTORS
330
949
102
}
330
949
100
AcDbXrecord
102
MATERIAL
148
0.0
149
0.0
149
0.0
 93
        0
 94
      127
282
     0
 72
     1
 77
     1
171
     1
175
     1
179
     1
273
     0
  0
XRECORD
  5
94E
102
{ACAD_REACTORS
330
94D
102
}
330
94D
100
AcDbXrecord
102
MATERIAL
148
0.0
149
0.0
149
0.0
 93
        0
 94
      127
282
     0
 72
     1
 77
     1
171
     1
175
     1
179
     1
273
     0
  0
ENDSEC
  0
EOF
