ISO-10303-21;
HEADER;
/* Generated by software containing ST-Developer
 * from STEP Tools, Inc. (www.steptools.com) 
 */
/* OPTION: using custom renumber hook */

FILE_DESCRIPTION(
/* description */ (''),
/* implementation_level */ '2;1');

FILE_NAME(
/* name */ '5fbbe1f3325a56161ff881d2',
/* time_stamp */ '2020-11-23T16:23:16+00:00',
/* author */ (''),
/* organization */ (''),
/* preprocessor_version */ 'ST-DEVELOPER v16.7',
/* originating_system */ $,
/* authorisation */ $);

FILE_SCHEMA (('AUTOMOTIVE_DESIGN {1 0 10303 214 3 1 1}'));
ENDSEC;

DATA;
#10=PROPERTY_DEFINITION_REPRESENTATION(#14,#12);
#11=PROPERTY_DEFINITION_REPRESENTATION(#15,#13);
#12=REPRESENTATION('',(#16),#457);
#13=REPRESENTATION('',(#17),#457);
#14=PROPERTY_DEFINITION('pmi validation property','',#462);
#15=PROPERTY_DEFINITION('pmi validation property','',#462);
#16=VALUE_REPRESENTATION_ITEM('number of annotations',COUNT_MEASURE(0.));
#17=VALUE_REPRESENTATION_ITEM('number of views',COUNT_MEASURE(0.));
#18=SHAPE_REPRESENTATION_RELATIONSHIP('','',#283,#19);
#19=ADVANCED_BREP_SHAPE_REPRESENTATION('',(#281),#457);
#20=CYLINDRICAL_SURFACE('',#288,0.004);
#21=CYLINDRICAL_SURFACE('',#298,0.006);
#22=CYLINDRICAL_SURFACE('',#307,0.00175);
#23=CYLINDRICAL_SURFACE('',#308,0.00175);
#24=CYLINDRICAL_SURFACE('',#309,0.00175);
#25=CYLINDRICAL_SURFACE('',#310,0.00175);
#26=LINE('',#391,#46);
#27=LINE('',#394,#47);
#28=LINE('',#396,#48);
#29=LINE('',#398,#49);
#30=LINE('',#402,#50);
#31=LINE('',#410,#51);
#32=LINE('',#412,#52);
#33=LINE('',#414,#53);
#34=LINE('',#416,#54);
#35=LINE('',#418,#55);
#36=LINE('',#420,#56);
#37=LINE('',#426,#57);
#38=LINE('',#428,#58);
#39=LINE('',#430,#59);
#40=LINE('',#434,#60);
#41=LINE('',#442,#61);
#42=LINE('',#444,#62);
#43=LINE('',#446,#63);
#44=LINE('',#448,#64);
#45=LINE('',#449,#65);
#46=VECTOR('',#319,1.);
#47=VECTOR('',#320,1.);
#48=VECTOR('',#321,1.);
#49=VECTOR('',#322,1.);
#50=VECTOR('',#327,1.);
#51=VECTOR('',#336,1.);
#52=VECTOR('',#337,1.);
#53=VECTOR('',#338,1.);
#54=VECTOR('',#341,1.);
#55=VECTOR('',#342,1.);
#56=VECTOR('',#343,1.);
#57=VECTOR('',#350,1.);
#58=VECTOR('',#351,1.);
#59=VECTOR('',#352,1.);
#60=VECTOR('',#357,1.);
#61=VECTOR('',#366,1.);
#62=VECTOR('',#367,1.);
#63=VECTOR('',#368,1.);
#64=VECTOR('',#371,1.);
#65=VECTOR('',#372,1.);
#66=ORIENTED_EDGE('',*,*,#130,.F.);
#67=ORIENTED_EDGE('',*,*,#131,.F.);
#68=ORIENTED_EDGE('',*,*,#132,.F.);
#69=ORIENTED_EDGE('',*,*,#133,.F.);
#70=ORIENTED_EDGE('',*,*,#134,.T.);
#71=ORIENTED_EDGE('',*,*,#135,.T.);
#72=ORIENTED_EDGE('',*,*,#136,.F.);
#73=ORIENTED_EDGE('',*,*,#137,.F.);
#74=ORIENTED_EDGE('',*,*,#138,.T.);
#75=ORIENTED_EDGE('',*,*,#133,.T.);
#76=ORIENTED_EDGE('',*,*,#139,.T.);
#77=ORIENTED_EDGE('',*,*,#140,.T.);
#78=ORIENTED_EDGE('',*,*,#141,.T.);
#79=ORIENTED_EDGE('',*,*,#142,.F.);
#80=ORIENTED_EDGE('',*,*,#143,.F.);
#81=ORIENTED_EDGE('',*,*,#137,.T.);
#82=ORIENTED_EDGE('',*,*,#144,.T.);
#83=ORIENTED_EDGE('',*,*,#145,.F.);
#84=ORIENTED_EDGE('',*,*,#146,.F.);
#85=ORIENTED_EDGE('',*,*,#142,.T.);
#86=ORIENTED_EDGE('',*,*,#147,.F.);
#87=ORIENTED_EDGE('',*,*,#148,.F.);
#88=ORIENTED_EDGE('',*,*,#149,.F.);
#89=ORIENTED_EDGE('',*,*,#150,.F.);
#90=ORIENTED_EDGE('',*,*,#151,.T.);
#91=ORIENTED_EDGE('',*,*,#145,.T.);
#92=ORIENTED_EDGE('',*,*,#152,.T.);
#93=ORIENTED_EDGE('',*,*,#153,.F.);
#94=ORIENTED_EDGE('',*,*,#154,.F.);
#95=ORIENTED_EDGE('',*,*,#150,.T.);
#96=ORIENTED_EDGE('',*,*,#155,.F.);
#97=ORIENTED_EDGE('',*,*,#156,.F.);
#98=ORIENTED_EDGE('',*,*,#157,.T.);
#99=ORIENTED_EDGE('',*,*,#158,.F.);
#100=ORIENTED_EDGE('',*,*,#159,.F.);
#101=ORIENTED_EDGE('',*,*,#153,.T.);
#102=ORIENTED_EDGE('',*,*,#160,.T.);
#103=ORIENTED_EDGE('',*,*,#135,.F.);
#104=ORIENTED_EDGE('',*,*,#161,.F.);
#105=ORIENTED_EDGE('',*,*,#158,.T.);
#106=ORIENTED_EDGE('',*,*,#134,.F.);
#107=ORIENTED_EDGE('',*,*,#138,.F.);
#108=ORIENTED_EDGE('',*,*,#143,.T.);
#109=ORIENTED_EDGE('',*,*,#146,.T.);
#110=ORIENTED_EDGE('',*,*,#151,.F.);
#111=ORIENTED_EDGE('',*,*,#154,.T.);
#112=ORIENTED_EDGE('',*,*,#159,.T.);
#113=ORIENTED_EDGE('',*,*,#161,.T.);
#114=ORIENTED_EDGE('',*,*,#132,.T.);
#115=ORIENTED_EDGE('',*,*,#160,.F.);
#116=ORIENTED_EDGE('',*,*,#157,.F.);
#117=ORIENTED_EDGE('',*,*,#152,.F.);
#118=ORIENTED_EDGE('',*,*,#149,.T.);
#119=ORIENTED_EDGE('',*,*,#144,.F.);
#120=ORIENTED_EDGE('',*,*,#141,.F.);
#121=ORIENTED_EDGE('',*,*,#136,.T.);
#122=ORIENTED_EDGE('',*,*,#131,.T.);
#123=ORIENTED_EDGE('',*,*,#156,.T.);
#124=ORIENTED_EDGE('',*,*,#130,.T.);
#125=ORIENTED_EDGE('',*,*,#155,.T.);
#126=ORIENTED_EDGE('',*,*,#148,.T.);
#127=ORIENTED_EDGE('',*,*,#140,.F.);
#128=ORIENTED_EDGE('',*,*,#147,.T.);
#129=ORIENTED_EDGE('',*,*,#139,.F.);
#130=EDGE_CURVE('',#162,#162,#186,.T.);
#131=EDGE_CURVE('',#163,#163,#187,.T.);
#132=EDGE_CURVE('',#164,#165,#26,.T.);
#133=EDGE_CURVE('',#166,#164,#27,.T.);
#134=EDGE_CURVE('',#166,#167,#28,.T.);
#135=EDGE_CURVE('',#167,#165,#29,.T.);
#136=EDGE_CURVE('',#168,#164,#188,.T.);
#137=EDGE_CURVE('',#169,#168,#30,.T.);
#138=EDGE_CURVE('',#169,#166,#189,.T.);
#139=EDGE_CURVE('',#170,#170,#190,.T.);
#140=EDGE_CURVE('',#171,#171,#191,.T.);
#141=EDGE_CURVE('',#168,#172,#31,.T.);
#142=EDGE_CURVE('',#173,#172,#32,.T.);
#143=EDGE_CURVE('',#169,#173,#33,.T.);
#144=EDGE_CURVE('',#172,#174,#34,.T.);
#145=EDGE_CURVE('',#175,#174,#35,.T.);
#146=EDGE_CURVE('',#173,#175,#36,.T.);
#147=EDGE_CURVE('',#176,#176,#192,.T.);
#148=EDGE_CURVE('',#177,#177,#193,.T.);
#149=EDGE_CURVE('',#178,#174,#37,.T.);
#150=EDGE_CURVE('',#179,#178,#38,.T.);
#151=EDGE_CURVE('',#179,#175,#39,.T.);
#152=EDGE_CURVE('',#178,#180,#194,.T.);
#153=EDGE_CURVE('',#181,#180,#40,.T.);
#154=EDGE_CURVE('',#179,#181,#195,.T.);
#155=EDGE_CURVE('',#182,#182,#196,.T.);
#156=EDGE_CURVE('',#183,#183,#197,.T.);
#157=EDGE_CURVE('',#180,#184,#41,.T.);
#158=EDGE_CURVE('',#185,#184,#42,.T.);
#159=EDGE_CURVE('',#181,#185,#43,.T.);
#160=EDGE_CURVE('',#184,#165,#44,.T.);
#161=EDGE_CURVE('',#185,#167,#45,.T.);
#162=VERTEX_POINT('',#388);
#163=VERTEX_POINT('',#390);
#164=VERTEX_POINT('',#392);
#165=VERTEX_POINT('',#393);
#166=VERTEX_POINT('',#395);
#167=VERTEX_POINT('',#397);
#168=VERTEX_POINT('',#401);
#169=VERTEX_POINT('',#403);
#170=VERTEX_POINT('',#407);
#171=VERTEX_POINT('',#409);
#172=VERTEX_POINT('',#411);
#173=VERTEX_POINT('',#413);
#174=VERTEX_POINT('',#417);
#175=VERTEX_POINT('',#419);
#176=VERTEX_POINT('',#423);
#177=VERTEX_POINT('',#425);
#178=VERTEX_POINT('',#427);
#179=VERTEX_POINT('',#429);
#180=VERTEX_POINT('',#433);
#181=VERTEX_POINT('',#435);
#182=VERTEX_POINT('',#439);
#183=VERTEX_POINT('',#441);
#184=VERTEX_POINT('',#443);
#185=VERTEX_POINT('',#445);
#186=CIRCLE('',#286,0.00175);
#187=CIRCLE('',#287,0.00175);
#188=CIRCLE('',#289,0.004);
#189=CIRCLE('',#290,0.004);
#190=CIRCLE('',#292,0.00175);
#191=CIRCLE('',#293,0.00175);
#192=CIRCLE('',#296,0.00175);
#193=CIRCLE('',#297,0.00175);
#194=CIRCLE('',#299,0.006);
#195=CIRCLE('',#300,0.006);
#196=CIRCLE('',#302,0.00175);
#197=CIRCLE('',#303,0.00175);
#198=EDGE_LOOP('',(#66));
#199=EDGE_LOOP('',(#67));
#200=EDGE_LOOP('',(#68,#69,#70,#71));
#201=EDGE_LOOP('',(#72,#73,#74,#75));
#202=EDGE_LOOP('',(#76));
#203=EDGE_LOOP('',(#77));
#204=EDGE_LOOP('',(#78,#79,#80,#81));
#205=EDGE_LOOP('',(#82,#83,#84,#85));
#206=EDGE_LOOP('',(#86));
#207=EDGE_LOOP('',(#87));
#208=EDGE_LOOP('',(#88,#89,#90,#91));
#209=EDGE_LOOP('',(#92,#93,#94,#95));
#210=EDGE_LOOP('',(#96));
#211=EDGE_LOOP('',(#97));
#212=EDGE_LOOP('',(#98,#99,#100,#101));
#213=EDGE_LOOP('',(#102,#103,#104,#105));
#214=EDGE_LOOP('',(#106,#107,#108,#109,#110,#111,#112,#113));
#215=EDGE_LOOP('',(#114,#115,#116,#117,#118,#119,#120,#121));
#216=EDGE_LOOP('',(#122));
#217=EDGE_LOOP('',(#123));
#218=EDGE_LOOP('',(#124));
#219=EDGE_LOOP('',(#125));
#220=EDGE_LOOP('',(#126));
#221=EDGE_LOOP('',(#127));
#222=EDGE_LOOP('',(#128));
#223=EDGE_LOOP('',(#129));
#224=FACE_BOUND('',#198,.T.);
#225=FACE_BOUND('',#199,.T.);
#226=FACE_BOUND('',#200,.T.);
#227=FACE_BOUND('',#201,.T.);
#228=FACE_BOUND('',#202,.T.);
#229=FACE_BOUND('',#203,.T.);
#230=FACE_BOUND('',#204,.T.);
#231=FACE_BOUND('',#205,.T.);
#232=FACE_BOUND('',#206,.T.);
#233=FACE_BOUND('',#207,.T.);
#234=FACE_BOUND('',#208,.T.);
#235=FACE_BOUND('',#209,.T.);
#236=FACE_BOUND('',#210,.T.);
#237=FACE_BOUND('',#211,.T.);
#238=FACE_BOUND('',#212,.T.);
#239=FACE_BOUND('',#213,.T.);
#240=FACE_BOUND('',#214,.T.);
#241=FACE_BOUND('',#215,.T.);
#242=FACE_BOUND('',#216,.T.);
#243=FACE_BOUND('',#217,.T.);
#244=FACE_BOUND('',#218,.T.);
#245=FACE_BOUND('',#219,.T.);
#246=FACE_BOUND('',#220,.T.);
#247=FACE_BOUND('',#221,.T.);
#248=FACE_BOUND('',#222,.T.);
#249=FACE_BOUND('',#223,.T.);
#250=PLANE('',#285);
#251=PLANE('',#291);
#252=PLANE('',#294);
#253=PLANE('',#295);
#254=PLANE('',#301);
#255=PLANE('',#304);
#256=PLANE('',#305);
#257=PLANE('',#306);
#258=ADVANCED_FACE('',(#224,#225,#226),#250,.T.);
#259=ADVANCED_FACE('',(#227),#20,.F.);
#260=ADVANCED_FACE('',(#228,#229,#230),#251,.F.);
#261=ADVANCED_FACE('',(#231),#252,.F.);
#262=ADVANCED_FACE('',(#232,#233,#234),#253,.T.);
#263=ADVANCED_FACE('',(#235),#21,.T.);
#264=ADVANCED_FACE('',(#236,#237,#238),#254,.F.);
#265=ADVANCED_FACE('',(#239),#255,.F.);
#266=ADVANCED_FACE('',(#240),#256,.T.);
#267=ADVANCED_FACE('',(#241),#257,.F.);
#268=ADVANCED_FACE('',(#242,#243),#22,.F.);
#269=ADVANCED_FACE('',(#244,#245),#23,.F.);
#270=ADVANCED_FACE('',(#246,#247),#24,.F.);
#271=ADVANCED_FACE('',(#248,#249),#25,.F.);
#272=CLOSED_SHELL('',(#258,#259,#260,#261,#262,#263,#264,#265,#266,#267,
#268,#269,#270,#271));
#273=STYLED_ITEM('',(#274),#281);
#274=PRESENTATION_STYLE_ASSIGNMENT((#275));
#275=SURFACE_STYLE_USAGE(.BOTH.,#276);
#276=SURFACE_SIDE_STYLE('',(#277));
#277=SURFACE_STYLE_FILL_AREA(#278);
#278=FILL_AREA_STYLE('',(#279));
#279=FILL_AREA_STYLE_COLOUR('',#280);
#280=COLOUR_RGB('',0.615686274509804,0.811764705882353,0.929411764705882);
#281=MANIFOLD_SOLID_BREP('Part 1',#272);
#282=SHAPE_DEFINITION_REPRESENTATION(#462,#283);
#283=SHAPE_REPRESENTATION('Part 1',(#284),#457);
#284=AXIS2_PLACEMENT_3D('',#385,#311,#312);
#285=AXIS2_PLACEMENT_3D('',#386,#313,#314);
#286=AXIS2_PLACEMENT_3D('',#387,#315,#316);
#287=AXIS2_PLACEMENT_3D('',#389,#317,#318);
#288=AXIS2_PLACEMENT_3D('',#399,#323,#324);
#289=AXIS2_PLACEMENT_3D('',#400,#325,#326);
#290=AXIS2_PLACEMENT_3D('',#404,#328,#329);
#291=AXIS2_PLACEMENT_3D('',#405,#330,#331);
#292=AXIS2_PLACEMENT_3D('',#406,#332,#333);
#293=AXIS2_PLACEMENT_3D('',#408,#334,#335);
#294=AXIS2_PLACEMENT_3D('',#415,#339,#340);
#295=AXIS2_PLACEMENT_3D('',#421,#344,#345);
#296=AXIS2_PLACEMENT_3D('',#422,#346,#347);
#297=AXIS2_PLACEMENT_3D('',#424,#348,#349);
#298=AXIS2_PLACEMENT_3D('',#431,#353,#354);
#299=AXIS2_PLACEMENT_3D('',#432,#355,#356);
#300=AXIS2_PLACEMENT_3D('',#436,#358,#359);
#301=AXIS2_PLACEMENT_3D('',#437,#360,#361);
#302=AXIS2_PLACEMENT_3D('',#438,#362,#363);
#303=AXIS2_PLACEMENT_3D('',#440,#364,#365);
#304=AXIS2_PLACEMENT_3D('',#447,#369,#370);
#305=AXIS2_PLACEMENT_3D('',#450,#373,#374);
#306=AXIS2_PLACEMENT_3D('',#451,#375,#376);
#307=AXIS2_PLACEMENT_3D('',#452,#377,#378);
#308=AXIS2_PLACEMENT_3D('',#453,#379,#380);
#309=AXIS2_PLACEMENT_3D('',#454,#381,#382);
#310=AXIS2_PLACEMENT_3D('',#455,#383,#384);
#311=DIRECTION('',(0.,0.,1.));
#312=DIRECTION('',(1.,0.,0.));
#313=DIRECTION('',(-1.,-7.6300412622033E-16,0.));
#314=DIRECTION('',(7.6300412622033E-16,-1.,0.));
#315=DIRECTION('',(-1.,-7.6300412622033E-16,0.));
#316=DIRECTION('',(7.6300412622033E-16,-1.,0.));
#317=DIRECTION('',(-1.,-7.6300412622033E-16,0.));
#318=DIRECTION('',(7.6300412622033E-16,-1.,0.));
#319=DIRECTION('',(-7.6300412622033E-16,1.,0.));
#320=DIRECTION('',(0.,0.,-1.));
#321=DIRECTION('',(-7.6300412622033E-16,1.,0.));
#322=DIRECTION('',(0.,0.,-1.));
#323=DIRECTION('',(0.,0.,-1.));
#324=DIRECTION('',(-1.,0.,0.));
#325=DIRECTION('',(0.,0.,1.));
#326=DIRECTION('',(1.,0.,0.));
#327=DIRECTION('',(0.,0.,-1.));
#328=DIRECTION('',(0.,0.,1.));
#329=DIRECTION('',(1.,0.,0.));
#330=DIRECTION('',(-1.,-7.6300412622033E-16,0.));
#331=DIRECTION('',(7.6300412622033E-16,-1.,0.));
#332=DIRECTION('',(-1.,-7.6300412622033E-16,0.));
#333=DIRECTION('',(7.6300412622033E-16,-1.,0.));
#334=DIRECTION('',(-1.,-7.6300412622033E-16,0.));
#335=DIRECTION('',(7.6300412622033E-16,-1.,0.));
#336=DIRECTION('',(-7.6300412622033E-16,1.,0.));
#337=DIRECTION('',(0.,0.,-1.));
#338=DIRECTION('',(-7.6300412622033E-16,1.,0.));
#339=DIRECTION('',(4.33680868994202E-16,-1.,0.));
#340=DIRECTION('',(1.,4.33680868994202E-16,0.));
#341=DIRECTION('',(-1.,-4.33680868994202E-16,0.));
#342=DIRECTION('',(0.,0.,-1.));
#343=DIRECTION('',(-1.,-4.33680868994202E-16,0.));
#344=DIRECTION('',(-1.,-7.52140181935791E-16,0.));
#345=DIRECTION('',(7.52140181935791E-16,-1.,0.));
#346=DIRECTION('',(-1.,-7.52140181935791E-16,0.));
#347=DIRECTION('',(7.52140181935791E-16,-1.,0.));
#348=DIRECTION('',(-1.,-7.52140181935791E-16,0.));
#349=DIRECTION('',(7.52140181935791E-16,-1.,0.));
#350=DIRECTION('',(-7.52140181935791E-16,1.,0.));
#351=DIRECTION('',(0.,0.,-1.));
#352=DIRECTION('',(-7.52140181935791E-16,1.,0.));
#353=DIRECTION('',(0.,0.,-1.));
#354=DIRECTION('',(-1.,0.,0.));
#355=DIRECTION('',(0.,0.,1.));
#356=DIRECTION('',(1.,0.,0.));
#357=DIRECTION('',(0.,0.,-1.));
#358=DIRECTION('',(0.,0.,1.));
#359=DIRECTION('',(1.,0.,0.));
#360=DIRECTION('',(-1.,-7.5214018193579E-16,0.));
#361=DIRECTION('',(7.5214018193579E-16,-1.,0.));
#362=DIRECTION('',(1.,7.5214018193579E-16,0.));
#363=DIRECTION('',(-7.5214018193579E-16,1.,0.));
#364=DIRECTION('',(1.,7.5214018193579E-16,0.));
#365=DIRECTION('',(-7.5214018193579E-16,1.,0.));
#366=DIRECTION('',(-7.5214018193579E-16,1.,0.));
#367=DIRECTION('',(0.,0.,-1.));
#368=DIRECTION('',(-7.5214018193579E-16,1.,0.));
#369=DIRECTION('',(8.67361737988403E-16,-1.,0.));
#370=DIRECTION('',(1.,8.67361737988403E-16,0.));
#371=DIRECTION('',(-1.,-8.67361737988403E-16,0.));
#372=DIRECTION('',(-1.,-8.67361737988403E-16,0.));
#373=DIRECTION('',(0.,0.,1.));
#374=DIRECTION('',(1.,0.,0.));
#375=DIRECTION('',(0.,0.,1.));
#376=DIRECTION('',(1.,0.,0.));
#377=DIRECTION('',(1.,7.5214018193579E-16,0.));
#378=DIRECTION('',(-7.5214018193579E-16,1.,0.));
#379=DIRECTION('',(1.,7.5214018193579E-16,0.));
#380=DIRECTION('',(-7.5214018193579E-16,1.,0.));
#381=DIRECTION('',(1.,7.5214018193579E-16,0.));
#382=DIRECTION('',(-7.5214018193579E-16,1.,0.));
#383=DIRECTION('',(1.,7.5214018193579E-16,0.));
#384=DIRECTION('',(-7.5214018193579E-16,1.,0.));
#385=CARTESIAN_POINT('',(0.,0.,0.));
#386=CARTESIAN_POINT('',(0.00104188906600158,0.00804029404612847,0.02));
#387=CARTESIAN_POINT('',(0.00104188906600158,0.0066717415741837,0.0151385609060526));
#388=CARTESIAN_POINT('',(0.00104188906600158,0.0049217415741837,0.0151385609060526));
#389=CARTESIAN_POINT('',(0.00104188906600158,0.0066717415741837,0.00485631125047803));
#390=CARTESIAN_POINT('',(0.00104188906600158,0.0049217415741837,0.00485631125047803));
#391=CARTESIAN_POINT('',(0.00104188906600158,0.00804029404612847,0.));
#392=CARTESIAN_POINT('',(0.00104188906600158,0.00386192531959725,0.));
#393=CARTESIAN_POINT('',(0.00104188906600158,0.0101717415741837,0.));
#394=CARTESIAN_POINT('',(0.00104188906600158,0.00386192531959725,0.02));
#395=CARTESIAN_POINT('',(0.00104188906600158,0.00386192531959725,0.02));
#396=CARTESIAN_POINT('',(0.00104188906600158,0.00804029404612847,0.02));
#397=CARTESIAN_POINT('',(0.00104188906600158,0.0101717415741837,0.02));
#398=CARTESIAN_POINT('',(0.00104188906600158,0.0101717415741837,0.02));
#399=CARTESIAN_POINT('',(-4.56165708206765E-19,-7.45388993583784E-19,0.02));
#400=CARTESIAN_POINT('',(-4.56165708206765E-19,-7.45388993583784E-19,0.));
#401=CARTESIAN_POINT('',(-0.00104188906600158,0.00386192531959725,0.));
#402=CARTESIAN_POINT('',(-0.00104188906600158,0.00386192531959725,0.02));
#403=CARTESIAN_POINT('',(-0.00104188906600158,0.00386192531959725,0.02));
#404=CARTESIAN_POINT('',(-4.56165708206765E-19,-7.45388993583784E-19,0.02));
#405=CARTESIAN_POINT('',(-0.00104188906600158,0.00804029404612847,0.02));
#406=CARTESIAN_POINT('',(-0.00104188906600158,0.00667174157418369,0.0151385609060526));
#407=CARTESIAN_POINT('',(-0.00104188906600158,0.00492174157418369,0.0151385609060526));
#408=CARTESIAN_POINT('',(-0.00104188906600158,0.00667174157418369,0.00485631125047803));
#409=CARTESIAN_POINT('',(-0.00104188906600158,0.00492174157418369,0.00485631125047803));
#410=CARTESIAN_POINT('',(-0.00104188906600158,0.00804029404612847,0.));
#411=CARTESIAN_POINT('',(-0.00104188906600158,0.0101717415741837,0.));
#412=CARTESIAN_POINT('',(-0.00104188906600158,0.0101717415741837,0.02));
#413=CARTESIAN_POINT('',(-0.00104188906600158,0.0101717415741837,0.02));
#414=CARTESIAN_POINT('',(-0.00104188906600158,0.00804029404612847,0.02));
#415=CARTESIAN_POINT('',(-0.00304188906600159,0.0101717415741837,0.02));
#416=CARTESIAN_POINT('',(-0.00304188906600159,0.0101717415741837,0.));
#417=CARTESIAN_POINT('',(-0.00504188906600158,0.0101717415741837,0.));
#418=CARTESIAN_POINT('',(-0.00504188906600158,0.0101717415741837,0.02));
#419=CARTESIAN_POINT('',(-0.00504188906600158,0.0101717415741837,0.02));
#420=CARTESIAN_POINT('',(-0.00304188906600159,0.0101717415741837,0.02));
#421=CARTESIAN_POINT('',(-0.00504188906600158,0.00671216678153241,0.02));
#422=CARTESIAN_POINT('',(-0.00504188906600158,0.00667174157418369,0.0151385609060526));
#423=CARTESIAN_POINT('',(-0.00504188906600158,0.00492174157418369,0.0151385609060526));
#424=CARTESIAN_POINT('',(-0.00504188906600158,0.00667174157418369,0.00485631125047803));
#425=CARTESIAN_POINT('',(-0.00504188906600158,0.00492174157418369,0.00485631125047803));
#426=CARTESIAN_POINT('',(-0.00504188906600158,0.00671216678153241,0.));
#427=CARTESIAN_POINT('',(-0.00504188906600158,0.00325259198888113,0.));
#428=CARTESIAN_POINT('',(-0.00504188906600158,0.00325259198888113,0.02));
#429=CARTESIAN_POINT('',(-0.00504188906600158,0.00325259198888113,0.02));
#430=CARTESIAN_POINT('',(-0.00504188906600158,0.00671216678153241,0.02));
#431=CARTESIAN_POINT('',(3.65854027162288E-19,-1.51788304147971E-18,0.02));
#432=CARTESIAN_POINT('',(3.65854027162288E-19,-1.51788304147971E-18,0.));
#433=CARTESIAN_POINT('',(0.00504188906600158,0.00325259198888112,0.));
#434=CARTESIAN_POINT('',(0.00504188906600158,0.00325259198888112,0.02));
#435=CARTESIAN_POINT('',(0.00504188906600158,0.00325259198888112,0.02));
#436=CARTESIAN_POINT('',(3.65854027162288E-19,-1.51788304147971E-18,0.02));
#437=CARTESIAN_POINT('',(0.00504188906600158,0.00671216678153241,0.02));
#438=CARTESIAN_POINT('',(0.00504188906600158,0.0066717415741837,0.0151385609060526));
#439=CARTESIAN_POINT('',(0.00504188906600158,0.0084217415741837,0.0151385609060526));
#440=CARTESIAN_POINT('',(0.00504188906600158,0.0066717415741837,0.00485631125047803));
#441=CARTESIAN_POINT('',(0.00504188906600158,0.0084217415741837,0.00485631125047803));
#442=CARTESIAN_POINT('',(0.00504188906600158,0.00671216678153241,0.));
#443=CARTESIAN_POINT('',(0.00504188906600158,0.0101717415741837,0.));
#444=CARTESIAN_POINT('',(0.00504188906600158,0.0101717415741837,0.02));
#445=CARTESIAN_POINT('',(0.00504188906600158,0.0101717415741837,0.02));
#446=CARTESIAN_POINT('',(0.00504188906600158,0.00671216678153241,0.02));
#447=CARTESIAN_POINT('',(0.00304188906600158,0.0101717415741837,0.02));
#448=CARTESIAN_POINT('',(0.00304188906600158,0.0101717415741837,0.));
#449=CARTESIAN_POINT('',(0.00304188906600158,0.0101717415741837,0.02));
#450=CARTESIAN_POINT('',(0.,0.00208587078709185,0.02));
#451=CARTESIAN_POINT('',(0.,0.00208587078709185,0.));
#452=CARTESIAN_POINT('',(-0.0199581109339984,0.00667174157418368,0.00485631125047803));
#453=CARTESIAN_POINT('',(-0.0199581109339984,0.00667174157418368,0.0151385609060526));
#454=CARTESIAN_POINT('',(-0.0199581109339984,0.00667174157418368,0.00485631125047803));
#455=CARTESIAN_POINT('',(-0.0199581109339984,0.00667174157418368,0.0151385609060526));
#456=MECHANICAL_DESIGN_GEOMETRIC_PRESENTATION_REPRESENTATION('',(#273),
#457);
#457=(
GEOMETRIC_REPRESENTATION_CONTEXT(3)
GLOBAL_UNCERTAINTY_ASSIGNED_CONTEXT((#458))
GLOBAL_UNIT_ASSIGNED_CONTEXT((#461,#460,#459))
REPRESENTATION_CONTEXT('Part 1','TOP_LEVEL_ASSEMBLY_PART')
);
#458=UNCERTAINTY_MEASURE_WITH_UNIT(LENGTH_MEASURE(5.E-6),#461,
'DISTANCE_ACCURACY_VALUE','Maximum Tolerance applied to model');
#459=(
NAMED_UNIT(*)
SI_UNIT($,.STERADIAN.)
SOLID_ANGLE_UNIT()
);
#460=(
NAMED_UNIT(*)
PLANE_ANGLE_UNIT()
SI_UNIT($,.RADIAN.)
);
#461=(
LENGTH_UNIT()
NAMED_UNIT(*)
SI_UNIT($,.METRE.)
);
#462=PRODUCT_DEFINITION_SHAPE('','',#463);
#463=PRODUCT_DEFINITION('','',#465,#464);
#464=PRODUCT_DEFINITION_CONTEXT('',#471,'design');
#465=PRODUCT_DEFINITION_FORMATION_WITH_SPECIFIED_SOURCE('','',#467,
 .NOT_KNOWN.);
#466=PRODUCT_RELATED_PRODUCT_CATEGORY('','',(#467));
#467=PRODUCT('Part 1','Part 1','Part 1',(#469));
#468=PRODUCT_CATEGORY('','');
#469=PRODUCT_CONTEXT('',#471,'mechanical');
#470=APPLICATION_PROTOCOL_DEFINITION('international standard',
'automotive_design',2010,#471);
#471=APPLICATION_CONTEXT(
'core data for automotive mechanical design processes');
ENDSEC;
END-ISO-10303-21;
