0
SECTION
2
HEADER
9
$INSUNITS
70
4
9
$ACADVER
1
AC1014
9
$HANDSEED
5
FFFF
0
ENDSEC
0
SECTION
2
TABLES
0
TABLE
2
VPORT
5
8
100
AcDbSymbolTable
0
ENDTAB
0
TABLE
2
LTYPE
5
5
100
AcDbSymbolTable
0
LTYPE
5
14
100
AcDbSymbolTableRecord
100
AcDbLinetypeTableRecord
2
BYBLOCK
70
0
0
LTYPE
5
15
100
AcDbSymbolTableRecord
100
AcDbLinetypeTableRecord
2
BYLAYER
70
0
0
ENDTAB
0
TABLE
2
LAYER
5
2
100
AcDbSymbolTable
70
2
0
LAYER
5
50
100
AcDbSymbolTableRecord
100
AcDbLayerTableRecord
2
0
70
0
6
CONTINUOUS
0
ENDTAB
0
TABLE
2
STYLE
5
3
100
AcDbSymbolTable
70
1
0
STYLE
5
11
100
AcDbSymbolTableRecord
100
AcDbTextStyleTableRecord
2
STANDARD
70
0
0
ENDTAB
0
TABLE
2
VIEW
5
6
100
AcDbSymbolTable
70
0
0
ENDTAB
0
TABLE
2
UCS
5
7
100
AcDbSymbolTable
70
0
0
ENDTAB
0
TABLE
2
APPID
5
9
100
AcDbSymbolTable
70
2
0
APPID
5
12
100
AcDbSymbolTableRecord
100
AcDbRegAppTableRecord
2
ACAD
70
0
0
ENDTAB
0
TABLE
2
DIMSTYLE
5
A
100
AcDbSymbolTable
70
1
0
ENDTAB
0
TABLE
2
BLOCK_RECORD
5
1
100
AcDbSymbolTable
70
1
0
BLOCK_RECORD
5
1F
100
AcDbSymbolTableRecord
100
AcDbBlockTableRecord
2
*MODEL_SPACE
0
BLOCK_RECORD
5
1B
100
AcDbSymbolTableRecord
100
AcDbBlockTableRecord
2
*PAPER_SPACE
0
ENDTAB
0
ENDSEC
0
SECTION
2
BLOCKS
0
BLOCK
5
20
100
AcDbEntity
100
AcDbBlockBegin
2
*MODEL_SPACE
0
ENDBLK
5
21
100
AcDbEntity
100
AcDbBlockEnd
0
BLOCK
5
1C
100
AcDbEntity
100
AcDbBlockBegin
2
*PAPER_SPACE
0
ENDBLK
5
1D
100
AcDbEntity
100
AcDbBlockEnd
0
ENDSEC
0
SECTION
2
ENTITIES
0
LINE
5
100
100
AcDbEntity
8
0
100
AcDbLine
10
6.0320874412914804
20
-9.9892455993204976
30
0
11
306.03208744129148
21
-9.9892455993204976
31
0
0
LINE
5
101
100
AcDbEntity
8
0
100
AcDbLine
10
391.94577051058019
20
-536.2932752050433
30
0
11
491.94577051058019
21
-536.2932752050433
31
0
0
LINE
5
102
100
AcDbEntity
8
0
100
AcDbLine
10
491.94577051058019
20
-388.7932752050433
30
0
11
491.94577051058019
21
-376.2932752050433
31
0
0
LINE
5
103
100
AcDbEntity
8
0
100
AcDbLine
10
491.94577051058019
20
-376.2932752050433
30
0
11
391.94577051058019
21
-376.2932752050433
31
0
0
LINE
5
104
100
AcDbEntity
8
0
100
AcDbLine
10
27.599432289251737
20
-389.15261937730713
30
0
11
27.599432289251737
21
-589.15261937730713
31
0
0
LINE
5
105
100
AcDbEntity
8
0
100
AcDbLine
10
27.599432289251737
20
-589.15261937730713
30
0
11
227.59943228925164
21
-589.15261937730713
31
0
0
LINE
5
106
100
AcDbEntity
8
0
100
AcDbLine
10
227.59943228925175
20
-189.15261937730713
30
0
11
177.59943228925175
21
-189.15261937730713
31
0
0
LINE
5
107
100
AcDbEntity
8
0
100
AcDbLine
10
27.599432289251737
20
-389.15261937730713
30
0
11
127.59943228925161
21
-389.15261937730713
31
0
0
LINE
5
108
100
AcDbEntity
8
0
100
AcDbLine
10
127.59943228925161
20
-389.15261937730713
30
0
11
127.59943228925158
21
-339.15261937730713
31
0
0
LINE
5
109
100
AcDbEntity
8
0
100
AcDbLine
10
177.59943228925175
20
-189.15261937730713
30
0
11
127.59943228925158
21
-339.15261937730713
31
0
0
LINE
5
110
100
AcDbEntity
8
0
100
AcDbLine
10
127.59943228925158
20
-339.15261937730713
30
0
11
27.599432289251737
21
-389.15261937730713
31
0
0
LINE
5
111
100
AcDbEntity
8
0
100
AcDbLine
10
800
20
650
30
0
11
0
21
650
31
0
0
LINE
5
112
100
AcDbEntity
8
0
100
AcDbLine
10
391.94577051058019
20
-511.2932752050433
30
0
11
391.94577051058019
21
-506.2932752050433
31
0
0
LINE
5
113
100
AcDbEntity
8
0
100
AcDbLine
10
772.13823453566818
20
-164.03043990392723
30
0
11
722.13823453566818
21
-164.03043990392723
31
0
0
LINE
5
114
100
AcDbEntity
8
0
100
AcDbLine
10
572.13823453566829
20
-364.03043990392723
30
0
11
572.13823453566829
21
-564.03043990392712
31
0
0
LINE
5
115
100
AcDbEntity
8
0
100
AcDbLine
10
732.13823453566818
20
-428.03043990392723
30
0
11
762.13823453566818
21
-428.03043990392723
31
0
0
LINE
5
116
100
AcDbEntity
8
0
100
AcDbLine
10
732.13823453566818
20
-414.03043990392723
30
0
11
712.13823453566761
21
-414.03043990392717
31
0
0
LINE
5
117
100
AcDbEntity
8
0
100
AcDbLine
10
682.13823453566829
20
-414.03043990392723
30
0
11
672.13823453566818
21
-414.03043990392717
31
0
0
LINE
5
118
100
AcDbEntity
8
0
100
AcDbLine
10
772.13823453566818
20
-414.03043990392717
30
0
11
762.13823453566818
21
-414.03043990392723
31
0
0
LINE
5
119
100
AcDbEntity
8
0
100
AcDbLine
10
762.13823453566818
20
-414.03043990392723
30
0
11
732.13823453566818
21
-414.03043990392723
31
0
0
LINE
5
120
100
AcDbEntity
8
0
100
AcDbLine
10
682.13823453566829
20
-428.03043990392723
30
0
11
712.13823453566818
21
-428.03043990392723
31
0
0
LINE
5
121
100
AcDbEntity
8
0
100
AcDbLine
10
712.13823453566761
20
-414.03043990392717
30
0
11
682.13823453566829
21
-414.03043990392723
31
0
0
LINE
5
122
100
AcDbEntity
8
0
100
AcDbLine
10
572.13823453566829
20
-564.03043990392712
30
0
11
772.13823453566818
21
-564.03043990392734
31
0
0
LINE
5
123
100
AcDbEntity
8
0
100
AcDbLine
10
672.13823453566818
20
-314.0304399039274
30
0
11
572.13823453566829
21
-364.03043990392723
31
0
0
LINE
5
124
100
AcDbEntity
8
0
100
AcDbLine
10
722.13823453566818
20
-164.03043990392723
30
0
11
672.13823453566818
21
-314.0304399039274
31
0
0
LINE
5
125
100
AcDbEntity
8
0
100
AcDbLine
10
572.13823453566829
20
-364.03043990392723
30
0
11
672.13823453566818
21
-364.0304399039274
31
0
0
LINE
5
126
100
AcDbEntity
8
0
100
AcDbLine
10
672.13823453566818
20
-364.0304399039274
30
0
11
672.13823453566818
21
-314.0304399039274
31
0
0
LINE
5
127
100
AcDbEntity
8
0
100
AcDbLine
10
572.13823453566829
20
-564.03043990392712
30
0
11
572.13823453566818
21
-414.03043990392734
31
0
0
LINE
5
128
100
AcDbEntity
8
0
100
AcDbLine
10
772.13823453566818
20
-414.03043990392717
30
0
11
672.13823453566818
21
-414.03043990392717
31
0
0
LINE
5
129
100
AcDbEntity
8
0
100
AcDbLine
10
672.13823453566818
20
-414.03043990392717
30
0
11
672.13823453566818
21
-428.03043990392717
31
0
0
LINE
5
130
100
AcDbEntity
8
0
100
AcDbLine
10
672.13823453566818
20
-428.03043990392717
30
0
11
772.13823453566818
21
-428.03043990392717
31
0
0
LINE
5
131
100
AcDbEntity
8
0
100
AcDbLine
10
572.13823453566829
20
-564.03043990392712
30
0
11
572.13823453566818
21
-414.03043990392734
31
0
0
LINE
5
132
100
AcDbEntity
8
0
100
AcDbLine
10
0
20
250
30
0
11
300
21
250
31
0
0
LINE
5
133
100
AcDbEntity
8
0
100
AcDbLine
10
391.94577051058019
20
-406.2932752050433
30
0
11
391.94577051058019
21
-411.2932752050433
31
0
0
LINE
5
134
100
AcDbEntity
8
0
100
AcDbLine
10
391.94577051058019
20
-456.2932752050433
30
0
11
391.94577051058019
21
-461.2932752050433
31
0
0
LINE
5
135
100
AcDbEntity
8
0
100
AcDbLine
10
391.94577051058019
20
-506.2932752050433
30
0
11
391.94577051058019
21
-511.2932752050433
31
0
0
LINE
5
136
100
AcDbEntity
8
0
100
AcDbLine
10
800
20
275
30
0
11
800
21
250
31
0
0
LINE
5
137
100
AcDbEntity
8
0
100
AcDbLine
10
800
20
300
30
0
11
800
21
310
31
0
0
LINE
5
138
100
AcDbEntity
8
0
100
AcDbLine
10
800
20
325
30
0
11
800
21
310
31
0
0
LINE
5
139
100
AcDbEntity
8
0
100
AcDbLine
10
441.94577051058019
20
-386.2932752050433
30
0
11
454.44577051058019
21
-386.2932752050433
31
0
0
LINE
5
140
100
AcDbEntity
8
0
100
AcDbLine
10
454.44577051058019
20
-386.2932752050433
30
0
11
479.44577051058019
21
-386.2932752050433
31
0
0
LINE
5
141
100
AcDbEntity
8
0
100
AcDbLine
10
479.44577051058019
20
-386.2932752050433
30
0
11
479.44577051058019
21
-400.2932752050433
31
0
0
LINE
5
142
100
AcDbEntity
8
0
100
AcDbLine
10
479.44577051058019
20
-400.2932752050433
30
0
11
454.44577051058019
21
-400.2932752050433
31
0
0
LINE
5
143
100
AcDbEntity
8
0
100
AcDbLine
10
454.44577051058019
20
-400.2932752050433
30
0
11
454.44577051058019
21
-386.2932752050433
31
0
0
LINE
5
144
100
AcDbEntity
8
0
100
AcDbLine
10
441.94577051058019
20
-386.2932752050433
30
0
11
429.44577051058019
21
-386.2932752050433
31
0
0
LINE
5
145
100
AcDbEntity
8
0
100
AcDbLine
10
429.44577051058019
20
-386.2932752050433
30
0
11
404.44577051058019
21
-386.2932752050433
31
0
0
LINE
5
146
100
AcDbEntity
8
0
100
AcDbLine
10
404.44577051058019
20
-386.2932752050433
30
0
11
404.44577051058019
21
-400.2932752050433
31
0
0
LINE
5
147
100
AcDbEntity
8
0
100
AcDbLine
10
404.44577051058019
20
-400.2932752050433
30
0
11
429.44577051058019
21
-400.2932752050433
31
0
0
LINE
5
148
100
AcDbEntity
8
0
100
AcDbLine
10
429.44577051058019
20
-400.2932752050433
30
0
11
429.44577051058019
21
-386.2932752050433
31
0
0
LINE
5
149
100
AcDbEntity
8
0
100
AcDbLine
10
391.94577051058019
20
-536.2932752050433
30
0
11
377.94577051058013
21
-536.2932752050433
31
0
0
LINE
5
150
100
AcDbEntity
8
0
100
AcDbLine
10
377.94577051058013
20
-536.2932752050433
30
0
11
377.94577051058013
21
-511.2932752050433
31
0
0
LINE
5
151
100
AcDbEntity
8
0
100
AcDbLine
10
377.94577051058013
20
-511.2932752050433
30
0
11
391.94577051058019
21
-511.2932752050433
31
0
0
LINE
5
152
100
AcDbEntity
8
0
100
AcDbLine
10
377.94577051058013
20
-461.2932752050433
30
0
11
391.94577051058019
21
-461.2932752050433
31
0
0
LINE
5
153
100
AcDbEntity
8
0
100
AcDbLine
10
377.94577051058013
20
-486.2932752050433
30
0
11
377.94577051058013
21
-461.2932752050433
31
0
0
LINE
5
154
100
AcDbEntity
8
0
100
AcDbLine
10
391.94577051058019
20
-486.2932752050433
30
0
11
377.94577051058013
21
-486.2932752050433
31
0
0
LINE
5
155
100
AcDbEntity
8
0
100
AcDbLine
10
377.94577051058013
20
-411.2932752050433
30
0
11
391.94577051058019
21
-411.2932752050433
31
0
0
LINE
5
156
100
AcDbEntity
8
0
100
AcDbLine
10
377.94577051058013
20
-436.2932752050433
30
0
11
377.94577051058013
21
-411.2932752050433
31
0
0
LINE
5
157
100
AcDbEntity
8
0
100
AcDbLine
10
391.94577051058019
20
-436.2932752050433
30
0
11
377.94577051058013
21
-436.2932752050433
31
0
0
LINE
5
158
100
AcDbEntity
8
0
100
AcDbLine
10
806.03208744129142
20
90.010754400679502
30
0
11
806.03208744129142
21
102.5107544006795
31
0
0
LINE
5
159
100
AcDbEntity
8
0
100
AcDbLine
10
806.03208744129142
20
102.5107544006795
30
0
11
820.03208744129154
21
102.5107544006795
31
0
0
LINE
5
160
100
AcDbEntity
8
0
100
AcDbLine
10
820.03208744129154
20
102.5107544006795
30
0
11
820.03208744129154
21
127.5107544006795
31
0
0
LINE
5
161
100
AcDbEntity
8
0
100
AcDbLine
10
820.03208744129154
20
127.5107544006795
30
0
11
806.03208744129142
21
127.5107544006795
31
0
0
LINE
5
162
100
AcDbEntity
8
0
100
AcDbLine
10
820.03208744129154
20
152.5107544006795
30
0
11
806.03208744129142
21
152.5107544006795
31
0
0
LINE
5
163
100
AcDbEntity
8
0
100
AcDbLine
10
820.03208744129154
20
177.5107544006795
30
0
11
820.03208744129154
21
152.5107544006795
31
0
0
LINE
5
164
100
AcDbEntity
8
0
100
AcDbLine
10
806.03208744129142
20
177.5107544006795
30
0
11
820.03208744129154
21
177.5107544006795
31
0
0
LINE
5
165
100
AcDbEntity
8
0
100
AcDbLine
10
806.03208744129142
20
190.0107544006795
30
0
11
806.03208744129142
21
177.5107544006795
31
0
0
LINE
5
166
100
AcDbEntity
8
0
100
AcDbLine
10
806.03208744129142
20
152.5107544006795
30
0
11
806.03208744129142
21
127.5107544006795
31
0
0
LINE
5
167
100
AcDbEntity
8
0
100
AcDbLine
10
806.03208744129142
20
102.5107544006795
30
0
11
806.03208744129142
21
90.010754400679502
31
0
0
LINE
5
168
100
AcDbEntity
8
0
100
AcDbLine
10
800
20
250
30
0
11
800
21
275
31
0
0
LINE
5
169
100
AcDbEntity
8
0
100
AcDbLine
10
800
20
275
30
0
11
814
21
275
31
0
0
LINE
5
170
100
AcDbEntity
8
0
100
AcDbLine
10
814
20
300
30
0
11
800
21
300
31
0
0
LINE
5
171
100
AcDbEntity
8
0
100
AcDbLine
10
800
20
300
30
0
11
800
21
325
31
0
0
LINE
5
172
100
AcDbEntity
8
0
100
AcDbLine
10
800
20
325
30
0
11
814
21
325
31
0
0
LINE
5
173
100
AcDbEntity
8
0
100
AcDbLine
10
814
20
350
30
0
11
800
21
350
31
0
0
LINE
5
174
100
AcDbEntity
8
0
100
AcDbLine
10
800
20
350
30
0
11
800
21
375
31
0
0
LINE
5
175
100
AcDbEntity
8
0
100
AcDbLine
10
800
20
375
30
0
11
814
21
375
31
0
0
LINE
5
176
100
AcDbEntity
8
0
100
AcDbLine
10
814
20
300
30
0
11
814
21
275
31
0
0
LINE
5
177
100
AcDbEntity
8
0
100
AcDbLine
10
814
20
410
30
0
11
814
21
375
31
0
0
LINE
5
178
100
AcDbEntity
8
0
100
AcDbLine
10
814
20
350
30
0
11
814
21
325
31
0
0
LINE
5
179
100
AcDbEntity
8
0
100
AcDbLine
10
6.0320874412914804
20
190.0107544006795
30
0
11
18.53208744129148
21
190.0107544006795
31
0
0
LINE
5
180
100
AcDbEntity
8
0
100
AcDbLine
10
43.53208744129148
20
190.0107544006795
30
0
11
43.53208744129148
21
204.0107544006795
31
0
0
LINE
5
181
100
AcDbEntity
8
0
100
AcDbLine
10
43.53208744129148
20
204.0107544006795
30
0
11
18.53208744129148
21
204.0107544006795
31
0
0
LINE
5
182
100
AcDbEntity
8
0
100
AcDbLine
10
18.53208744129148
20
204.0107544006795
30
0
11
18.53208744129148
21
190.0107544006795
31
0
0
LINE
5
183
100
AcDbEntity
8
0
100
AcDbLine
10
68.53208744129148
20
204.0107544006795
30
0
11
68.53208744129148
21
190.0107544006795
31
0
0
LINE
5
184
100
AcDbEntity
8
0
100
AcDbLine
10
93.53208744129148
20
204.0107544006795
30
0
11
68.53208744129148
21
204.0107544006795
31
0
0
LINE
5
185
100
AcDbEntity
8
0
100
AcDbLine
10
93.53208744129148
20
190.0107544006795
30
0
11
93.53208744129148
21
204.0107544006795
31
0
0
LINE
5
186
100
AcDbEntity
8
0
100
AcDbLine
10
118.53208744129148
20
204.0107544006795
30
0
11
118.53208744129148
21
190.0107544006795
31
0
0
LINE
5
187
100
AcDbEntity
8
0
100
AcDbLine
10
143.53208744129148
20
204.0107544006795
30
0
11
118.53208744129148
21
204.0107544006795
31
0
0
LINE
5
188
100
AcDbEntity
8
0
100
AcDbLine
10
143.53208744129148
20
190.0107544006795
30
0
11
143.53208744129148
21
204.0107544006795
31
0
0
LINE
5
189
100
AcDbEntity
8
0
100
AcDbLine
10
168.53208744129148
20
204.0107544006795
30
0
11
168.53208744129148
21
190.0107544006795
31
0
0
LINE
5
190
100
AcDbEntity
8
0
100
AcDbLine
10
193.53208744129148
20
204.0107544006795
30
0
11
168.53208744129148
21
204.0107544006795
31
0
0
LINE
5
191
100
AcDbEntity
8
0
100
AcDbLine
10
193.53208744129148
20
190.0107544006795
30
0
11
193.53208744129148
21
204.0107544006795
31
0
0
LINE
5
192
100
AcDbEntity
8
0
100
AcDbLine
10
218.53208744129148
20
204.0107544006795
30
0
11
218.53208744129148
21
190.0107544006795
31
0
0
LINE
5
193
100
AcDbEntity
8
0
100
AcDbLine
10
243.53208744129148
20
204.0107544006795
30
0
11
218.53208744129148
21
204.0107544006795
31
0
0
LINE
5
194
100
AcDbEntity
8
0
100
AcDbLine
10
243.53208744129148
20
190.0107544006795
30
0
11
243.53208744129148
21
204.0107544006795
31
0
0
LINE
5
195
100
AcDbEntity
8
0
100
AcDbLine
10
268.53208744129148
20
204.0107544006795
30
0
11
268.53208744129148
21
190.0107544006795
31
0
0
LINE
5
196
100
AcDbEntity
8
0
100
AcDbLine
10
293.53208744129148
20
204.0107544006795
30
0
11
268.53208744129148
21
204.0107544006795
31
0
0
LINE
5
197
100
AcDbEntity
8
0
100
AcDbLine
10
293.53208744129148
20
190.0107544006795
30
0
11
293.53208744129148
21
204.0107544006795
31
0
0
LINE
5
198
100
AcDbEntity
8
0
100
AcDbLine
10
318.53208744129148
20
204.0107544006795
30
0
11
318.53208744129148
21
190.0107544006795
31
0
0
LINE
5
199
100
AcDbEntity
8
0
100
AcDbLine
10
343.53208744129148
20
204.0107544006795
30
0
11
318.53208744129148
21
204.0107544006795
31
0
0
LINE
5
200
100
AcDbEntity
8
0
100
AcDbLine
10
343.53208744129148
20
190.0107544006795
30
0
11
343.53208744129148
21
204.0107544006795
31
0
0
LINE
5
201
100
AcDbEntity
8
0
100
AcDbLine
10
368.53208744129148
20
204.0107544006795
30
0
11
368.53208744129148
21
190.0107544006795
31
0
0
LINE
5
202
100
AcDbEntity
8
0
100
AcDbLine
10
393.53208744129148
20
204.0107544006795
30
0
11
368.53208744129148
21
204.0107544006795
31
0
0
LINE
5
203
100
AcDbEntity
8
0
100
AcDbLine
10
393.53208744129148
20
190.0107544006795
30
0
11
393.53208744129148
21
204.0107544006795
31
0
0
LINE
5
204
100
AcDbEntity
8
0
100
AcDbLine
10
418.53208744129148
20
204.0107544006795
30
0
11
418.53208744129148
21
190.0107544006795
31
0
0
LINE
5
205
100
AcDbEntity
8
0
100
AcDbLine
10
443.53208744129148
20
204.0107544006795
30
0
11
418.53208744129148
21
204.0107544006795
31
0
0
LINE
5
206
100
AcDbEntity
8
0
100
AcDbLine
10
443.53208744129148
20
190.0107544006795
30
0
11
443.53208744129148
21
204.0107544006795
31
0
0
LINE
5
207
100
AcDbEntity
8
0
100
AcDbLine
10
468.53208744129148
20
204.0107544006795
30
0
11
468.53208744129148
21
190.0107544006795
31
0
0
LINE
5
208
100
AcDbEntity
8
0
100
AcDbLine
10
493.53208744129148
20
204.0107544006795
30
0
11
468.53208744129148
21
204.0107544006795
31
0
0
LINE
5
209
100
AcDbEntity
8
0
100
AcDbLine
10
493.53208744129148
20
190.0107544006795
30
0
11
493.53208744129148
21
204.0107544006795
31
0
0
LINE
5
210
100
AcDbEntity
8
0
100
AcDbLine
10
518.53208744129142
20
204.0107544006795
30
0
11
518.53208744129142
21
190.0107544006795
31
0
0
LINE
5
211
100
AcDbEntity
8
0
100
AcDbLine
10
543.53208744129142
20
204.0107544006795
30
0
11
518.53208744129142
21
204.0107544006795
31
0
0
LINE
5
212
100
AcDbEntity
8
0
100
AcDbLine
10
543.53208744129142
20
190.0107544006795
30
0
11
543.53208744129142
21
204.0107544006795
31
0
0
LINE
5
213
100
AcDbEntity
8
0
100
AcDbLine
10
568.53208744129142
20
204.0107544006795
30
0
11
568.53208744129142
21
190.0107544006795
31
0
0
LINE
5
214
100
AcDbEntity
8
0
100
AcDbLine
10
593.53208744129142
20
204.0107544006795
30
0
11
568.53208744129142
21
204.0107544006795
31
0
0
LINE
5
215
100
AcDbEntity
8
0
100
AcDbLine
10
593.53208744129142
20
190.0107544006795
30
0
11
593.53208744129142
21
204.0107544006795
31
0
0
LINE
5
216
100
AcDbEntity
8
0
100
AcDbLine
10
618.53208744129142
20
204.0107544006795
30
0
11
618.53208744129142
21
190.0107544006795
31
0
0
LINE
5
217
100
AcDbEntity
8
0
100
AcDbLine
10
643.53208744129142
20
204.0107544006795
30
0
11
618.53208744129142
21
204.0107544006795
31
0
0
LINE
5
218
100
AcDbEntity
8
0
100
AcDbLine
10
643.53208744129142
20
190.0107544006795
30
0
11
643.53208744129142
21
204.0107544006795
31
0
0
LINE
5
219
100
AcDbEntity
8
0
100
AcDbLine
10
668.53208744129142
20
204.0107544006795
30
0
11
668.53208744129142
21
190.0107544006795
31
0
0
LINE
5
220
100
AcDbEntity
8
0
100
AcDbLine
10
693.53208744129142
20
204.0107544006795
30
0
11
668.53208744129142
21
204.0107544006795
31
0
0
LINE
5
221
100
AcDbEntity
8
0
100
AcDbLine
10
693.53208744129142
20
190.0107544006795
30
0
11
693.53208744129142
21
204.0107544006795
31
0
0
LINE
5
222
100
AcDbEntity
8
0
100
AcDbLine
10
718.53208744129142
20
204.0107544006795
30
0
11
718.53208744129142
21
190.0107544006795
31
0
0
LINE
5
223
100
AcDbEntity
8
0
100
AcDbLine
10
743.53208744129142
20
204.0107544006795
30
0
11
718.53208744129142
21
204.0107544006795
31
0
0
LINE
5
224
100
AcDbEntity
8
0
100
AcDbLine
10
743.53208744129142
20
190.0107544006795
30
0
11
743.53208744129142
21
204.0107544006795
31
0
0
LINE
5
225
100
AcDbEntity
8
0
100
AcDbLine
10
768.53208744129142
20
204.0107544006795
30
0
11
768.53208744129142
21
190.0107544006795
31
0
0
LINE
5
226
100
AcDbEntity
8
0
100
AcDbLine
10
793.53208744129142
20
204.0107544006795
30
0
11
768.53208744129142
21
204.0107544006795
31
0
0
LINE
5
227
100
AcDbEntity
8
0
100
AcDbLine
10
793.53208744129142
20
190.0107544006795
30
0
11
793.53208744129142
21
204.0107544006795
31
0
0
LINE
5
228
100
AcDbEntity
8
0
100
AcDbLine
10
6.0320874412914804
20
190.0107544006795
30
0
11
18.53208744129148
21
190.0107544006795
31
0
0
LINE
5
229
100
AcDbEntity
8
0
100
AcDbLine
10
43.53208744129148
20
190.0107544006795
30
0
11
68.53208744129148
21
190.0107544006795
31
0
0
LINE
5
230
100
AcDbEntity
8
0
100
AcDbLine
10
93.53208744129148
20
190.0107544006795
30
0
11
118.53208744129148
21
190.0107544006795
31
0
0
LINE
5
231
100
AcDbEntity
8
0
100
AcDbLine
10
143.53208744129148
20
190.0107544006795
30
0
11
168.53208744129148
21
190.0107544006795
31
0
0
LINE
5
232
100
AcDbEntity
8
0
100
AcDbLine
10
193.53208744129148
20
190.0107544006795
30
0
11
218.53208744129148
21
190.0107544006795
31
0
0
LINE
5
233
100
AcDbEntity
8
0
100
AcDbLine
10
243.53208744129148
20
190.0107544006795
30
0
11
268.53208744129148
21
190.0107544006795
31
0
0
LINE
5
234
100
AcDbEntity
8
0
100
AcDbLine
10
293.53208744129148
20
190.0107544006795
30
0
11
318.53208744129148
21
190.0107544006795
31
0
0
LINE
5
235
100
AcDbEntity
8
0
100
AcDbLine
10
343.53208744129148
20
190.0107544006795
30
0
11
368.53208744129148
21
190.0107544006795
31
0
0
LINE
5
236
100
AcDbEntity
8
0
100
AcDbLine
10
393.53208744129148
20
190.0107544006795
30
0
11
418.53208744129148
21
190.0107544006795
31
0
0
LINE
5
237
100
AcDbEntity
8
0
100
AcDbLine
10
443.53208744129148
20
190.0107544006795
30
0
11
468.53208744129148
21
190.0107544006795
31
0
0
LINE
5
238
100
AcDbEntity
8
0
100
AcDbLine
10
493.53208744129148
20
190.0107544006795
30
0
11
518.53208744129142
21
190.0107544006795
31
0
0
LINE
5
239
100
AcDbEntity
8
0
100
AcDbLine
10
543.53208744129142
20
190.0107544006795
30
0
11
568.53208744129142
21
190.0107544006795
31
0
0
LINE
5
240
100
AcDbEntity
8
0
100
AcDbLine
10
593.53208744129142
20
190.0107544006795
30
0
11
618.53208744129142
21
190.0107544006795
31
0
0
LINE
5
241
100
AcDbEntity
8
0
100
AcDbLine
10
643.53208744129142
20
190.0107544006795
30
0
11
668.53208744129142
21
190.0107544006795
31
0
0
LINE
5
242
100
AcDbEntity
8
0
100
AcDbLine
10
693.53208744129142
20
190.0107544006795
30
0
11
718.53208744129142
21
190.0107544006795
31
0
0
LINE
5
243
100
AcDbEntity
8
0
100
AcDbLine
10
743.53208744129142
20
190.0107544006795
30
0
11
768.53208744129142
21
190.0107544006795
31
0
0
LINE
5
244
100
AcDbEntity
8
0
100
AcDbLine
10
793.53208744129142
20
190.0107544006795
30
0
11
806.03208744129142
21
190.0107544006795
31
0
0
LWPOLYLINE
5
245
100
AcDbEntity
8
0
100
AcDbPolyline
90
4
70
1
43
0.0
10
37.5
20
400
10
12.5
20
400
10
12.5
20
386
10
37.5
20
386
0
LWPOLYLINE
5
246
100
AcDbEntity
8
0
100
AcDbPolyline
90
4
70
1
43
0.0
10
62.5
20
400
10
62.5
20
386
10
87.5
20
386
10
87.5
20
400
0
LWPOLYLINE
5
247
100
AcDbEntity
8
0
100
AcDbPolyline
90
4
70
1
43
0.0
10
112.5
20
400
10
112.5
20
386
10
137.5
20
386
10
137.5
20
400
0
LWPOLYLINE
5
248
100
AcDbEntity
8
0
100
AcDbPolyline
90
4
70
1
43
0.0
10
162.5
20
400
10
162.5
20
386
10
187.5
20
386
10
187.5
20
400
0
LWPOLYLINE
5
249
100
AcDbEntity
8
0
100
AcDbPolyline
90
4
70
1
43
0.0
10
212.5
20
400
10
212.5
20
386
10
237.5
20
386
10
237.5
20
400
0
LWPOLYLINE
5
250
100
AcDbEntity
8
0
100
AcDbPolyline
90
4
70
1
43
0.0
10
262.5
20
400
10
262.5
20
386
10
287.5
20
386
10
287.5
20
400
0
LWPOLYLINE
5
251
100
AcDbEntity
8
0
100
AcDbPolyline
90
4
70
1
43
0.0
10
312.5
20
400
10
312.5
20
386
10
337.5
20
386
10
337.5
20
400
0
LWPOLYLINE
5
252
100
AcDbEntity
8
0
100
AcDbPolyline
90
4
70
1
43
0.0
10
362.5
20
400
10
362.5
20
386
10
387.5
20
386
10
387.5
20
400
0
LWPOLYLINE
5
253
100
AcDbEntity
8
0
100
AcDbPolyline
90
4
70
1
43
0.0
10
412.5
20
400
10
412.5
20
386
10
437.5
20
386
10
437.5
20
400
0
LWPOLYLINE
5
254
100
AcDbEntity
8
0
100
AcDbPolyline
90
4
70
1
43
0.0
10
462.5
20
400
10
462.5
20
386
10
487.5
20
386
10
487.5
20
400
0
LWPOLYLINE
5
255
100
AcDbEntity
8
0
100
AcDbPolyline
90
4
70
1
43
0.0
10
512.5
20
400
10
512.5
20
386
10
537.5
20
386
10
537.5
20
400
0
LWPOLYLINE
5
256
100
AcDbEntity
8
0
100
AcDbPolyline
90
4
70
1
43
0.0
10
562.5
20
400
10
562.5
20
386
10
587.5
20
386
10
587.5
20
400
0
LWPOLYLINE
5
257
100
AcDbEntity
8
0
100
AcDbPolyline
90
4
70
1
43
0.0
10
612.5
20
400
10
612.5
20
386
10
637.5
20
386
10
637.5
20
400
0
LWPOLYLINE
5
258
100
AcDbEntity
8
0
100
AcDbPolyline
90
4
70
1
43
0.0
10
662.5
20
400
10
662.5
20
386
10
687.5
20
386
10
687.5
20
400
0
LWPOLYLINE
5
259
100
AcDbEntity
8
0
100
AcDbPolyline
90
4
70
1
43
0.0
10
712.5
20
400
10
712.5
20
386
10
737.5
20
386
10
737.5
20
400
0
LWPOLYLINE
5
260
100
AcDbEntity
8
0
100
AcDbPolyline
90
4
70
1
43
0.0
10
762.5
20
400
10
762.5
20
386
10
787.5
20
386
10
787.5
20
400
0
LINE
5
261
100
AcDbEntity
8
0
100
AcDbLine
10
6.0320874412914804
20
190.0107544006795
30
0
11
6.0320874412914804
21
177.5107544006795
31
0
0
LINE
5
262
100
AcDbEntity
8
0
100
AcDbLine
10
6.0320874412914804
20
177.5107544006795
30
0
11
-7.9679125587085213
21
177.5107544006795
31
0
0
LINE
5
263
100
AcDbEntity
8
0
100
AcDbLine
10
-7.9679125587085213
20
177.5107544006795
30
0
11
-7.9679125587085213
21
152.5107544006795
31
0
0
LINE
5
264
100
AcDbEntity
8
0
100
AcDbLine
10
-7.9679125587085213
20
152.5107544006795
30
0
11
6.0320874412914804
21
152.5107544006795
31
0
0
LINE
5
265
100
AcDbEntity
8
0
100
AcDbLine
10
6.0320874412914804
20
127.5107544006795
30
0
11
-7.9679125587085213
21
127.5107544006795
31
0
0
LINE
5
266
100
AcDbEntity
8
0
100
AcDbLine
10
-7.9679125587085213
20
127.5107544006795
30
0
11
-7.9679125587085213
21
102.5107544006795
31
0
0
LINE
5
267
100
AcDbEntity
8
0
100
AcDbLine
10
-7.9679125587085213
20
102.5107544006795
30
0
11
6.0320874412914804
21
102.5107544006795
31
0
0
LINE
5
268
100
AcDbEntity
8
0
100
AcDbLine
10
6.0320874412914804
20
77.510754400679502
30
0
11
-7.9679125587085213
21
77.510754400679502
31
0
0
LINE
5
269
100
AcDbEntity
8
0
100
AcDbLine
10
-7.9679125587085213
20
77.510754400679502
30
0
11
-7.9679125587085213
21
52.510754400679502
31
0
0
LINE
5
270
100
AcDbEntity
8
0
100
AcDbLine
10
-7.9679125587085213
20
52.510754400679502
30
0
11
6.0320874412914804
21
52.510754400679502
31
0
0
LINE
5
271
100
AcDbEntity
8
0
100
AcDbLine
10
6.0320874412914804
20
27.510754400679502
30
0
11
-7.9679125587085213
21
27.510754400679502
31
0
0
LINE
5
272
100
AcDbEntity
8
0
100
AcDbLine
10
-7.9679125587085213
20
27.510754400679502
30
0
11
-7.9679125587085213
21
2.5107544006795024
31
0
0
LINE
5
273
100
AcDbEntity
8
0
100
AcDbLine
10
-7.9679125587085213
20
2.5107544006795024
30
0
11
6.0320874412914804
21
2.5107544006795024
31
0
0
LWPOLYLINE
5
274
100
AcDbEntity
8
0
100
AcDbPolyline
90
4
70
1
43
0.0
10
190.09943228925175
20
-439.15261937730713
10
215.09943228925175
20
-439.15261937730713
10
215.09943228925175
20
-453.15261937730702
10
190.09943228925175
20
-453.15261937730702
0
LWPOLYLINE
5
275
100
AcDbEntity
8
0
100
AcDbPolyline
90
4
70
1
43
0.0
10
140.09943228925175
20
-439.15261937730713
10
165.09943228925175
20
-439.15261937730713
10
165.09943228925175
20
-453.15261937730702
10
140.09943228925175
20
-453.15261937730702
0
LWPOLYLINE
5
276
100
AcDbEntity
8
0
100
AcDbPolyline
90
4
70
1
43
0.0
10
90.099432289251737
20
-439.15261937730713
10
115.09943228925174
20
-439.15261937730713
10
115.09943228925174
20
-453.15261937730702
10
90.099432289251737
20
-453.15261937730702
0
LWPOLYLINE
5
277
100
AcDbEntity
8
0
100
AcDbPolyline
90
4
70
1
43
0.0
10
40.099432289251737
20
-439.15261937730713
10
65.099432289251737
20
-439.15261937730713
10
65.099432289251737
20
-453.15261937730702
10
40.099432289251737
20
-453.15261937730702
0
LINE
5
278
100
AcDbEntity
8
0
100
AcDbLine
10
227.59943228925164
20
-589.15261937730713
30
0
11
241.59943228925172
21
-589.15261937730713
31
0
0
LINE
5
279
100
AcDbEntity
8
0
100
AcDbLine
10
241.59943228925172
20
-589.15261937730713
30
0
11
241.59943228925172
21
-564.15261937730713
31
0
0
LINE
5
280
100
AcDbEntity
8
0
100
AcDbLine
10
241.59943228925172
20
-564.15261937730713
30
0
11
227.59943228925175
21
-564.15261937730713
31
0
0
LINE
5
281
100
AcDbEntity
8
0
100
AcDbLine
10
241.59943228925172
20
-514.15261937730713
30
0
11
227.59943228925175
21
-514.15261937730713
31
0
0
LINE
5
282
100
AcDbEntity
8
0
100
AcDbLine
10
241.59943228925172
20
-539.15261937730713
30
0
11
241.59943228925172
21
-514.15261937730713
31
0
0
LINE
5
283
100
AcDbEntity
8
0
100
AcDbLine
10
227.59943228925175
20
-539.15261937730713
30
0
11
241.59943228925172
21
-539.15261937730713
31
0
0
LINE
5
284
100
AcDbEntity
8
0
100
AcDbLine
10
241.59943228925172
20
-464.15261937730713
30
0
11
227.59943228925175
21
-464.15261937730713
31
0
0
LINE
5
285
100
AcDbEntity
8
0
100
AcDbLine
10
241.59943228925172
20
-489.15261937730713
30
0
11
241.59943228925172
21
-464.15261937730713
31
0
0
LINE
5
286
100
AcDbEntity
8
0
100
AcDbLine
10
227.59943228925175
20
-489.15261937730713
30
0
11
241.59943228925172
21
-489.15261937730713
31
0
0
LINE
5
287
100
AcDbEntity
8
0
100
AcDbLine
10
241.59943228925172
20
-414.15261937730713
30
0
11
227.59943228925175
21
-414.15261937730713
31
0
0
LINE
5
288
100
AcDbEntity
8
0
100
AcDbLine
10
241.59943228925172
20
-439.15261937730713
30
0
11
241.59943228925172
21
-414.15261937730713
31
0
0
LINE
5
289
100
AcDbEntity
8
0
100
AcDbLine
10
227.59943228925175
20
-439.15261937730713
30
0
11
241.59943228925172
21
-439.15261937730713
31
0
0
LINE
5
290
100
AcDbEntity
8
0
100
AcDbLine
10
241.59943228925172
20
-364.15261937730713
30
0
11
227.59943228925175
21
-364.15261937730713
31
0
0
LINE
5
291
100
AcDbEntity
8
0
100
AcDbLine
10
241.59943228925172
20
-389.15261937730713
30
0
11
241.59943228925172
21
-364.15261937730713
31
0
0
LINE
5
292
100
AcDbEntity
8
0
100
AcDbLine
10
227.59943228925175
20
-389.15261937730713
30
0
11
241.59943228925172
21
-389.15261937730713
31
0
0
LINE
5
293
100
AcDbEntity
8
0
100
AcDbLine
10
241.59943228925172
20
-314.15261937730713
30
0
11
227.59943228925175
21
-314.15261937730713
31
0
0
LINE
5
294
100
AcDbEntity
8
0
100
AcDbLine
10
241.59943228925172
20
-339.15261937730713
30
0
11
241.59943228925172
21
-314.15261937730713
31
0
0
LINE
5
295
100
AcDbEntity
8
0
100
AcDbLine
10
227.59943228925175
20
-339.15261937730713
30
0
11
241.59943228925172
21
-339.15261937730713
31
0
0
LINE
5
296
100
AcDbEntity
8
0
100
AcDbLine
10
241.59943228925172
20
-264.15261937730713
30
0
11
227.59943228925175
21
-264.15261937730713
31
0
0
LINE
5
297
100
AcDbEntity
8
0
100
AcDbLine
10
241.59943228925172
20
-289.15261937730713
30
0
11
241.59943228925172
21
-264.15261937730713
31
0
0
LINE
5
298
100
AcDbEntity
8
0
100
AcDbLine
10
227.59943228925175
20
-289.15261937730713
30
0
11
241.59943228925172
21
-289.15261937730713
31
0
0
LINE
5
299
100
AcDbEntity
8
0
100
AcDbLine
10
241.59943228925172
20
-214.15261937730713
30
0
11
227.59943228925175
21
-214.15261937730713
31
0
0
LINE
5
300
100
AcDbEntity
8
0
100
AcDbLine
10
241.59943228925172
20
-239.15261937730713
30
0
11
241.59943228925172
21
-214.15261937730713
31
0
0
LINE
5
301
100
AcDbEntity
8
0
100
AcDbLine
10
227.59943228925175
20
-239.15261937730713
30
0
11
241.59943228925172
21
-239.15261937730713
31
0
0
LINE
5
302
100
AcDbEntity
8
0
100
AcDbLine
10
227.59943228925175
20
-189.15261937730713
30
0
11
227.59943228925175
21
-214.15261937730713
31
0
0
LINE
5
303
100
AcDbEntity
8
0
100
AcDbLine
10
227.59943228925175
20
-239.15261937730713
30
0
11
227.59943228925175
21
-264.15261937730713
31
0
0
LINE
5
304
100
AcDbEntity
8
0
100
AcDbLine
10
227.59943228925175
20
-289.15261937730713
30
0
11
227.59943228925175
21
-314.15261937730713
31
0
0
LINE
5
305
100
AcDbEntity
8
0
100
AcDbLine
10
227.59943228925175
20
-339.15261937730713
30
0
11
227.59943228925175
21
-364.15261937730713
31
0
0
LINE
5
306
100
AcDbEntity
8
0
100
AcDbLine
10
227.59943228925175
20
-389.15261937730713
30
0
11
227.59943228925175
21
-414.15261937730713
31
0
0
LINE
5
307
100
AcDbEntity
8
0
100
AcDbLine
10
227.59943228925175
20
-439.15261937730713
30
0
11
227.59943228925175
21
-464.15261937730713
31
0
0
LINE
5
308
100
AcDbEntity
8
0
100
AcDbLine
10
227.59943228925175
20
-489.15261937730713
30
0
11
227.59943228925175
21
-514.15261937730713
31
0
0
LINE
5
309
100
AcDbEntity
8
0
100
AcDbLine
10
227.59943228925175
20
-539.15261937730713
30
0
11
227.59943228925175
21
-564.15261937730713
31
0
0
LINE
5
310
100
AcDbEntity
8
0
100
AcDbLine
10
0
20
250
30
0
11
0
21
275
31
0
0
LINE
5
311
100
AcDbEntity
8
0
100
AcDbLine
10
0
20
275
30
0
11
-14.000000000000002
21
275
31
0
0
LINE
5
312
100
AcDbEntity
8
0
100
AcDbLine
10
-14.000000000000002
20
275
30
0
11
-14.000000000000002
21
300
31
0
0
LINE
5
313
100
AcDbEntity
8
0
100
AcDbLine
10
-14.000000000000002
20
300
30
0
11
0
21
300
31
0
0
LINE
5
314
100
AcDbEntity
8
0
100
AcDbLine
10
0
20
325
30
0
11
-14.000000000000002
21
325
31
0
0
LINE
5
315
100
AcDbEntity
8
0
100
AcDbLine
10
-14.000000000000002
20
325
30
0
11
-14.000000000000002
21
350
31
0
0
LINE
5
316
100
AcDbEntity
8
0
100
AcDbLine
10
-14.000000000000002
20
350
30
0
11
0
21
350
31
0
0
LINE
5
317
100
AcDbEntity
8
0
100
AcDbLine
10
0
20
375
30
0
11
-14.000000000000002
21
375
31
0
0
LINE
5
318
100
AcDbEntity
8
0
100
AcDbLine
10
-14.000000000000002
20
375
30
0
11
-14.000000000000002
21
400
31
0
0
LINE
5
319
100
AcDbEntity
8
0
100
AcDbLine
10
-14.000000000000002
20
400
30
0
11
0
21
400
31
0
0
LINE
5
320
100
AcDbEntity
8
0
100
AcDbLine
10
0
20
425
30
0
11
-14.000000000000002
21
425
31
0
0
LINE
5
321
100
AcDbEntity
8
0
100
AcDbLine
10
-14.000000000000002
20
425
30
0
11
-14.000000000000002
21
450
31
0
0
LINE
5
322
100
AcDbEntity
8
0
100
AcDbLine
10
-14.000000000000002
20
450
30
0
11
0
21
450
31
0
0
LINE
5
323
100
AcDbEntity
8
0
100
AcDbLine
10
0
20
475
30
0
11
-14.000000000000002
21
475
31
0
0
LINE
5
324
100
AcDbEntity
8
0
100
AcDbLine
10
-14.000000000000002
20
475
30
0
11
-14.000000000000002
21
500
31
0
0
LINE
5
325
100
AcDbEntity
8
0
100
AcDbLine
10
-14.000000000000002
20
500
30
0
11
0
21
500
31
0
0
LINE
5
326
100
AcDbEntity
8
0
100
AcDbLine
10
0
20
525
30
0
11
-14.000000000000002
21
525
31
0
0
LINE
5
327
100
AcDbEntity
8
0
100
AcDbLine
10
-14.000000000000002
20
525
30
0
11
-14.000000000000002
21
550
31
0
0
LINE
5
328
100
AcDbEntity
8
0
100
AcDbLine
10
-14.000000000000002
20
550
30
0
11
0
21
550
31
0
0
LINE
5
329
100
AcDbEntity
8
0
100
AcDbLine
10
0
20
575
30
0
11
-14.000000000000002
21
575
31
0
0
LINE
5
330
100
AcDbEntity
8
0
100
AcDbLine
10
-14.000000000000002
20
575
30
0
11
-14.000000000000002
21
600
31
0
0
LINE
5
331
100
AcDbEntity
8
0
100
AcDbLine
10
-14.000000000000002
20
600
30
0
11
0
21
600
31
0
0
LINE
5
332
100
AcDbEntity
8
0
100
AcDbLine
10
0
20
625
30
0
11
-14.000000000000002
21
625
31
0
0
LINE
5
333
100
AcDbEntity
8
0
100
AcDbLine
10
-14.000000000000002
20
625
30
0
11
-14.000000000000002
21
650
31
0
0
LINE
5
334
100
AcDbEntity
8
0
100
AcDbLine
10
-14.000000000000002
20
650
30
0
11
0
21
650
31
0
0
LINE
5
335
100
AcDbEntity
8
0
100
AcDbLine
10
0
20
625
30
0
11
0
21
600
31
0
0
LINE
5
336
100
AcDbEntity
8
0
100
AcDbLine
10
0
20
575
30
0
11
0
21
550
31
0
0
LINE
5
337
100
AcDbEntity
8
0
100
AcDbLine
10
0
20
525
30
0
11
0
21
500
31
0
0
LINE
5
338
100
AcDbEntity
8
0
100
AcDbLine
10
0
20
475
30
0
11
0
21
450
31
0
0
LINE
5
339
100
AcDbEntity
8
0
100
AcDbLine
10
0
20
425
30
0
11
0
21
400
31
0
0
LINE
5
340
100
AcDbEntity
8
0
100
AcDbLine
10
0
20
375
30
0
11
0
21
350
31
0
0
LINE
5
341
100
AcDbEntity
8
0
100
AcDbLine
10
0
20
325
30
0
11
0
21
300
31
0
0
LINE
5
342
100
AcDbEntity
8
0
100
AcDbLine
10
0
20
275
30
0
11
0
21
250
31
0
0
LWPOLYLINE
5
343
100
AcDbEntity
8
0
100
AcDbPolyline
90
4
70
1
43
0.0
10
609.63823453566829
20
-414.03043990392717
10
584.63823453566829
20
-414.03043990392717
10
584.63823453566829
20
-428.03043990392717
10
609.63823453566829
20
-428.03043990392717
0
LWPOLYLINE
5
344
100
AcDbEntity
8
0
100
AcDbPolyline
90
4
70
1
43
0.0
10
659.63823453566829
20
-414.03043990392717
10
634.63823453566829
20
-414.03043990392717
10
634.63823453566829
20
-428.03043990392717
10
659.63823453566829
20
-428.03043990392717
0
LINE
5
345
100
AcDbEntity
8
0
100
AcDbLine
10
306.03208744129148
20
90.010754400679488
30
0
11
306.03208744129148
21
77.510754400679488
31
0
0
LINE
5
346
100
AcDbEntity
8
0
100
AcDbLine
10
306.03208744129148
20
77.510754400679488
30
0
11
320.03208744129142
21
77.510754400679488
31
0
0
LINE
5
347
100
AcDbEntity
8
0
100
AcDbLine
10
320.03208744129142
20
77.510754400679488
30
0
11
320.03208744129142
21
52.510754400679502
31
0
0
LINE
5
348
100
AcDbEntity
8
0
100
AcDbLine
10
320.03208744129142
20
52.510754400679502
30
0
11
306.03208744129148
21
52.510754400679502
31
0
0
LINE
5
349
100
AcDbEntity
8
0
100
AcDbLine
10
306.03208744129148
20
52.510754400679502
30
0
11
306.03208744129148
21
27.510754400679502
31
0
0
LINE
5
350
100
AcDbEntity
8
0
100
AcDbLine
10
320.03208744129142
20
27.510754400679502
30
0
11
306.03208744129148
21
27.510754400679502
31
0
0
LINE
5
351
100
AcDbEntity
8
0
100
AcDbLine
10
320.03208744129142
20
2.5107544006795024
30
0
11
320.03208744129142
21
27.510754400679502
31
0
0
LINE
5
352
100
AcDbEntity
8
0
100
AcDbLine
10
306.03208744129148
20
2.5107544006795024
30
0
11
320.03208744129142
21
2.5107544006795024
31
0
0
LINE
5
353
100
AcDbEntity
8
0
100
AcDbLine
10
306.03208744129148
20
2.5107544006795024
30
0
11
306.03208744129148
21
-9.9892455993204976
31
0
0
LINE
5
354
100
AcDbEntity
8
0
100
AcDbLine
10
786.13823453566829
20
-539.03043990392712
30
0
11
772.13823453566818
21
-539.03043990392712
31
0
0
LINE
5
355
100
AcDbEntity
8
0
100
AcDbLine
10
772.13823453566818
20
-539.03043990392712
30
0
11
772.13823453566818
21
-564.03043990392734
31
0
0
LINE
5
356
100
AcDbEntity
8
0
100
AcDbLine
10
786.13823453566829
20
-489.03043990392717
30
0
11
772.13823453566818
21
-489.03043990392717
31
0
0
LINE
5
357
100
AcDbEntity
8
0
100
AcDbLine
10
772.13823453566818
20
-514.03043990392712
30
0
11
786.13823453566829
21
-514.03043990392712
31
0
0
LINE
5
358
100
AcDbEntity
8
0
100
AcDbLine
10
772.13823453566818
20
-464.03043990392717
30
0
11
786.13823453566829
21
-464.03043990392717
31
0
0
LINE
5
359
100
AcDbEntity
8
0
100
AcDbLine
10
786.13823453566829
20
-339.03043990392717
30
0
11
772.13823453566818
21
-339.03043990392717
31
0
0
LINE
5
360
100
AcDbEntity
8
0
100
AcDbLine
10
772.13823453566818
20
-364.03043990392717
30
0
11
786.13823453566829
21
-364.03043990392717
31
0
0
LINE
5
361
100
AcDbEntity
8
0
100
AcDbLine
10
786.13823453566829
20
-364.03043990392717
30
0
11
786.13823453566829
21
-339.03043990392717
31
0
0
LINE
5
362
100
AcDbEntity
8
0
100
AcDbLine
10
786.13823453566829
20
-289.03043990392717
30
0
11
772.13823453566818
21
-289.03043990392717
31
0
0
LINE
5
363
100
AcDbEntity
8
0
100
AcDbLine
10
772.13823453566818
20
-314.03043990392717
30
0
11
786.13823453566829
21
-314.03043990392717
31
0
0
LINE
5
364
100
AcDbEntity
8
0
100
AcDbLine
10
786.13823453566829
20
-314.03043990392717
30
0
11
786.13823453566829
21
-289.03043990392717
31
0
0
LINE
5
365
100
AcDbEntity
8
0
100
AcDbLine
10
786.13823453566829
20
-239.03043990392717
30
0
11
772.13823453566818
21
-239.03043990392717
31
0
0
LINE
5
366
100
AcDbEntity
8
0
100
AcDbLine
10
772.13823453566818
20
-264.03043990392717
30
0
11
786.13823453566829
21
-264.03043990392717
31
0
0
LINE
5
367
100
AcDbEntity
8
0
100
AcDbLine
10
786.13823453566829
20
-264.03043990392717
30
0
11
786.13823453566829
21
-239.03043990392717
31
0
0
LINE
5
368
100
AcDbEntity
8
0
100
AcDbLine
10
786.13823453566829
20
-189.03043990392717
30
0
11
772.13823453566818
21
-189.03043990392717
31
0
0
LINE
5
369
100
AcDbEntity
8
0
100
AcDbLine
10
772.13823453566818
20
-214.03043990392717
30
0
11
786.13823453566829
21
-214.03043990392717
31
0
0
LINE
5
370
100
AcDbEntity
8
0
100
AcDbLine
10
786.13823453566829
20
-214.03043990392717
30
0
11
786.13823453566829
21
-189.03043990392717
31
0
0
LWPOLYLINE
5
371
100
AcDbEntity
8
0
100
AcDbPolyline
90
4
70
1
43
0.0
10
314.00000000000006
20
450
10
300
20
450
10
300
20
475
10
314.00000000000006
20
475
0
LWPOLYLINE
5
372
100
AcDbEntity
8
0
100
AcDbPolyline
90
4
70
1
43
0.0
10
300
20
275
10
314.00000000000006
20
275
10
314.00000000000006
20
300
10
300
20
300
0
LWPOLYLINE
5
373
100
AcDbEntity
8
0
100
AcDbPolyline
90
4
70
1
43
0.0
10
314.00000000000006
20
575
10
314.00000000000006
20
550
10
300
20
550
10
300
20
575
0
LWPOLYLINE
5
374
100
AcDbEntity
8
0
100
AcDbPolyline
90
4
70
1
43
0.0
10
314.00000000000006
20
625
10
314.00000000000006
20
600
10
300
20
600
10
300
20
625
0
LWPOLYLINE
5
375
100
AcDbEntity
8
0
100
AcDbPolyline
90
4
70
1
43
0.0
10
300
20
325
10
314.00000000000006
20
325
10
314.00000000000006
20
350
10
300
20
350
0
LWPOLYLINE
5
376
100
AcDbEntity
8
0
100
AcDbPolyline
90
4
70
1
43
0.0
10
300
20
525
10
314.00000000000006
20
525
10
314.00000000000006
20
500
10
300
20
500
0
LINE
5
377
100
AcDbEntity
8
0
100
AcDbLine
10
0
20
250
30
0
11
300
21
250
31
0
0
LINE
5
378
100
AcDbEntity
8
0
100
AcDbLine
10
314.00000000000006
20
250
30
0
11
800
21
250
31
0
0
LINE
5
379
100
AcDbEntity
8
0
100
AcDbLine
10
300
20
250
30
0
11
314.00000000000006
21
250
31
0
0
LINE
5
380
100
AcDbEntity
8
0
100
AcDbLine
10
786.13823453566829
20
-514.03043990392712
30
0
11
786.13823453566829
21
-539.03043990392712
31
0
0
LINE
5
381
100
AcDbEntity
8
0
100
AcDbLine
10
786.13823453566829
20
-464.03043990392717
30
0
11
786.13823453566829
21
-489.03043990392717
31
0
0
LINE
5
382
100
AcDbEntity
8
0
100
AcDbLine
10
388.67064793450504
20
-78.733587319917405
30
0
11
388.67064793450504
21
-64.733587319917348
31
0
0
LINE
5
383
100
AcDbEntity
8
0
100
AcDbLine
10
463.67064793450493
20
-64.733587319917348
30
0
11
463.67064793450493
21
-78.733587319917405
31
0
0
LINE
5
384
100
AcDbEntity
8
0
100
AcDbLine
10
413.67064793450493
20
-64.733587319917348
30
0
11
413.67064793450493
21
-78.733587319917405
31
0
0
LINE
5
385
100
AcDbEntity
8
0
100
AcDbLine
10
438.67064793450493
20
-78.733587319917405
30
0
11
438.67064793450493
21
-64.733587319917348
31
0
0
LINE
5
386
100
AcDbEntity
8
0
100
AcDbLine
10
363.67064793450504
20
-64.733587319917348
30
0
11
363.67064793450504
21
-78.733587319917405
31
0
0
LINE
5
387
100
AcDbEntity
8
0
100
AcDbLine
10
287.1706479345051
20
-128.7335873199174
30
0
11
287.1706479345051
21
-153.73358731991732
31
0
0
LINE
5
388
100
AcDbEntity
8
0
100
AcDbLine
10
301.1706479345051
20
-178.73358731991732
30
0
11
301.1706479345051
21
-153.73358731991732
31
0
0
LINE
5
389
100
AcDbEntity
8
0
100
AcDbLine
10
401.17064793450493
20
-128.7335873199174
30
0
11
401.1706479345051
21
-178.73358731991746
31
0
0
LINE
5
390
100
AcDbEntity
8
0
100
AcDbLine
10
401.1706479345051
20
-178.73358731991746
30
0
11
501.17064793450493
21
-128.7335873199174
31
0
0
LINE
5
391
100
AcDbEntity
8
0
100
AcDbLine
10
287.1706479345051
20
-178.73358731991732
30
0
11
287.1706479345051
21
-203.73358731991726
31
0
0
LINE
5
392
100
AcDbEntity
8
0
100
AcDbLine
10
301.1706479345051
20
-328.73358731991715
30
0
11
301.1706479345051
21
-303.73358731991709
31
0
0
LINE
5
393
100
AcDbEntity
8
0
100
AcDbLine
10
301.1706479345051
20
-228.73358731991718
30
0
11
287.1706479345051
21
-228.73358731991718
31
0
0
LINE
5
394
100
AcDbEntity
8
0
100
AcDbLine
10
287.1706479345051
20
-303.73358731991709
30
0
11
301.1706479345051
21
-303.73358731991709
31
0
0
LINE
5
395
100
AcDbEntity
8
0
100
AcDbLine
10
287.1706479345051
20
-228.73358731991718
30
0
11
287.1706479345051
21
-253.73358731991718
31
0
0
LINE
5
396
100
AcDbEntity
8
0
100
AcDbLine
10
301.1706479345051
20
-328.73358731991715
30
0
11
351.1706479345051
21
-328.73358731991715
31
0
0
LINE
5
397
100
AcDbEntity
8
0
100
AcDbLine
10
301.1706479345051
20
-128.7335873199174
30
0
11
287.1706479345051
21
-128.7335873199174
31
0
0
LINE
5
398
100
AcDbEntity
8
0
100
AcDbLine
10
351.1706479345051
20
-328.73358731991715
30
0
11
401.1706479345051
21
-178.73358731991746
31
0
0
LINE
5
399
100
AcDbEntity
8
0
100
AcDbLine
10
287.1706479345051
20
-253.73358731991718
30
0
11
301.1706479345051
21
-253.73358731991718
31
0
0
LINE
5
400
100
AcDbEntity
8
0
100
AcDbLine
10
301.1706479345051
20
-278.73358731991721
30
0
11
287.1706479345051
21
-278.73358731991721
31
0
0
LINE
5
401
100
AcDbEntity
8
0
100
AcDbLine
10
301.1706479345051
20
-128.7335873199174
30
0
11
301.17064793450504
21
-103.7335873199174
31
0
0
LINE
5
402
100
AcDbEntity
8
0
100
AcDbLine
10
338.6706479345051
20
-78.733587319917405
30
0
11
338.6706479345051
21
-64.733587319917348
31
0
0
LINE
5
403
100
AcDbEntity
8
0
100
AcDbLine
10
301.1706479345051
20
-228.73358731991718
30
0
11
301.1706479345051
21
-203.73358731991726
31
0
0
LINE
5
404
100
AcDbEntity
8
0
100
AcDbLine
10
501.17064793450493
20
-128.7335873199174
30
0
11
401.17064793450493
21
-128.7335873199174
31
0
0
LINE
5
405
100
AcDbEntity
8
0
100
AcDbLine
10
287.1706479345051
20
-278.73358731991721
30
0
11
287.1706479345051
21
-303.73358731991709
31
0
0
LINE
5
406
100
AcDbEntity
8
0
100
AcDbLine
10
501.17064793450493
20
-128.7335873199174
30
0
11
501.17064793450493
21
-78.733587319917405
31
0
0
LINE
5
407
100
AcDbEntity
8
0
100
AcDbLine
10
301.1706479345051
20
-278.73358731991721
30
0
11
301.1706479345051
21
-253.73358731991718
31
0
0
LINE
5
408
100
AcDbEntity
8
0
100
AcDbLine
10
287.1706479345051
20
-153.73358731991732
30
0
11
301.1706479345051
21
-153.73358731991732
31
0
0
LINE
5
409
100
AcDbEntity
8
0
100
AcDbLine
10
287.1706479345051
20
-203.73358731991726
30
0
11
301.1706479345051
21
-203.73358731991726
31
0
0
LINE
5
410
100
AcDbEntity
8
0
100
AcDbLine
10
301.1706479345051
20
-178.73358731991732
30
0
11
287.1706479345051
21
-178.73358731991732
31
0
0
LINE
5
411
100
AcDbEntity
8
0
100
AcDbLine
10
488.67064793450493
20
-78.733587319917405
30
0
11
501.17064793450493
21
-78.733587319917405
31
0
0
LINE
5
412
100
AcDbEntity
8
0
100
AcDbLine
10
463.67064793450493
20
-64.733587319917348
30
0
11
438.67064793450493
21
-64.733587319917348
31
0
0
LINE
5
413
100
AcDbEntity
8
0
100
AcDbLine
10
413.67064793450493
20
-64.733587319917348
30
0
11
388.67064793450504
21
-64.733587319917348
31
0
0
LINE
5
414
100
AcDbEntity
8
0
100
AcDbLine
10
363.67064793450504
20
-64.733587319917348
30
0
11
338.6706479345051
21
-64.733587319917348
31
0
0
LINE
5
415
100
AcDbEntity
8
0
100
AcDbLine
10
301.17064793450504
20
-103.7335873199174
30
0
11
301.17064793450504
21
-78.733587319917405
31
0
0
LINE
5
416
100
AcDbEntity
8
0
100
AcDbLine
10
301.17064793450504
20
-78.733587319917405
30
0
11
313.6706479345051
21
-78.733587319917405
31
0
0
LINE
5
417
100
AcDbEntity
8
0
100
AcDbLine
10
388.67064793450504
20
-78.733587319917405
30
0
11
363.67064793450504
21
-78.733587319917405
31
0
0
LINE
5
418
100
AcDbEntity
8
0
100
AcDbLine
10
338.6706479345051
20
-78.733587319917405
30
0
11
313.6706479345051
21
-78.733587319917405
31
0
0
LINE
5
419
100
AcDbEntity
8
0
100
AcDbLine
10
488.67064793450493
20
-78.733587319917405
30
0
11
463.67064793450493
21
-78.733587319917405
31
0
0
LINE
5
420
100
AcDbEntity
8
0
100
AcDbLine
10
438.67064793450493
20
-78.733587319917405
30
0
11
413.67064793450493
21
-78.733587319917405
31
0
0
LWPOLYLINE
5
421
100
AcDbEntity
8
0
100
AcDbPolyline
90
4
70
1
43
0.0
10
113.99999999999994
20
474.99999999999994
10
113.99999999999999
20
449.99999999999994
10
100
20
449.99999999999994
10
99.999999999999972
20
474.99999999999994
0
LWPOLYLINE
5
422
100
AcDbEntity
8
0
100
AcDbPolyline
90
4
70
1
43
0.0
10
113.99999999999994
20
549.99999999999989
10
99.999999999999972
20
549.99999999999989
10
99.999999999999972
20
574.99999999999989
10
113.99999999999994
20
574.99999999999989
0
LWPOLYLINE
5
423
100
AcDbEntity
8
0
100
AcDbPolyline
90
4
70
1
43
0.0
10
99.999999999999972
20
524.99999999999989
10
113.99999999999994
20
524.99999999999989
10
113.99999999999994
20
499.99999999999994
10
99.999999999999972
20
499.99999999999994
0
LWPOLYLINE
5
424
100
AcDbEntity
8
0
100
AcDbPolyline
90
4
70
1
43
0.0
10
113.99999999999994
20
624.99999999999989
10
113.99999999999994
20
599.99999999999989
10
99.999999999999972
20
599.99999999999989
10
99.999999999999972
20
624.99999999999989
0
LWPOLYLINE
5
425
100
AcDbEntity
8
0
100
AcDbPolyline
90
4
70
1
43
0.0
10
199.99999999999986
20
624.99999999999977
10
213.99999999999991
20
624.99999999999977
10
213.99999999999991
20
599.99999999999977
10
199.99999999999986
20
599.99999999999977
0
LWPOLYLINE
5
426
100
AcDbEntity
8
0
100
AcDbPolyline
90
4
70
1
43
0.0
10
213.99999999999991
20
449.99999999999989
10
200
20
449.99999999999989
10
199.99999999999986
20
474.99999999999989
10
213.99999999999991
20
474.99999999999989
0
LWPOLYLINE
5
427
100
AcDbEntity
8
0
100
AcDbPolyline
90
4
70
1
43
0.0
10
213.99999999999991
20
524.99999999999989
10
213.99999999999991
20
499.99999999999989
10
199.99999999999986
20
499.99999999999989
10
199.99999999999986
20
524.99999999999989
0
LWPOLYLINE
5
428
100
AcDbEntity
8
0
100
AcDbPolyline
90
4
70
1
43
0.0
10
199.99999999999986
20
574.99999999999977
10
213.99999999999991
20
574.99999999999977
10
213.99999999999991
20
549.99999999999989
10
199.99999999999986
20
549.99999999999989
0
LINE
5
429
100
AcDbEntity
8
0
100
AcDbLine
10
12.5
20
400
30
0
11
37.5
21
400
31
0
0
LINE
5
430
100
AcDbEntity
8
0
100
AcDbLine
10
62.5
20
400
30
0
11
87.5
21
400
31
0
0
LINE
5
431
100
AcDbEntity
8
0
100
AcDbLine
10
112.5
20
400
30
0
11
137.5
21
400
31
0
0
LINE
5
432
100
AcDbEntity
8
0
100
AcDbLine
10
162.5
20
400
30
0
11
187.5
21
400
31
0
0
LINE
5
433
100
AcDbEntity
8
0
100
AcDbLine
10
6.0320874412914804
20
-9.9892455993204976
30
0
11
106.03208744129148
21
-9.9892455993204976
31
0
0
LWPOLYLINE
5
434
100
AcDbEntity
8
0
100
AcDbPolyline
90
4
70
1
43
0.0
10
120.0320874412914
20
102.51075440067957
10
120.0320874412914
20
77.510754400679573
10
106.03208744129141
20
77.510754400679573
10
106.03208744129141
20
102.51075440067957
0
LINE
5
435
100
AcDbEntity
8
0
100
AcDbLine
10
56.03208744129148
20
-9.9892455993204976
30
0
11
106.03208744129148
21
-9.9892455993204976
31
0
0
LINE
5
436
100
AcDbEntity
8
0
100
AcDbLine
10
106.03208744129141
20
152.51075440067956
30
0
11
120.0320874412914
21
152.51075440067956
31
0
0
LINE
5
437
100
AcDbEntity
8
0
100
AcDbLine
10
81.032087441291409
20
190.01075440067956
30
0
11
106.03208744129141
21
190.01075440067956
31
0
0
LWPOLYLINE
5
438
100
AcDbEntity
8
0
100
AcDbPolyline
90
4
70
1
43
0.0
10
106.03208744129141
20
27.510754400679573
10
120.0320874412914
20
27.510754400679573
10
120.0320874412914
20
52.510754400679573
10
106.03208744129141
20
52.510754400679573
0
LINE
5
439
100
AcDbEntity
8
0
100
AcDbLine
10
120.0320874412914
20
127.51075440067957
30
0
11
106.03208744129141
21
127.51075440067957
31
0
0
LINE
5
440
100
AcDbEntity
8
0
100
AcDbLine
10
120.0320874412914
20
127.51075440067957
30
0
11
120.0320874412914
21
152.51075440067956
31
0
0
LINE
5
441
100
AcDbEntity
8
0
100
AcDbLine
10
106.03208744129148
20
-9.9892455993204976
30
0
11
206.03208744129148
21
-9.9892455993204976
31
0
0
LINE
5
442
100
AcDbEntity
8
0
100
AcDbLine
10
120.0320874412914
20
127.51075440067957
30
0
11
106.03208744129141
21
127.51075440067957
31
0
0
LINE
5
443
100
AcDbEntity
8
0
100
AcDbLine
10
120.0320874412914
20
27.510754400679573
30
0
11
106.03208744129141
21
27.510754400679573
31
0
0
LINE
5
444
100
AcDbEntity
8
0
100
AcDbLine
10
120.0320874412914
20
77.510754400679573
30
0
11
106.03208744129141
21
77.510754400679573
31
0
0
LINE
5
445
100
AcDbEntity
8
0
100
AcDbLine
10
106.03208744129141
20
52.510754400679573
30
0
11
120.0320874412914
21
52.510754400679573
31
0
0
LINE
5
446
100
AcDbEntity
8
0
100
AcDbLine
10
106.03208744129141
20
102.51075440067957
30
0
11
120.0320874412914
21
102.51075440067957
31
0
0
LINE
5
447
100
AcDbEntity
8
0
100
AcDbLine
10
120.0320874412914
20
27.510754400679573
30
0
11
120.0320874412914
21
52.510754400679573
31
0
0
LINE
5
448
100
AcDbEntity
8
0
100
AcDbLine
10
120.0320874412914
20
127.51075440067957
30
0
11
120.0320874412914
21
152.51075440067956
31
0
0
LINE
5
449
100
AcDbEntity
8
0
100
AcDbLine
10
120.0320874412914
20
77.510754400679573
30
0
11
120.0320874412914
21
102.51075440067957
31
0
0
LINE
5
450
100
AcDbEntity
8
0
100
AcDbLine
10
106.03208744129141
20
152.51075440067956
30
0
11
120.0320874412914
21
152.51075440067956
31
0
0
LWPOLYLINE
5
451
100
AcDbEntity
8
0
100
AcDbPolyline
90
4
70
1
43
0.0
10
206.03208744129142
20
127.51075440067957
10
220.0320874412914
20
127.51075440067957
10
220.0320874412914
20
152.51075440067956
10
206.03208744129142
20
152.51075440067956
0
LWPOLYLINE
5
452
100
AcDbEntity
8
0
100
AcDbPolyline
90
4
70
1
43
0.0
10
206.03208744129142
20
27.510754400679573
10
220.0320874412914
20
27.510754400679573
10
220.0320874412914
20
52.510754400679573
10
206.03208744129142
20
52.510754400679573
0
LWPOLYLINE
5
453
100
AcDbEntity
8
0
100
AcDbPolyline
90
4
70
1
43
0.0
10
206.03208744129142
20
77.510754400679573
10
220.0320874412914
20
77.510754400679573
10
220.0320874412914
20
102.51075440067957
10
206.03208744129142
20
102.51075440067957
0
LINE
5
454
100
AcDbEntity
8
0
100
AcDbLine
10
106.03208744129141
20
152.51075440067956
30
0
11
106.03208744129141
21
127.51075440067957
31
0
0
LINE
5
455
100
AcDbEntity
8
0
100
AcDbLine
10
6.0320874412914804
20
190.0107544006795
30
0
11
6.0320874412914804
21
177.5107544006795
31
0
0
LINE
5
456
100
AcDbEntity
8
0
100
AcDbLine
10
6.0320874412914804
20
152.5107544006795
30
0
11
6.0320874412914804
21
127.5107544006795
31
0
0
LINE
5
457
100
AcDbEntity
8
0
100
AcDbLine
10
6.0320874412914804
20
102.5107544006795
30
0
11
6.0320874412914804
21
77.510754400679502
31
0
0
LINE
5
458
100
AcDbEntity
8
0
100
AcDbLine
10
6.0320874412914804
20
52.510754400679502
30
0
11
6.0320874412914804
21
27.510754400679502
31
0
0
LINE
5
459
100
AcDbEntity
8
0
100
AcDbLine
10
6.0320874412914804
20
2.5107544006795024
30
0
11
6.0320874412914804
21
-9.9892455993204976
31
0
0
LINE
5
460
100
AcDbEntity
8
0
100
AcDbLine
10
2.0377414121021431
20
-300.03383967942403
30
0
11
16.037741412102129
21
-300.03383967942403
31
0
0
LINE
5
461
100
AcDbEntity
8
0
100
AcDbLine
10
16.037741412102093
20
-175.03383967942403
30
0
11
16.037741412102076
21
-150.03383967942403
31
0
0
LINE
5
462
100
AcDbEntity
8
0
100
AcDbLine
10
53.537741412102022
20
-75.033839679424119
30
0
11
28.53774141210204
21
-75.033839679424119
31
0
0
LINE
5
463
100
AcDbEntity
8
0
100
AcDbLine
10
2.0377414121021431
20
-275.03383967942403
30
0
11
2.0377414121021431
21
-300.03383967942403
31
0
0
LINE
5
464
100
AcDbEntity
8
0
100
AcDbLine
10
16.037741412102093
20
-225.03383967942403
30
0
11
16.037741412102093
21
-200.03383967942403
31
0
0
LINE
5
465
100
AcDbEntity
8
0
100
AcDbLine
10
2.0377414121021253
20
-250.03383967942403
30
0
11
16.037741412102111
21
-250.03383967942403
31
0
0
LINE
5
466
100
AcDbEntity
8
0
100
AcDbLine
10
116.03774141210211
20
-175.0338396794242
30
0
11
216.03774141210195
21
-125.03383967942405
31
0
0
LINE
5
467
100
AcDbEntity
8
0
100
AcDbLine
10
78.537741412102008
20
-61.033839679424133
30
0
11
78.537741412102008
21
-75.033839679424119
31
0
0
LINE
5
468
100
AcDbEntity
8
0
100
AcDbLine
10
153.53774141210198
20
-75.033839679424119
30
0
11
128.53774141210198
21
-75.033839679424119
31
0
0
LINE
5
469
100
AcDbEntity
8
0
100
AcDbLine
10
66.037741412102108
20
-325.03383967942403
30
0
11
116.03774141210211
21
-175.0338396794242
31
0
0
LINE
5
470
100
AcDbEntity
8
0
100
AcDbLine
10
103.53774141210201
20
-75.033839679424119
30
0
11
78.537741412102008
21
-75.033839679424119
31
0
0
LINE
5
471
100
AcDbEntity
8
0
100
AcDbLine
10
128.53774141210198
20
-61.033839679424133
30
0
11
128.53774141210198
21
-75.033839679424119
31
0
0
LINE
5
472
100
AcDbEntity
8
0
100
AcDbLine
10
53.537741412102022
20
-75.033839679424119
30
0
11
53.537741412102022
21
-61.033839679424133
31
0
0
LINE
5
473
100
AcDbEntity
8
0
100
AcDbLine
10
103.53774141210201
20
-75.033839679424119
30
0
11
103.53774141210198
21
-61.033839679424133
31
0
0
LINE
5
474
100
AcDbEntity
8
0
100
AcDbLine
10
16.037741412102093
20
-225.03383967942403
30
0
11
2.0377414121021076
21
-225.03383967942403
31
0
0
LINE
5
475
100
AcDbEntity
8
0
100
AcDbLine
10
178.53774141210195
20
-61.033839679424133
30
0
11
178.53774141210195
21
-75.033839679424119
31
0
0
LINE
5
476
100
AcDbEntity
8
0
100
AcDbLine
10
16.037741412102093
20
-175.03383967942403
30
0
11
2.0377414121021076
21
-175.03383967942403
31
0
0
LINE
5
477
100
AcDbEntity
8
0
100
AcDbLine
10
153.53774141210198
20
-75.033839679424119
30
0
11
153.53774141210198
21
-61.033839679424133
31
0
0
LINE
5
478
100
AcDbEntity
8
0
100
AcDbLine
10
16.037741412102058
20
-100.03383967942412
30
0
11
16.03774141210204
21
-75.033839679424119
31
0
0
LINE
5
479
100
AcDbEntity
8
0
100
AcDbLine
10
128.53774141210198
20
-61.033839679424133
30
0
11
103.53774141210198
21
-61.033839679424133
31
0
0
LINE
5
480
100
AcDbEntity
8
0
100
AcDbLine
10
2.0377414121020898
20
-150.03383967942403
30
0
11
16.037741412102076
21
-150.03383967942403
31
0
0
LINE
5
481
100
AcDbEntity
8
0
100
AcDbLine
10
178.53774141210195
20
-61.033839679424133
30
0
11
153.53774141210198
21
-61.033839679424133
31
0
0
LINE
5
482
100
AcDbEntity
8
0
100
AcDbLine
10
78.537741412102008
20
-61.033839679424133
30
0
11
53.537741412102022
21
-61.033839679424133
31
0
0
LINE
5
483
100
AcDbEntity
8
0
100
AcDbLine
10
16.037741412102147
20
-325.03383967942403
30
0
11
66.037741412102108
21
-325.03383967942403
31
0
0
LINE
5
484
100
AcDbEntity
8
0
100
AcDbLine
10
16.03774141210204
20
-75.033839679424119
30
0
11
28.53774141210204
21
-75.033839679424119
31
0
0
LINE
5
485
100
AcDbEntity
8
0
100
AcDbLine
10
203.53774141210195
20
-75.033839679424119
30
0
11
216.03774141210195
21
-75.033839679424119
31
0
0
LINE
5
486
100
AcDbEntity
8
0
100
AcDbLine
10
2.0377414121021076
20
-175.03383967942403
30
0
11
2.0377414121021076
21
-200.03383967942403
31
0
0
LINE
5
487
100
AcDbEntity
8
0
100
AcDbLine
10
16.037741412102147
20
-325.03383967942403
30
0
11
16.037741412102129
21
-300.03383967942403
31
0
0
LINE
5
488
100
AcDbEntity
8
0
100
AcDbLine
10
116.03774141210201
20
-125.03383967942405
30
0
11
116.03774141210211
21
-175.0338396794242
31
0
0
LINE
5
489
100
AcDbEntity
8
0
100
AcDbLine
10
2.037741412102072
20
-125.03383967942405
30
0
11
2.0377414121020898
21
-150.03383967942403
31
0
0
LINE
5
490
100
AcDbEntity
8
0
100
AcDbLine
10
203.53774141210195
20
-75.033839679424119
30
0
11
178.53774141210195
21
-75.033839679424119
31
0
0
LINE
5
491
100
AcDbEntity
8
0
100
AcDbLine
10
216.03774141210195
20
-125.03383967942405
30
0
11
116.03774141210201
21
-125.03383967942405
31
0
0
LINE
5
492
100
AcDbEntity
8
0
100
AcDbLine
10
2.0377414121021076
20
-225.03383967942403
30
0
11
2.0377414121021253
21
-250.03383967942403
31
0
0
LINE
5
493
100
AcDbEntity
8
0
100
AcDbLine
10
16.037741412102129
20
-275.03383967942403
30
0
11
2.0377414121021431
21
-275.03383967942403
31
0
0
LINE
5
494
100
AcDbEntity
8
0
100
AcDbLine
10
16.037741412102058
20
-125.03383967942405
30
0
11
16.037741412102058
21
-100.03383967942412
31
0
0
LINE
5
495
100
AcDbEntity
8
0
100
AcDbLine
10
216.03774141210195
20
-125.03383967942405
30
0
11
216.03774141210195
21
-75.033839679424119
31
0
0
LINE
5
496
100
AcDbEntity
8
0
100
AcDbLine
10
2.0377414121021076
20
-200.03383967942403
30
0
11
16.037741412102093
21
-200.03383967942403
31
0
0
LINE
5
497
100
AcDbEntity
8
0
100
AcDbLine
10
16.037741412102129
20
-275.03383967942403
30
0
11
16.037741412102111
21
-250.03383967942403
31
0
0
LINE
5
498
100
AcDbEntity
8
0
100
AcDbLine
10
16.037741412102058
20
-125.03383967942405
30
0
11
2.037741412102072
21
-125.03383967942405
31
0
0
LWPOLYLINE
5
499
100
AcDbEntity
8
0
100
AcDbPolyline
90
44
70
1
43
0.0
10
842.03208744129142
20
15.342174592393754
10
356.03208744129148
20
15.342174592393754
10
356.03208744129148
20
5.3421745923937536
10
356.03208744129148
20
-8.6578254076062677
10
392.03208744129142
20
-8.6578254076062322
10
392.03208744129142
20
5.3421745923937536
10
417.03208744129142
20
5.3421745923937536
10
417.03208744129142
20
-8.6578254076062322
10
442.03208744129142
20
-8.6578254076062322
10
442.03208744129142
20
5.3421745923937536
10
467.03208744129142
20
5.3421745923937536
10
467.03208744129142
20
-8.6578254076062322
10
492.03208744129142
20
-8.6578254076062322
10
492.03208744129142
20
5.3421745923937536
10
517.03208744129142
20
5.3421745923937536
10
517.03208744129142
20
-8.6578254076062322
10
542.03208744129142
20
-8.6578254076062322
10
542.03208744129142
20
5.3421745923937536
10
567.03208744129142
20
5.3421745923937536
10
567.03208744129142
20
-8.6578254076062322
10
592.03208744129142
20
-8.6578254076062322
10
592.03208744129142
20
5.3421745923937536
10
617.03208744129142
20
5.3421745923937536
10
617.03208744129142
20
-8.6578254076062322
10
642.03208744129142
20
-8.6578254076062322
10
642.03208744129142
20
5.3421745923937536
10
667.03208744129142
20
5.3421745923937536
10
667.03208744129142
20
-8.6578254076062322
10
692.03208744129142
20
-8.6578254076062322
10
692.03208744129142
20
5.3421745923937536
10
717.03208744129142
20
5.3421745923937536
10
717.03208744129142
20
-8.6578254076062322
10
742.03208744129142
20
-8.6578254076062322
10
742.03208744129142
20
5.3421745923937536
10
767.03208744129142
20
5.3421745923937536
10
767.03208744129142
20
-8.6578254076062322
10
792.03208744129142
20
-8.6578254076062322
10
792.03208744129142
20
5.3421745923937536
10
817.03208744129142
20
5.3421745923937536
10
817.03208744129142
20
-8.6578254076062322
10
842.03208744129142
20
-8.6578254076062322
10
842.03208744129142
20
2.8421745923937536
10
856.03208744129142
20
2.8421745923937536
10
856.03208744129142
20
15.342174592393754
0
LINE
5
500
100
AcDbEntity
8
0
100
AcDbLine
10
456.03208744129148
20
76.010754400679517
30
0
11
456.03208744129148
21
90.010754400679502
31
0
0
LINE
5
501
100
AcDbEntity
8
0
100
AcDbLine
10
481.03208744129148
20
90.010754400679502
30
0
11
481.03208744129148
21
76.010754400679517
31
0
0
LINE
5
502
100
AcDbEntity
8
0
100
AcDbLine
10
581.03208744129142
20
90.010754400679502
30
0
11
581.03208744129142
21
76.010754400679517
31
0
0
LINE
5
503
100
AcDbEntity
8
0
100
AcDbLine
10
756.03208744129142
20
76.010754400679517
30
0
11
756.03208744129142
21
90.010754400679502
31
0
0
LINE
5
504
100
AcDbEntity
8
0
100
AcDbLine
10
781.03208744129142
20
90.010754400679502
30
0
11
781.03208744129142
21
76.010754400679517
31
0
0
LINE
5
505
100
AcDbEntity
8
0
100
AcDbLine
10
556.03208744129142
20
76.010754400679517
30
0
11
556.03208744129142
21
90.010754400679502
31
0
0
LINE
5
506
100
AcDbEntity
8
0
100
AcDbLine
10
681.03208744129142
20
90.010754400679502
30
0
11
681.03208744129142
21
76.010754400679517
31
0
0
LINE
5
507
100
AcDbEntity
8
0
100
AcDbLine
10
356.03208744129148
20
76.010754400679517
30
0
11
356.03208744129148
21
90.010754400679502
31
0
0
LINE
5
508
100
AcDbEntity
8
0
100
AcDbLine
10
406.03208744129148
20
76.010754400679517
30
0
11
406.03208744129148
21
90.010754400679502
31
0
0
LINE
5
509
100
AcDbEntity
8
0
100
AcDbLine
10
431.03208744129148
20
90.010754400679502
30
0
11
431.03208744129148
21
76.010754400679517
31
0
0
LINE
5
510
100
AcDbEntity
8
0
100
AcDbLine
10
381.03208744129148
20
90.010754400679502
30
0
11
381.03208744129148
21
76.010754400679517
31
0
0
LINE
5
511
100
AcDbEntity
8
0
100
AcDbLine
10
631.03208744129142
20
90.010754400679502
30
0
11
631.03208744129142
21
76.010754400679517
31
0
0
LINE
5
512
100
AcDbEntity
8
0
100
AcDbLine
10
506.03208744129148
20
76.010754400679517
30
0
11
506.03208744129148
21
90.010754400679502
31
0
0
LINE
5
513
100
AcDbEntity
8
0
100
AcDbLine
10
606.03208744129142
20
76.010754400679517
30
0
11
606.03208744129142
21
90.010754400679502
31
0
0
LINE
5
514
100
AcDbEntity
8
0
100
AcDbLine
10
706.03208744129142
20
76.010754400679517
30
0
11
706.03208744129142
21
90.010754400679502
31
0
0
LINE
5
515
100
AcDbEntity
8
0
100
AcDbLine
10
731.03208744129142
20
90.010754400679502
30
0
11
731.03208744129142
21
76.010754400679517
31
0
0
LINE
5
516
100
AcDbEntity
8
0
100
AcDbLine
10
656.03208744129142
20
76.010754400679517
30
0
11
656.03208744129142
21
90.010754400679502
31
0
0
LINE
5
517
100
AcDbEntity
8
0
100
AcDbLine
10
531.03208744129142
20
90.010754400679502
30
0
11
531.03208744129142
21
76.010754400679517
31
0
0
LINE
5
518
100
AcDbEntity
8
0
100
AcDbLine
10
756.03208744129142
20
76.010754400679517
30
0
11
781.03208744129142
21
76.010754400679517
31
0
0
LINE
5
519
100
AcDbEntity
8
0
100
AcDbLine
10
706.03208744129142
20
76.010754400679517
30
0
11
731.03208744129142
21
76.010754400679517
31
0
0
LINE
5
520
100
AcDbEntity
8
0
100
AcDbLine
10
656.03208744129142
20
76.010754400679517
30
0
11
681.03208744129142
21
76.010754400679517
31
0
0
LINE
5
521
100
AcDbEntity
8
0
100
AcDbLine
10
606.03208744129142
20
76.010754400679517
30
0
11
631.03208744129142
21
76.010754400679517
31
0
0
LINE
5
522
100
AcDbEntity
8
0
100
AcDbLine
10
556.03208744129142
20
76.010754400679517
30
0
11
581.03208744129142
21
76.010754400679517
31
0
0
LINE
5
523
100
AcDbEntity
8
0
100
AcDbLine
10
506.03208744129148
20
76.010754400679517
30
0
11
531.03208744129142
21
76.010754400679517
31
0
0
LINE
5
524
100
AcDbEntity
8
0
100
AcDbLine
10
456.03208744129148
20
76.010754400679517
30
0
11
481.03208744129148
21
76.010754400679517
31
0
0
LINE
5
525
100
AcDbEntity
8
0
100
AcDbLine
10
356.03208744129148
20
76.010754400679517
30
0
11
381.03208744129148
21
76.010754400679517
31
0
0
LINE
5
526
100
AcDbEntity
8
0
100
AcDbLine
10
406.03208744129148
20
76.010754400679517
30
0
11
431.03208744129148
21
76.010754400679517
31
0
0
LINE
5
527
100
AcDbEntity
8
0
100
AcDbLine
10
505.94577051058025
20
-388.7932752050433
30
0
11
505.94577051058025
21
-536.2932752050433
31
0
0
LINE
5
528
100
AcDbEntity
8
0
100
AcDbLine
10
505.94577051058025
20
-536.2932752050433
30
0
11
491.94577051058019
21
-536.2932752050433
31
0
0
LINE
5
529
100
AcDbEntity
8
0
100
AcDbLine
10
505.94577051058025
20
-388.7932752050433
30
0
11
491.94577051058019
21
-388.7932752050433
31
0
0
LINE
5
530
100
AcDbEntity
8
0
100
AcDbLine
10
800
20
350
30
0
11
800
21
375
31
0
0
LINE
5
531
100
AcDbEntity
8
0
100
AcDbLine
10
800
20
250
30
0
11
800
21
275
31
0
0
LINE
5
532
100
AcDbEntity
8
0
100
AcDbLine
10
800
20
300
30
0
11
800
21
325
31
0
0
LINE
5
533
100
AcDbEntity
8
0
100
AcDbLine
10
391.94577051058019
20
-376.2932752050433
30
0
11
391.94577051058019
21
-411.2932752050433
31
0
0
LINE
5
534
100
AcDbEntity
8
0
100
AcDbLine
10
391.94577051058019
20
-436.2932752050433
30
0
11
391.94577051058019
21
-461.2932752050433
31
0
0
LINE
5
535
100
AcDbEntity
8
0
100
AcDbLine
10
391.94577051058019
20
-486.2932752050433
30
0
11
391.94577051058019
21
-511.2932752050433
31
0
0
LINE
5
536
100
AcDbEntity
8
0
100
AcDbLine
10
306.03208744129148
20
90.010754400679502
30
0
11
356.03208744129148
21
90.010754400679502
31
0
0
LINE
5
537
100
AcDbEntity
8
0
100
AcDbLine
10
381.03208744129148
20
90.010754400679502
30
0
11
406.03208744129148
21
90.010754400679502
31
0
0
LINE
5
538
100
AcDbEntity
8
0
100
AcDbLine
10
431.03208744129148
20
90.010754400679502
30
0
11
456.03208744129148
21
90.010754400679502
31
0
0
LINE
5
539
100
AcDbEntity
8
0
100
AcDbLine
10
481.03208744129148
20
90.010754400679502
30
0
11
506.03208744129148
21
90.010754400679502
31
0
0
LINE
5
540
100
AcDbEntity
8
0
100
AcDbLine
10
531.03208744129142
20
90.010754400679502
30
0
11
556.03208744129142
21
90.010754400679502
31
0
0
LINE
5
541
100
AcDbEntity
8
0
100
AcDbLine
10
581.03208744129142
20
90.010754400679502
30
0
11
606.03208744129142
21
90.010754400679502
31
0
0
LINE
5
542
100
AcDbEntity
8
0
100
AcDbLine
10
631.03208744129142
20
90.010754400679502
30
0
11
656.03208744129142
21
90.010754400679502
31
0
0
LINE
5
543
100
AcDbEntity
8
0
100
AcDbLine
10
681.03208744129142
20
90.010754400679502
30
0
11
706.03208744129142
21
90.010754400679502
31
0
0
LINE
5
544
100
AcDbEntity
8
0
100
AcDbLine
10
731.03208744129142
20
90.010754400679502
30
0
11
756.03208744129142
21
90.010754400679502
31
0
0
LINE
5
545
100
AcDbEntity
8
0
100
AcDbLine
10
781.03208744129142
20
90.010754400679502
30
0
11
806.03208744129142
21
90.010754400679502
31
0
0
LINE
5
546
100
AcDbEntity
8
0
100
AcDbLine
10
772.13823453566818
20
-164.03043990392723
30
0
11
772.13823453566818
21
-189.03043990392717
31
0
0
LINE
5
547
100
AcDbEntity
8
0
100
AcDbLine
10
772.13823453566818
20
-214.03043990392717
30
0
11
772.13823453566818
21
-239.03043990392717
31
0
0
LINE
5
548
100
AcDbEntity
8
0
100
AcDbLine
10
772.13823453566818
20
-264.03043990392717
30
0
11
772.13823453566818
21
-289.03043990392717
31
0
0
LINE
5
549
100
AcDbEntity
8
0
100
AcDbLine
10
772.13823453566818
20
-428.03043990392717
30
0
11
772.13823453566818
21
-464.03043990392717
31
0
0
LINE
5
550
100
AcDbEntity
8
0
100
AcDbLine
10
772.13823453566818
20
-489.03043990392717
30
0
11
772.13823453566818
21
-514.03043990392712
31
0
0
LINE
5
551
100
AcDbEntity
8
0
100
AcDbLine
10
772.13823453566818
20
-539.03043990392712
30
0
11
772.13823453566818
21
-564.03043990392734
31
0
0
LINE
5
552
100
AcDbEntity
8
0
100
AcDbLine
10
800
20
650
30
0
11
814
21
650
31
0
0
LINE
5
553
100
AcDbEntity
8
0
100
AcDbLine
10
814
20
650
30
0
11
814
21
410
31
0
0
LINE
5
554
100
AcDbEntity
8
0
100
AcDbLine
10
772.13823453566818
20
-314.03043990392717
30
0
11
772.13823453566818
21
-339.03043990392717
31
0
0
LINE
5
555
100
AcDbEntity
8
0
100
AcDbLine
10
772.13823453566818
20
-364.03043990392717
30
0
11
772.13823453566818
21
-414.03043990392717
31
0
0
ENDSEC
0
SECTION
2
OBJECTS
0
DICTIONARY
5
C
100
AcDbDictionary
3
ACAD_GROUP
350
D
3
ACAD_MLINESTYLE
350
17
0
DICTIONARY
5
D
100
AcDbDictionary
0
DICTIONARY
5
1A
330
C
100
AcDbDictionary
0
DICTIONARY
5
17
100
AcDbDictionary
0
ENDSEC
0
EOF
