0
SECTION
2
HEADER
9
$INSUNITS
70
4
9
$ACADVER
1
AC1014
9
$HANDSEED
5
FFFF
0
ENDSEC
0
SECTION
2
TABLES
0
TABLE
2
VPORT
5
8
100
AcDbSymbolTable
0
ENDTAB
0
TABLE
2
LTYPE
5
5
100
AcDbSymbolTable
0
LTYPE
5
14
100
AcDbSymbolTableRecord
100
AcDbLinetypeTableRecord
2
BYBLOCK
70
0
0
LTYPE
5
15
100
AcDbSymbolTableRecord
100
AcDbLinetypeTableRecord
2
BYLAYER
70
0
0
ENDTAB
0
TABLE
2
LAYER
5
2
100
AcDbSymbolTable
70
2
0
LAYER
5
50
100
AcDbSymbolTableRecord
100
AcDbLayerTableRecord
2
0
70
0
6
CONTINUOUS
0
ENDTAB
0
TABLE
2
STYLE
5
3
100
AcDbSymbolTable
70
1
0
STYLE
5
11
100
AcDbSymbolTableRecord
100
AcDbTextStyleTableRecord
2
STANDARD
70
0
0
ENDTAB
0
TABLE
2
VIEW
5
6
100
AcDbSymbolTable
70
0
0
ENDTAB
0
TABLE
2
UCS
5
7
100
AcDbSymbolTable
70
0
0
ENDTAB
0
TABLE
2
APPID
5
9
100
AcDbSymbolTable
70
2
0
APPID
5
12
100
AcDbSymbolTableRecord
100
AcDbRegAppTableRecord
2
ACAD
70
0
0
ENDTAB
0
TABLE
2
DIMSTYLE
5
A
100
AcDbSymbolTable
70
1
0
ENDTAB
0
TABLE
2
BLOCK_RECORD
5
1
100
AcDbSymbolTable
70
1
0
BLOCK_RECORD
5
1F
100
AcDbSymbolTableRecord
100
AcDbBlockTableRecord
2
*MODEL_SPACE
0
BLOCK_RECORD
5
1B
100
AcDbSymbolTableRecord
100
AcDbBlockTableRecord
2
*PAPER_SPACE
0
ENDTAB
0
ENDSEC
0
SECTION
2
BLOCKS
0
BLOCK
5
20
100
AcDbEntity
100
AcDbBlockBegin
2
*MODEL_SPACE
0
ENDBLK
5
21
100
AcDbEntity
100
AcDbBlockEnd
0
BLOCK
5
1C
100
AcDbEntity
100
AcDbBlockBegin
2
*PAPER_SPACE
0
ENDBLK
5
1D
100
AcDbEntity
100
AcDbBlockEnd
0
ENDSEC
0
SECTION
2
ENTITIES
0
CIRCLE
5
100
100
AcDbEntity
8
0
100
AcDbCircle
10
0
20
0
30
0
40
250
210
0
220
0
230
1
0
LINE
5
101
100
AcDbEntity
8
0
100
AcDbLine
10
0
20
0
30
0
11
279.27555269870516
21
0
31
0
0
LINE
5
102
100
AcDbEntity
8
0
100
AcDbLine
10
0
20
0
30
0
11
0
21
209.92711261717037
31
0
0
LINE
5
103
100
AcDbEntity
8
0
100
AcDbLine
10
0
20
63.5
30
0
11
3.8757060902855622
21
63.5
31
0
0
LINE
5
104
100
AcDbEntity
8
0
100
AcDbLine
10
8.75
20
0
30
0
11
8.75
21
63.5
31
0
0
LINE
5
105
100
AcDbEntity
8
0
100
AcDbLine
10
8.75
20
63.5
30
0
11
8.75
21
8.75
31
0
0
LINE
5
106
100
AcDbEntity
8
0
100
AcDbLine
10
8.75
20
8.75
30
0
11
8.75
21
59.430140188935155
31
0
0
LINE
5
107
100
AcDbEntity
8
0
100
AcDbLine
10
8.75
20
63.5
30
0
11
-0.70809757899106551
21
55.602829263301331
31
0
0
ARC
5
108
100
AcDbEntity
8
0
100
AcDbCircle
10
6.3128530451427807
20
61.465070094467578
30
0
40
3.1749999999999989
210
0
220
0
230
1
100
AcDbArc
50
-39.860665201600526
51
140.13933479839943
0
LINE
5
109
100
AcDbEntity
8
0
100
AcDbLine
10
0
20
0
30
0
11
0
21
86.906438598953812
31
0
0
LINE
5
110
100
AcDbEntity
8
0
100
AcDbLine
10
0
20
63.5
30
0
11
-3.8757060902855622
21
63.5
31
0
0
ARC
5
111
100
AcDbEntity
8
0
100
AcDbCircle
10
-6.3128530451427807
20
61.465070094467578
30
0
40
3.1749999999999989
210
0
220
-0
230
1
100
AcDbArc
50
39.860665201600554
51
219.86066520160051
0
LINE
5
112
100
AcDbEntity
8
0
100
AcDbLine
10
-8.75
20
8.75
30
0
11
-8.75
21
59.430140188935155
31
0
0
LINE
5
113
100
AcDbEntity
8
0
100
AcDbLine
10
-8.7500000000000018
20
-8.7499999999999982
30
0
11
-59.430140188935155
21
-8.7499999999999858
31
0
0
ARC
5
114
100
AcDbEntity
8
0
100
AcDbCircle
10
-61.465070094467578
20
-6.3128530451427682
30
0
40
3.1749999999999994
210
0
220
0
230
1
100
AcDbArc
50
129.86066520160054
51
309.86066520160057
0
LINE
5
115
100
AcDbEntity
8
0
100
AcDbLine
10
-63.5
20
1.4099832412739488e-14
30
0
11
-63.5
21
-3.8757060902855485
31
0
0
LINE
5
116
100
AcDbEntity
8
0
100
AcDbLine
10
-63.5
20
1.4099832412739488e-14
30
0
11
-63.5
21
3.875706090285576
31
0
0
ARC
5
117
100
AcDbEntity
8
0
100
AcDbCircle
10
-61.465070094467578
20
6.3128530451427949
30
0
40
3.1749999999999989
210
0
220
-0
230
1
100
AcDbArc
50
50.139334798399439
51
230.1393347983994
0
LINE
5
118
100
AcDbEntity
8
0
100
AcDbLine
10
-63.5
20
8.7500000000000142
30
0
11
-8.7499999999999982
21
8.7500000000000018
31
0
0
LINE
5
119
100
AcDbEntity
8
0
100
AcDbLine
10
-8.7499999999999982
20
8.7500000000000018
30
0
11
-59.430140188935155
21
8.7500000000000142
31
0
0
LINE
5
120
100
AcDbEntity
8
0
100
AcDbLine
10
8.7499999999999982
20
-8.7500000000000018
30
0
11
8.7499999999999929
21
-59.430140188935155
31
0
0
ARC
5
121
100
AcDbEntity
8
0
100
AcDbCircle
10
6.3128530451427736
20
-61.465070094467578
30
0
40
3.1749999999999989
210
0
220
0
230
1
100
AcDbArc
50
-140.13933479839949
51
39.860665201600547
0
LINE
5
122
100
AcDbEntity
8
0
100
AcDbLine
10
-7.7765071745856914e-15
20
-63.5
30
0
11
3.8757060902855542
21
-63.5
31
0
0
LINE
5
123
100
AcDbEntity
8
0
100
AcDbLine
10
-7.7765071745856914e-15
20
-63.5
30
0
11
-3.8757060902855702
21
-63.5
31
0
0
ARC
5
124
100
AcDbEntity
8
0
100
AcDbCircle
10
-6.3128530451427887
20
-61.465070094467578
30
0
40
3.1749999999999989
210
0
220
0
230
1
100
AcDbArc
50
140.13933479839943
51
320.13933479839943
0
LINE
5
125
100
AcDbEntity
8
0
100
AcDbLine
10
-8.7500000000000071
20
-63.5
30
0
11
-8.7500000000000018
21
-8.7499999999999982
31
0
0
LINE
5
126
100
AcDbEntity
8
0
100
AcDbLine
10
-8.7500000000000018
20
-8.7499999999999982
30
0
11
-8.7500000000000071
21
-59.430140188935155
31
0
0
LINE
5
127
100
AcDbEntity
8
0
100
AcDbLine
10
8.7500000000000018
20
8.7499999999999982
30
0
11
59.430140188935155
21
8.7499999999999858
31
0
0
ARC
5
128
100
AcDbEntity
8
0
100
AcDbCircle
10
61.465070094467578
20
6.3128530451427682
30
0
40
3.1749999999999994
210
0
220
0
230
1
100
AcDbArc
50
-50.139334798399474
51
129.86066520160057
0
LINE
5
129
100
AcDbEntity
8
0
100
AcDbLine
10
63.5
20
-1.4099832412739488e-14
30
0
11
63.5
21
3.8757060902855485
31
0
0
LINE
5
130
100
AcDbEntity
8
0
100
AcDbLine
10
63.5
20
-1.4099832412739488e-14
30
0
11
63.5
21
-3.875706090285576
31
0
0
ARC
5
131
100
AcDbEntity
8
0
100
AcDbCircle
10
61.465070094467578
20
-6.3128530451427949
30
0
40
3.1749999999999989
210
0
220
0
230
1
100
AcDbArc
50
-129.86066520160057
51
50.139334798399439
0
LINE
5
132
100
AcDbEntity
8
0
100
AcDbLine
10
63.5
20
-8.7500000000000142
30
0
11
8.7499999999999982
21
-8.7500000000000018
31
0
0
LINE
5
133
100
AcDbEntity
8
0
100
AcDbLine
10
8.7499999999999982
20
-8.7500000000000018
30
0
11
59.430140188935155
21
-8.7500000000000142
31
0
0
LINE
5
134
100
AcDbEntity
8
0
100
AcDbLine
10
725.56582279986833
20
8.5244262742790866
30
0
11
484.26582279986832
21
8.5244262742790866
31
0
0
LINE
5
135
100
AcDbEntity
8
0
100
AcDbLine
10
369.96582279986825
20
8.5244262742790866
30
0
11
369.96582279986825
21
-8.9755737257209134
31
0
0
LINE
5
136
100
AcDbEntity
8
0
100
AcDbLine
10
369.96582279986825
20
-8.9755737257209134
30
0
11
725.56582279986833
21
-8.9755737257209134
31
0
0
LINE
5
137
100
AcDbEntity
8
0
100
AcDbLine
10
725.56582279986833
20
-8.9755737257209134
30
0
11
725.56582279986833
21
8.5244262742790866
31
0
0
LINE
5
138
100
AcDbEntity
8
0
100
AcDbLine
10
725.56582279986833
20
8.5244262742790866
30
0
11
369.96582279986825
21
-8.9755737257209134
31
0
0
LINE
5
139
100
AcDbEntity
8
0
100
AcDbLine
10
547.73794342488247
20
-0.22694574220643693
30
0
11
725.56582279986833
21
-8.9755737257209134
31
0
0
LINE
5
140
100
AcDbEntity
8
0
100
AcDbLine
10
725.56582279986833
20
8.5244262742790866
30
0
11
725.56582279986833
21
-691.47557372572101
31
0
0
LINE
5
141
100
AcDbEntity
8
0
100
AcDbLine
10
725.56582279986833
20
-691.47557372572101
30
0
11
649.36582279986828
21
-691.47557372572101
31
0
0
LINE
5
142
100
AcDbEntity
8
0
100
AcDbLine
10
547.73794342488247
20
-0.22694574220643696
30
0
11
547.73794342488247
21
-484.01511367550552
31
0
0
LINE
5
143
100
AcDbEntity
8
0
100
AcDbLine
10
725.56582279986833
20
-691.47557372572101
30
0
11
674.76582279986826
21
-8.9755737257209081
31
0
0
LINE
5
144
100
AcDbEntity
8
0
100
AcDbLine
10
556.51453950732798
20
-152.62694574220643
30
0
11
609.25811539831159
21
-152.62694574220643
31
0
0
LINE
5
145
100
AcDbEntity
8
0
100
AcDbLine
10
609.25811539831159
20
-152.62694574220643
30
0
11
649.36582279986828
21
-691.47557372572101
31
0
0
LINE
5
146
100
AcDbEntity
8
0
100
AcDbLine
10
674.76582279986826
20
-8.9755737257209081
30
0
11
615.75595086040289
21
-8.9755737257209134
31
0
0
LINE
5
147
100
AcDbEntity
8
0
100
AcDbLine
10
611.26582279986826
20
-4.4854456651864094
30
0
11
611.26582279986826
21
4.0342982137445063
31
0
0
LINE
5
148
100
AcDbEntity
8
0
100
AcDbLine
10
547.76582279986826
20
-8.9755737257209134
30
0
11
547.76582279986826
21
90.825490625438547
31
0
0
LINE
5
149
100
AcDbEntity
8
0
100
AcDbLine
10
547.76582279986826
20
8.5244262742790866
30
0
11
606.77569473933363
21
8.5244262742790866
31
0
0
LINE
5
150
100
AcDbEntity
8
0
100
AcDbLine
10
556.51453950732798
20
-72.167066420805298
30
0
11
556.51453950732798
21
-152.62694574220643
31
0
0
LINE
5
151
100
AcDbEntity
8
0
100
AcDbLine
10
556.51454830380248
20
-67.676945742206897
30
0
11
542.98167493311507
21
-81.209721592474011
31
0
0
ARC
5
152
100
AcDbEntity
8
0
100
AcDbCircle
10
554.26947618434474
20
-69.92200168325455
30
0
40
3.1749999999998106
210
0
220
0
230
1
100
AcDbArc
50
-45.000018050431251
51
134.99997980143709
0
LINE
5
153
100
AcDbEntity
8
0
100
AcDbLine
10
611.26582279986826
20
8.5244262742790866
30
0
11
587.5100191150832
21
-15.231377410505971
31
0
0
LINE
5
154
100
AcDbEntity
8
0
100
AcDbLine
10
547.76582279986826
20
8.5244262742790866
30
0
11
488.75595086040283
21
8.5244262742790866
31
0
0
LINE
5
155
100
AcDbEntity
8
0
100
AcDbLine
10
484.26582279986826
20
-4.4854456651864094
30
0
11
484.26582279986826
21
4.0342982137445071
31
0
0
LINE
5
156
100
AcDbEntity
8
0
100
AcDbLine
10
420.76582279986826
20
-8.9755737257209081
30
0
11
479.77569473933363
21
-8.9755737257209134
31
0
0
LINE
5
157
100
AcDbEntity
8
0
100
AcDbLine
10
369.96582279986831
20
-691.47557372572101
30
0
11
420.76582279986826
21
-8.9755737257209081
31
0
0
ARC
5
158
100
AcDbEntity
8
0
100
AcDbCircle
10
541.26216941539178
20
-69.922001683254564
30
0
40
3.1749999999999701
210
0
220
-0
230
1
100
AcDbArc
50
45.000020198563092
51
225.00001805043109
0
LINE
5
159
100
AcDbEntity
8
0
100
AcDbLine
10
539.01710609240854
20
-72.167066420805298
30
0
11
539.01710609240854
21
-152.62694574220643
31
0
0
LINE
5
160
100
AcDbEntity
8
0
100
AcDbLine
10
486.27353020142493
20
-152.62694574220646
30
0
11
446.16582279986835
21
-691.47557372572101
31
0
0
LINE
5
161
100
AcDbEntity
8
0
100
AcDbLine
10
539.01710609240854
20
-152.62694574220643
30
0
11
486.27353020142493
21
-152.62694574220646
31
0
0
LINE
5
162
100
AcDbEntity
8
0
100
AcDbLine
10
369.96582279986831
20
-691.47557372572101
30
0
11
446.16582279986835
21
-691.47557372572101
31
0
0
LINE
5
163
100
AcDbEntity
8
0
100
AcDbLine
10
543.50723265420334
20
-67.676936861531743
30
0
11
552.02441294553319
21
-67.676936861531743
31
0
0
LINE
5
164
100
AcDbEntity
8
0
100
AcDbLine
10
1061.2658227998681
20
-4.485445665186222
30
0
11
1061.2658227998681
21
4.0342982137445063
31
0
0
LINE
5
165
100
AcDbEntity
8
0
100
AcDbLine
10
1124.7658227998684
20
-8.9755737257209081
30
0
11
1065.7559508604029
21
-8.9755737257209116
31
0
0
LINE
5
166
100
AcDbEntity
8
0
100
AcDbLine
10
1204.9299846495792
20
-691.47557372572101
30
0
11
1124.7658227998684
21
-8.9755737257209081
31
0
0
LINE
5
167
100
AcDbEntity
8
0
100
AcDbLine
10
1204.9299846495792
20
-691.47557372572101
30
0
11
1128.7299846495791
21
-691.47557372572101
31
0
0
LINE
5
168
100
AcDbEntity
8
0
100
AcDbLine
10
1065.4384701987121
20
-152.62557372572093
30
0
11
1128.7299846495791
21
-691.47557372572101
31
0
0
LINE
5
169
100
AcDbEntity
8
0
100
AcDbLine
10
1006.5158227998683
20
-152.62557372572093
30
0
11
1065.4384701987121
21
-152.62557372572093
31
0
0
LINE
5
170
100
AcDbEntity
8
0
100
AcDbLine
10
1006.5158227998683
20
-152.62557372572093
30
0
11
930.09317540102427
21
-152.62557372572093
31
0
0
LINE
5
171
100
AcDbEntity
8
0
100
AcDbLine
10
930.09317540102427
20
-152.62557372572093
30
0
11
866.80166095015738
21
-691.47557372572101
31
0
0
LINE
5
172
100
AcDbEntity
8
0
100
AcDbLine
10
790.60166095015734
20
-691.47557372572101
30
0
11
866.80166095015738
21
-691.47557372572101
31
0
0
LINE
5
173
100
AcDbEntity
8
0
100
AcDbLine
10
790.60166095015734
20
-691.47557372572101
30
0
11
870.76582279986826
21
-8.9755737257209081
31
0
0
LINE
5
174
100
AcDbEntity
8
0
100
AcDbLine
10
870.76582279986826
20
-8.9755737257209081
30
0
11
929.77569473933374
21
-8.9755737257209134
31
0
0
LINE
5
175
100
AcDbEntity
8
0
100
AcDbLine
10
934.26582279986837
20
-4.4854456651862229
30
0
11
934.26582279986837
21
4.0342982137445071
31
0
0
LINE
5
176
100
AcDbEntity
8
0
100
AcDbLine
10
997.76582279986826
20
8.5244262742790866
30
0
11
997.76582279986826
21
-76.425573725720923
31
0
0
LINE
5
177
100
AcDbEntity
8
0
100
AcDbLine
10
1006.5158227998683
20
8.5244262742790866
30
0
11
1006.5158227998683
21
-71.935445665186336
31
0
0
LINE
5
178
100
AcDbEntity
8
0
100
AcDbLine
10
1006.5158227998683
20
-76.425573725720923
30
0
11
987.91905087334248
21
-57.828801799194949
31
0
0
ARC
5
179
100
AcDbEntity
8
0
100
AcDbCircle
10
1004.270758769601
20
-74.180509695453637
30
0
40
3.1749999999999612
210
0
220
0
230
1
100
AcDbArc
50
-134.99999999999818
51
45.000000000000547
0
LINE
5
180
100
AcDbEntity
8
0
100
AcDbLine
10
989.01582279986826
20
8.5244262742790866
30
0
11
989.01582279986826
21
-71.935445665186322
31
0
0
ARC
5
181
100
AcDbEntity
8
0
100
AcDbCircle
10
991.26088683013552
20
-74.180509695453622
30
0
40
3.1749999999999674
210
0
220
0
230
1
100
AcDbArc
50
134.99999999999946
51
314.99999999999801
0
LINE
5
182
100
AcDbEntity
8
0
100
AcDbLine
10
938.75595086040278
20
8.5244262742790866
30
0
11
989.01582279986826
21
8.5244262742790866
31
0
0
LINE
5
183
100
AcDbEntity
8
0
100
AcDbLine
10
1006.5158227998683
20
8.5244262742790866
30
0
11
1056.7756947393336
21
8.5244262742790866
31
0
0
LINE
5
184
100
AcDbEntity
8
0
100
AcDbLine
10
993.50595086040266
20
-76.425573725720923
30
0
11
1002.0256947393339
21
-76.425573725720923
31
0
0
LINE
5
185
100
AcDbEntity
8
0
100
AcDbLine
10
934.26582279986837
20
8.5244262742790244
30
0
11
934.26582279986837
21
2.1744262742790244
31
0
0
LINE
5
186
100
AcDbEntity
8
0
100
AcDbLine
10
934.26582279986837
20
8.5244262742790244
30
0
11
939.8120168958975
21
8.5244262742790866
31
0
0
LINE
5
187
100
AcDbEntity
8
0
100
AcDbLine
10
1055.90740548296
20
8.5244262742790866
30
0
11
1061.2658227998681
21
8.5244262742790227
31
0
0
LINE
5
188
100
AcDbEntity
8
0
100
AcDbLine
10
1061.2658227998681
20
4.0342982137445063
30
0
11
1061.2658227998681
21
8.5244262742790227
31
0
0
LINE
5
189
100
AcDbEntity
8
0
100
AcDbLine
10
1061.2658227998681
20
-8.9755737257209134
30
0
11
1090.8311507296075
21
20.589754204018327
31
0
0
ARC
5
190
100
AcDbEntity
8
0
100
AcDbCircle
10
1063.5108868301354
20
-6.7305096954536374
30
0
40
3.1750000000000482
210
0
220
0
230
1
100
AcDbArc
50
134.99999999999801
51
315.00000000000267
0
ARC
5
191
100
AcDbEntity
8
0
100
AcDbCircle
10
932.02075876960112
20
-6.7305096954536374
30
0
40
3.1750000000000504
210
0
220
0
230
1
100
AcDbArc
50
-135.00000000000125
51
45.000000000002004
0
LINE
5
192
100
AcDbEntity
8
0
100
AcDbLine
10
488.75595086040283
20
8.5244262742790866
30
0
11
484.26582279986832
21
8.5244262742790866
31
0
0
LINE
5
193
100
AcDbEntity
8
0
100
AcDbLine
10
484.26582279986826
20
4.0342982137445071
30
0
11
484.26582279986832
21
8.5244262742790866
31
0
0
LINE
5
194
100
AcDbEntity
8
0
100
AcDbLine
10
606.77569473933363
20
8.5244262742790866
30
0
11
611.26582279986815
21
8.5244262742790866
31
0
0
LINE
5
195
100
AcDbEntity
8
0
100
AcDbLine
10
369.96582279986825
20
8.5244262742790866
30
0
11
611.26582279986815
21
8.5244262742790866
31
0
0
LINE
5
196
100
AcDbEntity
8
0
100
AcDbLine
10
611.26582279986826
20
-4.4854456651864094
30
0
11
611.26582279986826
21
4.0342982137445071
31
0
0
LINE
5
197
100
AcDbEntity
8
0
100
AcDbLine
10
611.26582279986826
20
4.0342982137445071
30
0
11
611.26582279986815
21
8.5244262742790866
31
0
0
LINE
5
198
100
AcDbEntity
8
0
100
AcDbLine
10
547.76582279986826
20
8.5244262742790866
30
0
11
606.77569473933363
21
8.5244262742790866
31
0
0
LINE
5
199
100
AcDbEntity
8
0
100
AcDbLine
10
484.26582279986826
20
-8.9755737257209134
30
0
11
457.4283697073721
21
17.861879366775234
31
0
0
LINE
5
200
100
AcDbEntity
8
0
100
AcDbLine
10
484.26582279986826
20
-8.9755737257209134
30
0
11
522.2197129428281
21
-8.9755737257209134
31
0
0
ARC
5
201
100
AcDbEntity
8
0
100
AcDbCircle
10
482.02075876960089
20
-6.7305096954536037
30
0
40
3.1749999999999732
210
0
220
0
230
1
100
AcDbArc
50
-134.99999999999935
51
44.999999999997733
0
ARC
5
202
100
AcDbEntity
8
0
100
AcDbCircle
10
613.51088683013563
20
-6.7305096954536037
30
0
40
3.1749999999999923
210
0
220
0
230
1
100
AcDbArc
50
135.00000000000225
51
314.99999999999932
0
LINE
5
203
100
AcDbEntity
8
0
100
AcDbLine
10
611.26582279986826
20
-4.4854456651864094
30
0
11
611.26582279986826
21
4.0342982137445071
31
0
0
ENDSEC
0
SECTION
2
OBJECTS
0
DICTIONARY
5
C
100
AcDbDictionary
3
ACAD_GROUP
350
D
3
ACAD_MLINESTYLE
350
17
0
DICTIONARY
5
D
100
AcDbDictionary
0
DICTIONARY
5
1A
330
C
100
AcDbDictionary
0
DICTIONARY
5
17
100
AcDbDictionary
0
ENDSEC
0
EOF
