  0
SECTION
  2
HEADER
  9
$ACADVER
  1
AC1027
  9
$ACADMAINTVER
 70
   125
  9
$DWGCODEPAGE
  3
ANSI_1252
  9
$LASTSAVEDBY
  1
poojars
  9
$REQUIREDVERSIONS
160
                 0
  9
$INSBASE
 10
0.0
 20
0.0
 30
0.0
  9
$EXTMIN
 10
-174.444302
 20
0.0
 30
-12.723959
  9
$EXTMAX
 10
420.0
 20
297.0
 30
48.677041
  9
$LIMMIN
 10
0.0
 20
0.0
  9
$LIMMAX
 10
420.0
 20
297.0
  9
$ORTHOMODE
 70
     0
  9
$REGENMODE
 70
     1
  9
$FILLMODE
 70
     1
  9
$QTEXTMODE
 70
     0
  9
$MIRRTEXT
 70
     0
  9
$LTSCALE
 40
0.75
  9
$ATTMODE
 70
     1
  9
$TEXTSIZE
 40
3.5
  9
$TRACEWID
 40
1.0
  9
$TEXTSTYLE
  7
Standard
  9
$CLAYER
  8
0
  9
$CELTYPE
  6
ByLayer
  9
$CECOLOR
 62
   256
  9
$CELTSCALE
 40
1.0
  9
$DISPSILH
 70
     0
  9
$DIMSCALE
 40
1.0
  9
$DIMASZ
 40
3.5
  9
$DIMEXO
 40
2.0
  9
$DIMDLI
 40
9.899495
  9
$DIMRND
 40
0.0
  9
$DIMDLE
 40
0.0
  9
$DIMEXE
 40
2.0
  9
$DIMTP
 40
0.1
  9
$DIMTM
 40
0.1
  9
$DIMTXT
 40
3.5
  9
$DIMCEN
 40
0.0
  9
$DIMTSZ
 40
0.0
  9
$DIMTOL
 70
     0
  9
$DIMLIM
 70
     0
  9
$DIMTIH
 70
     0
  9
$DIMTOH
 70
     0
  9
$DIMSE1
 70
     0
  9
$DIMSE2
 70
     0
  9
$DIMTAD
 70
     1
  9
$DIMZIN
 70
     8
  9
$DIMBLK
  1

  9
$DIMASO
 70
     1
  9
$DIMSHO
 70
     1
  9
$DIMPOST
  1

  9
$DIMAPOST
  1
in
  9
$DIMALT
 70
     0
  9
$DIMALTD
 70
     4
  9
$DIMALTF
 40
0.03937
  9
$DIMLFAC
 40
1.0
  9
$DIMTOFL
 70
     1
  9
$DIMTVP
 40
0.0
  9
$DIMTIX
 70
     0
  9
$DIMSOXD
 70
     0
  9
$DIMSAH
 70
     0
  9
$DIMBLK1
  1

  9
$DIMBLK2
  1

  9
$DIMSTYLE
  2
ISO-25
  9
$DIMCLRD
 70
   256
  9
$DIMCLRE
 70
   256
  9
$DIMCLRT
 70
   256
  9
$DIMTFAC
 40
0.714
  9
$DIMGAP
 40
1.5
  9
$DIMJUST
 70
     0
  9
$DIMSD1
 70
     0
  9
$DIMSD2
 70
     0
  9
$DIMTOLJ
 70
     0
  9
$DIMTZIN
 70
     8
  9
$DIMALTZ
 70
     8
  9
$DIMALTTZ
 70
     8
  9
$DIMUPT
 70
     0
  9
$DIMDEC
 70
     2
  9
$DIMTDEC
 70
     2
  9
$DIMALTU
 70
     2
  9
$DIMALTTD
 70
     4
  9
$DIMTXSTY
  7
Standard
  9
$DIMAUNIT
 70
     0
  9
$DIMADEC
 70
     2
  9
$DIMALTRND
 40
0.0
  9
$DIMAZIN
 70
     2
  9
$DIMDSEP
 70
    46
  9
$DIMATFIT
 70
     3
  9
$DIMFRAC
 70
     0
  9
$DIMLDRBLK
  1

  9
$DIMLUNIT
 70
     2
  9
$DIMLWD
 70
    -2
  9
$DIMLWE
 70
    -2
  9
$DIMTMOVE
 70
     0
  9
$DIMFXL
 40
1.0
  9
$DIMFXLON
 70
     0
  9
$DIMJOGANG
 40
0.785398
  9
$DIMTFILL
 70
     0
  9
$DIMTFILLCLR
 70
     0
  9
$DIMARCSYM
 70
     0
  9
$DIMLTYPE
  6

  9
$DIMLTEX1
  6

  9
$DIMLTEX2
  6

  9
$DIMTXTDIRECTION
 70
     0
  9
$LUNITS
 70
     2
  9
$LUPREC
 70
     4
  9
$SKETCHINC
 40
1.0
  9
$FILLETRAD
 40
0.0
  9
$AUNITS
 70
     0
  9
$AUPREC
 70
     0
  9
$MENU
  1
.
  9
$ELEVATION
 40
0.0
  9
$PELEVATION
 40
0.0
  9
$THICKNESS
 40
0.0
  9
$LIMCHECK
 70
     0
  9
$CHAMFERA
 40
0.0
  9
$CHAMFERB
 40
0.0
  9
$CHAMFERC
 40
0.0
  9
$CHAMFERD
 40
0.0
  9
$SKPOLY
 70
     0
  9
$TDCREATE
 40
2459407.963321759
  9
$TDUCREATE
 40
2459407.879988426
  9
$TDUPDATE
 40
2459407.963321759
  9
$TDUUPDATE
 40
2459407.879988426
  9
$TDINDWG
 40
0.0000000000
  9
$TDUSRTIMER
 40
0.0000000000
  9
$USRTIMER
 70
     1
  9
$ANGBASE
 50
0.0
  9
$ANGDIR
 70
     0
  9
$PDMODE
 70
     0
  9
$PDSIZE
 40
0.0
  9
$PLINEWID
 40
0.0
  9
$SPLFRAME
 70
     0
  9
$SPLINETYPE
 70
     6
  9
$SPLINESEGS
 70
     8
  9
$HANDSEED
  5
1B6
  9
$SURFTAB1
 70
     6
  9
$SURFTAB2
 70
     6
  9
$SURFTYPE
 70
     6
  9
$SURFU
 70
     6
  9
$SURFV
 70
     6
  9
$UCSBASE
  2

  9
$UCSNAME
  2

  9
$UCSORG
 10
0.0
 20
0.0
 30
0.0
  9
$UCSXDIR
 10
1.0
 20
0.0
 30
0.0
  9
$UCSYDIR
 10
0.0
 20
1.0
 30
0.0
  9
$UCSORTHOREF
  2

  9
$UCSORTHOVIEW
 70
     0
  9
$UCSORGTOP
 10
0.0
 20
0.0
 30
0.0
  9
$UCSORGBOTTOM
 10
0.0
 20
0.0
 30
0.0
  9
$UCSORGLEFT
 10
0.0
 20
0.0
 30
0.0
  9
$UCSORGRIGHT
 10
0.0
 20
0.0
 30
0.0
  9
$UCSORGFRONT
 10
0.0
 20
0.0
 30
0.0
  9
$UCSORGBACK
 10
0.0
 20
0.0
 30
0.0
  9
$PUCSBASE
  2

  9
$PUCSNAME
  2

  9
$PUCSORG
 10
0.0
 20
0.0
 30
0.0
  9
$PUCSXDIR
 10
1.0
 20
0.0
 30
0.0
  9
$PUCSYDIR
 10
0.0
 20
1.0
 30
0.0
  9
$PUCSORTHOREF
  2

  9
$PUCSORTHOVIEW
 70
     0
  9
$PUCSORGTOP
 10
0.0
 20
0.0
 30
0.0
  9
$PUCSORGBOTTOM
 10
0.0
 20
0.0
 30
0.0
  9
$PUCSORGLEFT
 10
0.0
 20
0.0
 30
0.0
  9
$PUCSORGRIGHT
 10
0.0
 20
0.0
 30
0.0
  9
$PUCSORGFRONT
 10
0.0
 20
0.0
 30
0.0
  9
$PUCSORGBACK
 10
0.0
 20
0.0
 30
0.0
  9
$USERI1
 70
     0
  9
$USERI2
 70
     0
  9
$USERI3
 70
     0
  9
$USERI4
 70
     0
  9
$USERI5
 70
     0
  9
$USERR1
 40
0.0
  9
$USERR2
 40
0.0
  9
$USERR3
 40
0.0
  9
$USERR4
 40
0.0
  9
$USERR5
 40
0.0
  9
$WORLDVIEW
 70
     1
  9
$SHADEDGE
 70
     3
  9
$SHADEDIF
 70
    70
  9
$TILEMODE
 70
     1
  9
$MAXACTVP
 70
    64
  9
$PINSBASE
 10
0.0
 20
0.0
 30
0.0
  9
$PLIMCHECK
 70
     0
  9
$PEXTMIN
 10
1.000000E+20
 20
1.000000E+20
 30
1.000000E+20
  9
$PEXTMAX
 10
-1.000000E+20
 20
-1.000000E+20
 30
-1.000000E+20
  9
$PLIMMIN
 10
0.0
 20
0.0
  9
$PLIMMAX
 10
12.0
 20
9.0
  9
$UNITMODE
 70
     0
  9
$VISRETAIN
 70
     1
  9
$PLINEGEN
 70
     0
  9
$PSLTSCALE
 70
     1
  9
$TREEDEPTH
 70
  3020
  9
$CMLSTYLE
  2
Standard
  9
$CMLJUST
 70
     0
  9
$CMLSCALE
 40
20.0
  9
$PROXYGRAPHICS
 70
     1
  9
$MEASUREMENT
 70
     1
  9
$CELWEIGHT
370
    -1
  9
$ENDCAPS
280
     0
  9
$JOINSTYLE
280
     0
  9
$LWDISPLAY
290
     0
  9
$INSUNITS
 70
     4
  9
$HYPERLINKBASE
  1

  9
$STYLESHEET
  1

  9
$XEDIT
290
     1
  9
$CEPSNTYPE
380
     0
  9
$PSTYLEMODE
290
     1
  9
$FINGERPRINTGUID
  2
{EA7BF2EB-3721-1648-ACE5-2B598B7494FD}
  9
$VERSIONGUID
  2
{EC317DED-D8E9-2644-8DD0-686230F38A7B}
  9
$EXTNAMES
290
     1
  9
$PSVPSCALE
 40
0.0
  9
$OLESTARTUP
290
     0
  9
$SORTENTS
280
   127
  9
$INDEXCTL
280
     0
  9
$HIDETEXT
280
     1
  9
$XCLIPFRAME
280
     0
  9
$HALOGAP
280
     0
  9
$OBSCOLOR
 70
   257
  9
$OBSLTYPE
280
     0
  9
$INTERSECTIONDISPLAY
280
     0
  9
$INTERSECTIONCOLOR
 70
   257
  9
$DIMASSOC
280
     2
  9
$PROJECTNAME
  1

  9
$CAMERADISPLAY
290
     0
  9
$LENSLENGTH
 40
50.0
  9
$CAMERAHEIGHT
 40
0.0
  9
$STEPSPERSEC
 40
2.0
  9
$STEPSIZE
 40
6.0
  9
$3DDWFPREC
 40
2.0
  9
$PSOLWIDTH
 40
5.0
  9
$PSOLHEIGHT
 40
80.0
  9
$LOFTANG1
 40
1.570796
  9
$LOFTANG2
 40
1.570796
  9
$LOFTMAG1
 40
0.0
  9
$LOFTMAG2
 40
0.0
  9
$LOFTPARAM
 70
     7
  9
$LOFTNORMALS
280
     1
  9
$LATITUDE
 40
37.795
  9
$LONGITUDE
 40
-122.394
  9
$NORTHDIRECTION
 40
0.0
  9
$TIMEZONE
 70
 -8000
  9
$LIGHTGLYPHDISPLAY
280
     1
  9
$TILEMODELIGHTSYNCH
280
     1
  9
$CMATERIAL
347
11
  9
$SOLIDHIST
280
     0
  9
$SHOWHIST
280
     1
  9
$DWFFRAME
280
     2
  9
$DGNFRAME
280
     0
  9
$REALWORLDSCALE
290
     1
  9
$INTERFERECOLOR
 62
     1
  9
$INTERFEREOBJVS
345
33
  9
$INTERFEREVPVS
346
30
  9
$CSHADOW
280
     0
  9
$SHADOWPLANELOCATION
 40
0.0
  0
ENDSEC
  0
SECTION
  2
CLASSES
  0
CLASS
  1
ACDBDICTIONARYWDFLT
  2
AcDbDictionaryWithDefault
  3
ObjectDBX Classes
 90
        0
 91
        1
280
     0
281
     0
  0
CLASS
  1
MATERIAL
  2
AcDbMaterial
  3
ObjectDBX Classes
 90
     1153
 91
        3
280
     0
281
     0
  0
CLASS
  1
VISUALSTYLE
  2
AcDbVisualStyle
  3
ObjectDBX Classes
 90
     4095
 91
       24
280
     0
281
     0
  0
CLASS
  1
SCALE
  2
AcDbScale
  3
ObjectDBX Classes
 90
     1153
 91
       17
280
     0
281
     0
  0
CLASS
  1
TABLESTYLE
  2
AcDbTableStyle
  3
ObjectDBX Classes
 90
     4095
 91
        1
280
     0
281
     0
  0
CLASS
  1
MLEADERSTYLE
  2
AcDbMLeaderStyle
  3
ACDB_MLEADERSTYLE_CLASS
 90
     4095
 91
        1
280
     0
281
     0
  0
CLASS
  1
ACDBSECTIONVIEWSTYLE
  2
AcDbSectionViewStyle
  3
ObjectDBX Classes
 90
     1025
 91
        1
280
     0
281
     0
  0
CLASS
  1
ACDBDETAILVIEWSTYLE
  2
AcDbDetailViewStyle
  3
ObjectDBX Classes
 90
     1025
 91
        1
280
     0
281
     0
  0
CLASS
  1
ACMESCOPE
  2
AcMeScope
  3
AcMeServices
 90
     1024
 91
        1
280
     0
281
     0
  0
CLASS
  1
ACMECOMMANDHISTORY
  2
AcMeCommandHistory
  3
AcMeServices
 90
     1024
 91
        1
280
     0
281
     0
  0
CLASS
  1
ACIMSYSVARMAN
  2
AcImSysVarManager
  3
AcMeServices
 90
     1024
 91
        1
280
     0
281
     0
  0
CLASS
  1
ACIMINTSYSVAR
  2
AcImIntSysVar
  3
AcMeServices
 90
     1024
 91
        1
280
     0
281
     0
  0
CLASS
  1
ACMESTATEMGR
  2
AcMeStateMgr
  3
AcMeServices
 90
     1024
 91
        1
280
     0
281
     0
  0
CLASS
  1
ACGREFMASTER
  2
AcGrefMaster
  3
AcAttribServices
 90
     1024
 91
        1
280
     0
281
     0
  0
CLASS
  1
SORTENTSTABLE
  2
AcDbSortentsTable
  3
ObjectDBX Classes
 90
        0
 91
        1
280
     0
281
     0
  0
CLASS
  1
DICTIONARYVAR
  2
AcDbDictionaryVar
  3
ObjectDBX Classes
 90
        0
 91
        6
280
     0
281
     0
  0
CLASS
  1
CELLSTYLEMAP
  2
AcDbCellStyleMap
  3
ObjectDBX Classes
 90
     1152
 91
        1
280
     0
281
     0
  0
ENDSEC
  0
SECTION
  2
TABLES
  0
TABLE
  2
VPORT
  5
8
330
0
100
AcDbSymbolTable
 70
     1
1001
ACAD
1000
DbSaveVer
1071
      246
  0
VPORT
  5
57
330
8
100
AcDbSymbolTableRecord
100
AcDbViewportTableRecord
  2
*Active
 70
     0
 10
0.0
 20
0.0
 11
1.0
 21
1.0
 12
122.777849
 22
148.5
 13
0.0
 23
0.0
 14
0.5
 24
0.5
 15
0.0
 25
0.0
 16
0.0
 26
0.0
 36
1.0
 17
0.0
 27
0.0
 37
0.0
 40
297.0
 41
2.377637
 42
50.0
 43
0.0
 44
0.0
 50
0.0
 51
0.0
 71
     0
 72
 20000
 73
     1
 74
     0
 75
     0
 76
     0
 77
     0
 78
     0
281
     0
 65
     1
110
0.0
120
0.0
130
0.0
111
1.0
121
0.0
131
0.0
112
0.0
122
1.0
132
0.0
 79
     0
146
0.0
348
2F
 60
     3
 61
     5
292
     1
282
     1
141
0.0
142
0.0
 63
   250
421
  3355443
  0
ENDTAB
  0
TABLE
  2
LTYPE
  5
5
330
0
100
AcDbSymbolTable
 70
    14
  0
LTYPE
  5
5B
330
5
100
AcDbSymbolTableRecord
100
AcDbLinetypeTableRecord
  2
ByBlock
 70
     0
  3

 72
    65
 73
     0
 40
0.0
  0
LTYPE
  5
5C
330
5
100
AcDbSymbolTableRecord
100
AcDbLinetypeTableRecord
  2
ByLayer
 70
     0
  3

 72
    65
 73
     0
 40
0.0
  0
LTYPE
  5
5D
330
5
100
AcDbSymbolTableRecord
100
AcDbLinetypeTableRecord
  2
Continuous
 70
     0
  3
Solid line
 72
    65
 73
     0
 40
0.0
  0
LTYPE
  5
81
330
5
100
AcDbSymbolTableRecord
100
AcDbLinetypeTableRecord
  2
HIDDEN
 70
     0
  3
Hidden __ __ __ __ __ __ __ __ __ __ __ __ __ _
 72
    65
 73
     2
 40
9.525
 49
6.35
 74
     0
 49
-3.175
 74
     0
  0
LTYPE
  5
82
330
5
100
AcDbSymbolTableRecord
100
AcDbLinetypeTableRecord
  2
PHANTOM2
 70
     0
  3
Phantom (.5x) ___ _ _ ___ _ _ ___ _ _ ___ _ _
 72
    65
 73
     6
 40
31.75
 49
15.875
 74
     0
 49
-3.175
 74
     0
 49
3.175
 74
     0
 49
-3.175
 74
     0
 49
3.175
 74
     0
 49
-3.175
 74
     0
  0
LTYPE
  5
83
330
5
100
AcDbSymbolTableRecord
100
AcDbLinetypeTableRecord
  2
CENTER
 70
     0
  3
Center ____ _ ____ _ ____ _ ____ _ ____ _ ____
 72
    65
 73
     4
 40
50.8
 49
31.75
 74
     0
 49
-6.35
 74
     0
 49
6.35
 74
     0
 49
-6.35
 74
     0
  0
LTYPE
  5
97
330
5
100
AcDbSymbolTableRecord
100
AcDbLinetypeTableRecord
  2
AM_ISO02W050
 70
     0
  3
__ __ __ __ __ __ __ __ __ __ __ __ __ __ __
 72
    65
 73
     2
 40
7.5
 49
6.0
 74
     0
 49
-1.5
 74
     0
  0
LTYPE
  5
98
330
5
100
AcDbSymbolTableRecord
100
AcDbLinetypeTableRecord
  2
AM_ISO08W050
 70
     0
  3
____ . ____ . ____ . ____ . ____ . ____ . ____
 72
    65
 73
     4
 40
18.0
 49
12.0
 74
     0
 49
-1.5
 74
     0
 49
3.0
 74
     0
 49
-1.5
 74
     0
  0
LTYPE
  5
99
330
5
100
AcDbSymbolTableRecord
100
AcDbLinetypeTableRecord
  2
AM_ISO09W050
 70
     0
  3
_____ . . _____ . . _____ . . ____ .. ____
 72
    65
 73
     6
 40
22.5
 49
12.0
 74
     0
 49
-1.5
 74
     0
 49
3.0
 74
     0
 49
-1.5
 74
     0
 49
3.0
 74
     0
 49
-1.5
 74
     0
  0
LTYPE
  5
9A
330
5
100
AcDbSymbolTableRecord
100
AcDbLinetypeTableRecord
  2
Amconstr
 70
     0
  3
_______________________
 72
    65
 73
     2
 40
9999.0
 49
9999.0
 74
     0
 49
0.0
 74
     0
  0
LTYPE
  5
9B
330
5
100
AcDbSymbolTableRecord
100
AcDbLinetypeTableRecord
  2
AM_ISO08W050x2
 70
     0
  3
__ . __ . __ . __ . __ . __
 72
    65
 73
     4
 40
9.0
 49
6.0
 74
     0
 49
-0.75
 74
     0
 49
1.5
 74
     0
 49
-0.75
 74
     0
  0
LTYPE
  5
9C
330
5
100
AcDbSymbolTableRecord
100
AcDbLinetypeTableRecord
  2
AM_ISO02W050x2
 70
     0
  3
 _ _ _ _ _ _ _ _ _ _ _ _
 72
    65
 73
     2
 40
3.75
 49
3.0
 74
     0
 49
-0.75
 74
     0
  0
LTYPE
  5
9D
330
5
100
AcDbSymbolTableRecord
100
AcDbLinetypeTableRecord
  2
Amzigzag
 70
     0
  3
/\/-/\/-/\/-/\/-/\/-/\/
 72
    65
 73
     2
 40
11.0001
 49
0.0001
 74
     4
 75
   136
340
94
 46
0.04
 50
0.0
 44
0.0
 45
0.0
 49
-11.0
 74
     0
  0
LTYPE
  5
9E
330
5
100
AcDbSymbolTableRecord
100
AcDbLinetypeTableRecord
  2
ACISOWELD
 70
     0
  3
_ _ _ _ _
 72
    65
 73
     2
 40
2.0
 49
2.0
 74
     0
 49
-1.0
 74
     0
  0
LTYPE
  5
9F
330
5
100
AcDbSymbolTableRecord
100
AcDbLinetypeTableRecord
  2
ACISOTGL
 70
     0
  3
_ _ _ _ _
 72
    65
 73
     2
 40
3.0
 49
2.0
 74
     0
 49
-1.0
 74
     0
  0
LTYPE
  5
A0
330
5
100
AcDbSymbolTableRecord
100
AcDbLinetypeTableRecord
  2
ACISOTGB
 70
     0
  3
__ . . __ . .
 72
    65
 73
     6
 40
9.0
 49
4.0
 74
     0
 49
-1.0
 74
     0
 49
1.0
 74
     0
 49
-1.0
 74
     0
 49
1.0
 74
     0
 49
-1.0
 74
     0
  0
ENDTAB
  0
TABLE
  2
LAYER
  5
2
330
0
100
AcDbSymbolTable
 70
     7
  0
LAYER
  5
54
330
2
100
AcDbSymbolTableRecord
100
AcDbLayerTableRecord
  2
0
 70
     0
 62
     7
  6
Continuous
370
    -3
390
F
347
21
348
0
1001
AcAecLayerStandard
1000

1000

  0
LAYER
  5
79
330
2
100
AcDbSymbolTableRecord
100
AcDbLayerTableRecord
  2
Defpoints
 70
     0
 62
     7
  6
Continuous
290
     0
370
    -3
390
F
347
21
348
0
1001
AcAecLayerStandard
1000

1000

  0
LAYER
  5
AB
330
2
100
AcDbSymbolTableRecord
100
AcDbLayerTableRecord
  2
Visibile
 70
     0
 62
     7
  6
Continuous
370
    50
390
F
347
21
348
0
  0
LAYER
  5
10D
330
2
100
AcDbSymbolTableRecord
100
AcDbLayerTableRecord
  2
Border
 70
     0
 62
     7
  6
Continuous
370
    25
390
F
347
21
348
0
1001
AcAecLayerStandard
1000

1000

1001
AcCmTransparency
1071
        0
  0
ENDTAB
  0
TABLE
  2
STYLE
  5
3
330
0
100
AcDbSymbolTable
 70
     5
  0
STYLE
  5
55
330
3
100
AcDbSymbolTableRecord
100
AcDbTextStyleTableRecord
  2
Standard
 70
     0
 40
0.0
 41
1.0
 50
0.0
 71
     0
 42
3.5
  3
arial.ttf
  4

1001
ACAD
1000
Arial
1071
       34
  0
STYLE
  5
5A
330
3
100
AcDbSymbolTableRecord
100
AcDbTextStyleTableRecord
  2
Annotative
 70
     0
 40
0.0
 41
1.0
 50
0.0
 71
     0
 42
0.2
  3
txt
  4

1001
AcadAnnotative
1000
AnnotativeData
1002
{
1070
     1
1070
     1
1002
}
  0
STYLE
  5
93
330
3
100
AcDbSymbolTableRecord
100
AcDbTextStyleTableRecord
  2
FusionTitle
 70
     0
 40
0.0
 41
1.0
 50
0.0
 71
     0
 42
2.5
  3
arial.ttf
  4

1001
ACAD
1000
Arial
1071
       34
  0
STYLE
  5
94
330
3
100
AcDbSymbolTableRecord
100
AcDbTextStyleTableRecord
  2

 70
     1
 40
0.0
 41
1.0
 50
0.0
 71
     0
 42
10.0
  3
genltshp.shx
  4

  0
STYLE
  5
95
330
3
100
AcDbSymbolTableRecord
100
AcDbTextStyleTableRecord
  2
ACISOGDT
 70
     0
 40
0.0
 41
1.0
 50
0.0
 71
     0
 42
10.0
  3
amgdt.shx
  4

  0
ENDTAB
  0
TABLE
  2
VIEW
  5
6
330
0
100
AcDbSymbolTable
 70
     0
  0
ENDTAB
  0
TABLE
  2
UCS
  5
7
330
0
100
AcDbSymbolTable
 70
     0
  0
ENDTAB
  0
TABLE
  2
APPID
  5
9
330
0
100
AcDbSymbolTable
 70
    20
  0
APPID
  5
56
330
9
100
AcDbSymbolTableRecord
100
AcDbRegAppTableRecord
  2
ACAD
 70
     0
  0
APPID
  5
5E
330
9
100
AcDbSymbolTableRecord
100
AcDbRegAppTableRecord
  2
AcadAnnotative
 70
     0
  0
APPID
  5
78
330
9
100
AcDbSymbolTableRecord
100
AcDbRegAppTableRecord
  2
ACAD_PSEXT
 70
     0
  0
APPID
  5
7A
330
9
100
AcDbSymbolTableRecord
100
AcDbRegAppTableRecord
  2
MCAD_NO_VIS
 70
     0
  0
APPID
  5
7B
330
9
100
AcDbSymbolTableRecord
100
AcDbRegAppTableRecord
  2
ACAD_TEMP_GRAPHIC
 70
     0
  0
APPID
  5
84
330
9
100
AcDbSymbolTableRecord
100
AcDbRegAppTableRecord
  2
ACAD_DSTYLE_DIMJAG
 70
     0
  0
APPID
  5
85
330
9
100
AcDbSymbolTableRecord
100
AcDbRegAppTableRecord
  2
ACAD_DSTYLE_DIMTALN
 70
     0
  0
APPID
  5
86
330
9
100
AcDbSymbolTableRecord
100
AcDbRegAppTableRecord
  2
ACAD_NAV_VCDISPLAY
 70
     0
  0
APPID
  5
87
330
9
100
AcDbSymbolTableRecord
100
AcDbRegAppTableRecord
  2
AcAecLayerStandard
 70
     0
  0
APPID
  5
88
330
9
100
AcDbSymbolTableRecord
100
AcDbRegAppTableRecord
  2
AcCmTransparency
 70
     0
  0
APPID
  5
89
330
9
100
AcDbSymbolTableRecord
100
AcDbRegAppTableRecord
  2
AcDbDynamicBlockGUID
 70
     0
  0
APPID
  5
8A
330
9
100
AcDbSymbolTableRecord
100
AcDbRegAppTableRecord
  2
ACAD_DSTYLE_DIMBREAK
 70
     0
  0
APPID
  5
8B
330
9
100
AcDbSymbolTableRecord
100
AcDbRegAppTableRecord
  2
FUSIONTITLEBLOCK
 70
     0
  0
APPID
  5
8C
330
9
100
AcDbSymbolTableRecord
100
AcDbRegAppTableRecord
  2
FUSIONCURRENTTITLEBLOCK
 70
     0
  0
APPID
  5
8D
330
9
100
AcDbSymbolTableRecord
100
AcDbRegAppTableRecord
  2
AcSynergy
 70
     0
  0
APPID
  5
8E
330
9
100
AcDbSymbolTableRecord
100
AcDbRegAppTableRecord
  2
ACAD_VIEW_EDGE_ID
 70
     0
  0
APPID
  5
8F
330
9
100
AcDbSymbolTableRecord
100
AcDbRegAppTableRecord
  2
GENIUS_GENSCREG_15
 70
     0
  0
APPID
  5
90
330
9
100
AcDbSymbolTableRecord
100
AcDbRegAppTableRecord
  2
GENIUS_GENOBJ-N-SDF_13
 70
     0
  0
APPID
  5
91
330
9
100
AcDbSymbolTableRecord
100
AcDbRegAppTableRecord
  2
GENIUS_GENODEF_13
 70
     0
  0
APPID
  5
92
330
9
100
AcDbSymbolTableRecord
100
AcDbRegAppTableRecord
  2
ACATTRIBSERVICES
 70
     0
  0
ENDTAB
  0
TABLE
  2
DIMSTYLE
  5
A
330
0
100
AcDbSymbolTable
 70
     3
100
AcDbDimStyleTable
 71
     1
340
A3
  0
DIMSTYLE
105
58
330
A
100
AcDbSymbolTableRecord
100
AcDbDimStyleTableRecord
  2
Standard
 70
     0
 43
9.899495
 78
     8
 79
     2
140
3.5
179
     2
271
     2
272
     2
284
     8
285
     8
286
     8
340
55
  0
DIMSTYLE
105
59
330
A
100
AcDbSymbolTableRecord
100
AcDbDimStyleTableRecord
  2
Annotative
 70
     0
 40
0.0
 41
2.5
 42
0.625
 43
9.899495
 44
1.25
 73
     0
 74
     0
 77
     1
 78
     8
 79
     2
140
3.5
141
2.5
143
0.03937
147
0.625
171
     3
172
     1
179
     2
271
     2
272
     2
274
     3
278
    44
283
     0
284
     8
285
     8
286
     8
340
55
1001
AcadAnnotative
1000
AnnotativeData
1002
{
1070
     1
1070
     1
1002
}
  0
DIMSTYLE
105
A3
330
A
100
AcDbSymbolTableRecord
100
AcDbDimStyleTableRecord
  2
ISO-25
 70
     0
  4
in
 41
3.5
 42
2.0
 43
9.899495
 44
2.0
 47
0.1
 48
0.1
 73
     0
 74
     0
 77
     1
 78
     8
 79
     2
140
3.5
141
0.0
143
0.03937
146
0.714
147
1.5
171
     4
172
     1
176
   256
177
   256
178
   256
179
     2
271
     2
272
     2
274
     4
283
     0
284
     8
285
     8
286
     8
340
55
1001
ACAD_DSTYLE_DIMBREAK
1070
   391
1040
3.5
1001
ACAD_DSTYLE_DIMJAG
1070
   388
1040
1.5
1001
ACAD_DSTYLE_DIMTALN
1070
   392
1070
     1
  0
ENDTAB
  0
TABLE
  2
BLOCK_RECORD
  5
1
330
0
100
AcDbSymbolTable
 70
     5
  0
BLOCK_RECORD
  5
70
102
{ACAD_XDICTIONARY
360
A4
102
}
330
1
100
AcDbSymbolTableRecord
100
AcDbBlockTableRecord
  2
*Model_Space
340
73
 70
     0
280
     1
281
     0
  0
BLOCK_RECORD
  5
6C
330
1
100
AcDbSymbolTableRecord
100
AcDbBlockTableRecord
  2
*Paper_Space
340
6F
 70
     0
280
     1
281
     0
  0
BLOCK_RECORD
  5
74
330
1
100
AcDbSymbolTableRecord
100
AcDbBlockTableRecord
  2
*Paper_Space0
340
77
 70
     0
280
     1
281
     0
  0
BLOCK_RECORD
  5
10E
102
{ACAD_XDICTIONARY
360
10F
102
}
330
1
100
AcDbSymbolTableRecord
100
AcDbBlockTableRecord
  2
ISO_A3_SHEET
340
0
310
2800000020000000200000000100080000000000000400000000000000000000000000000000000000000000000080000080000000808000800000008000800080800000C0C0C000C0DCC000F0CAA6000020400000206000002080000020A0000020C0000020E00000400000004020000040400000406000004080000040A0
310
000040C0000040E00000600000006020000060400000606000006080000060A0000060C0000060E00000800000008020000080400000806000008080000080A0000080C0000080E00000A0000000A0200000A0400000A0600000A0800000A0A00000A0C00000A0E00000C0000000C0200000C0400000C0600000C0800000C0
310
A00000C0C00000C0E00000E0000000E0200000E0400000E0600000E0800000E0A00000E0C00000E0E00040000000400020004000400040006000400080004000A0004000C0004000E00040200000402020004020400040206000402080004020A0004020C0004020E000404000004040200040404000404060004040800040
310
40A0004040C0004040E00040600000406020004060400040606000406080004060A0004060C0004060E00040800000408020004080400040806000408080004080A0004080C0004080E00040A0000040A0200040A0400040A0600040A0800040A0A00040A0C00040A0E00040C0000040C0200040C0400040C0600040C08000
310
40C0A00040C0C00040C0E00040E0000040E0200040E0400040E0600040E0800040E0A00040E0C00040E0E00080000000800020008000400080006000800080008000A0008000C0008000E00080200000802020008020400080206000802080008020A0008020C0008020E00080400000804020008040400080406000804080
310
008040A0008040C0008040E00080600000806020008060400080606000806080008060A0008060C0008060E00080800000808020008080400080806000808080008080A0008080C0008080E00080A0000080A0200080A0400080A0600080A0800080A0A00080A0C00080A0E00080C0000080C0200080C0400080C0600080C0
310
800080C0A00080C0C00080C0E00080E0000080E0200080E0400080E0600080E0800080E0A00080E0C00080E0E000C0000000C0002000C0004000C0006000C0008000C000A000C000C000C000E000C0200000C0202000C0204000C0206000C0208000C020A000C020C000C020E000C0400000C0402000C0404000C0406000C0
310
408000C040A000C040C000C040E000C0600000C0602000C0604000C0606000C0608000C060A000C060C000C060E000C0800000C0802000C0804000C0806000C0808000C080A000C080C000C080E000C0A00000C0A02000C0A04000C0A06000C0A08000C0A0A000C0A0C000C0A0E000C0C00000C0C02000C0C04000C0C06000
310
C0C08000C0C0A000F0FBFF00A4A0A000808080000000FF0000FF000000FFFF00FF000000FF00FF00FFFF0000FFFFFF0049494949494949494949494949494949494949494949494949494949494949494949494949494949494949494949494949494949494949494949494949494949494949494949494949494949494949
310
494949494949494949494949494949494949494949494949494949494949494949494949494949494949494949494949494949494949494949494949494949494949494949494949494949494949494949494949494949494949494949494949494949494949494949494949494949494949FFFFFFFFFFFFFFFFFFFFFFFFFF
310
FFFFFFFFFFFFFFFFFFFFFFFFFFFFFFFFFF4949FF49FF494949494949494949494949FF494949494949494949494949FFFF49494949FF49494949494949494949494949494949494949494949494949FF49494949FFFF49494949494949494949494949494949494949494949494949FF4949494949FF494949494949494949
310
49494949494949494949494949494949FF4949494949FF49494949494949494949494949494949494949494949494949FF49494949FFFF49494949494949494949494949494949494949494949494949FF4949494949FF49494949494949494949494949494949494949494949494949FF4949494949FF4949494949494949
310
4949494949494949494949494949494949FF4949494949FF49494949494949494949494949494949494949494949494949FF49494949FFFF49494949494949494949494949494949494949494949494949FF4949494949FF49494949494949494949494949494949494949494949494949FF4949494949FF49494949494949
310
494949494949494949494949494949494949FF49494949FFFF49494949494949494949494949494949494949494949494949FF4949494949FF49494949494949494949494949494949494949494949494949FF4949494949FF49494949494949494949494949494949494949494949494949FF49494949FFFF494949494949
310
49494949494949494949494949494949494949FF4949494949FF49494949494949494949494949494949494949494949494949FF494949FF49FF494949494949494949494949FF494949494949494949494949FFFF4949FFFFFFFFFFFFFFFFFFFFFFFFFFFFFFFFFFFFFFFFFFFFFFFFFFFFFFFFFFFF49494949494949494949
310
49494949494949494949494949494949494949494949494949494949494949494949494949494949494949494949494949494949494949494949494949494949494949494949494949494949494949494949494949494949494949494949494949494949494949494949494949494949494949494949494949494949494949
310
4949494949494949494949494949494949494949494949494949494949494949494949494949494949494949494949494949494949494949
102
{BLKREFS
331
10C
102
}
 70
     4
280
     1
281
     0
1001
AcDbDynamicBlockGUID
1000
{B4874B5E-8040-BF49-A9B6-B81412F7B0AC}
  0
ENDTAB
  0
ENDSEC
  0
SECTION
  2
BLOCKS
  0
BLOCK
  5
71
330
70
100
AcDbEntity
  8
0
100
AcDbBlockBegin
  2
*Model_Space
 70
     0
 10
0.0
 20
0.0
 30
0.0
  3
*Model_Space
  1

  0
ENDBLK
  5
72
330
70
100
AcDbEntity
  8
0
100
AcDbBlockEnd
  0
BLOCK
  5
6D
330
6C
100
AcDbEntity
 67
     1
  8
0
100
AcDbBlockBegin
  2
*Paper_Space
 70
     0
 10
0.0
 20
0.0
 30
0.0
  3
*Paper_Space
  1

  0
ENDBLK
  5
6E
330
6C
100
AcDbEntity
 67
     1
  8
0
100
AcDbBlockEnd
  0
BLOCK
  5
75
330
74
100
AcDbEntity
 67
     1
  8
0
100
AcDbBlockBegin
  2
*Paper_Space0
 70
     0
 10
0.0
 20
0.0
 30
0.0
  3
*Paper_Space0
  1

  0
ENDBLK
  5
76
330
74
100
AcDbEntity
 67
     1
  8
0
100
AcDbBlockEnd
  0
BLOCK
  5
110
330
10E
100
AcDbEntity
  8
0
100
AcDbBlockBegin
  2
ISO_A3_SHEET
 70
     0
 10
0.0
 20
0.0
 30
0.0
  3
ISO_A3_SHEET
  1

  0
LINE
  5
111
330
10E
100
AcDbEntity
  8
Defpoints
100
AcDbLine
 10
0.0
 20
0.0
 30
0.0
 11
15.0
 21
0.0
 31
0.0
  0
LINE
  5
112
330
10E
100
AcDbEntity
  8
Defpoints
100
AcDbLine
 10
405.0
 20
0.0
 30
0.0
 11
420.0
 21
0.0
 31
0.0
  0
LINE
  5
113
330
10E
100
AcDbEntity
  8
Border
100
AcDbLine
 10
20.0
 20
10.0
 30
0.0
 11
410.0
 21
10.0
 31
0.0
  0
LINE
  5
114
330
10E
100
AcDbEntity
  8
Defpoints
100
AcDbLine
 10
420.0
 20
0.0
 30
0.0
 11
420.0
 21
15.0
 31
0.0
  0
LINE
  5
115
330
10E
100
AcDbEntity
  8
Defpoints
100
AcDbLine
 10
420.0
 20
282.0
 30
0.0
 11
420.0
 21
297.0
 31
0.0
  0
LINE
  5
116
330
10E
100
AcDbEntity
  8
Defpoints
100
AcDbLine
 10
420.0
 20
297.0
 30
0.0
 11
405.0
 21
297.0
 31
0.0
  0
LINE
  5
117
330
10E
100
AcDbEntity
  8
Defpoints
100
AcDbLine
 10
15.0
 20
297.0
 30
0.0
 11
0.0
 21
297.0
 31
0.0
  0
LINE
  5
118
330
10E
100
AcDbEntity
  8
Border
100
AcDbLine
 10
410.0
 20
287.0
 30
0.0
 11
20.0
 21
287.0
 31
0.0
  0
LINE
  5
119
330
10E
100
AcDbEntity
  8
Defpoints
100
AcDbLine
 10
0.0
 20
297.0
 30
0.0
 11
0.0
 21
282.0
 31
0.0
  0
LINE
  5
11A
330
10E
100
AcDbEntity
  8
Defpoints
100
AcDbLine
 10
0.0
 20
15.0
 30
0.0
 11
0.0
 21
0.0
 31
0.0
  0
LINE
  5
11B
330
10E
100
AcDbEntity
  8
Border
100
AcDbLine
 10
20.0
 20
287.0
 30
0.0
 11
20.0
 21
10.0
 31
0.0
  0
LINE
  5
11C
330
10E
100
AcDbEntity
  8
Border
100
AcDbLine
 10
410.0
 20
287.0
 30
0.0
 11
410.0
 21
10.0
 31
0.0
  0
LINE
  5
11D
330
10E
100
AcDbEntity
  8
Border
100
AcDbLine
 10
215.0
 20
5.0
 30
0.0
 11
215.0
 21
15.0
 31
0.0
  0
LINE
  5
11E
330
10E
100
AcDbEntity
  8
Border
100
AcDbLine
 10
215.0
 20
292.0
 30
0.0
 11
215.0
 21
282.0
 31
0.0
  0
LINE
  5
11F
330
10E
100
AcDbEntity
  8
Border
100
AcDbLine
 10
265.0
 20
292.0
 30
0.0
 11
265.0
 21
287.0
 31
0.0
  0
LINE
  5
120
330
10E
100
AcDbEntity
  8
Border
100
AcDbLine
 10
315.0
 20
292.0
 30
0.0
 11
315.0
 21
287.0
 31
0.0
  0
LINE
  5
121
330
10E
100
AcDbEntity
  8
Border
100
AcDbLine
 10
365.0
 20
292.0
 30
0.0
 11
365.0
 21
287.0
 31
0.0
  0
LINE
  5
122
330
10E
100
AcDbEntity
  8
Border
100
AcDbLine
 10
165.0
 20
292.0
 30
0.0
 11
165.0
 21
287.0
 31
0.0
  0
LINE
  5
123
330
10E
100
AcDbEntity
  8
Border
100
AcDbLine
 10
115.0
 20
292.0
 30
0.0
 11
115.0
 21
287.0
 31
0.0
  0
LINE
  5
124
330
10E
100
AcDbEntity
  8
Border
100
AcDbLine
 10
65.0
 20
292.0
 30
0.0
 11
65.0
 21
287.0
 31
0.0
  0
LINE
  5
125
330
10E
100
AcDbEntity
  8
Border
100
AcDbLine
 10
15.0
 20
148.5
 30
0.0
 11
25.0
 21
148.5
 31
0.0
  0
LINE
  5
126
330
10E
100
AcDbEntity
  8
Border
100
AcDbLine
 10
15.0
 20
100.66667
 30
0.0
 11
20.0
 21
100.66667
 31
0.0
  0
LINE
  5
127
330
10E
100
AcDbEntity
  8
Border
100
AcDbLine
 10
15.0
 20
52.83334
 30
0.0
 11
20.0
 21
52.83334
 31
0.0
  0
LINE
  5
128
330
10E
100
AcDbEntity
  8
Border
100
AcDbLine
 10
15.0
 20
196.33333
 30
0.0
 11
20.0
 21
196.33333
 31
0.0
  0
LINE
  5
129
330
10E
100
AcDbEntity
  8
Border
100
AcDbLine
 10
15.0
 20
244.16666
 30
0.0
 11
20.0
 21
244.16666
 31
0.0
  0
LINE
  5
12A
330
10E
100
AcDbEntity
  8
Border
100
AcDbLine
 10
415.0
 20
148.5
 30
0.0
 11
405.0
 21
148.5
 31
0.0
  0
LINE
  5
12B
330
10E
100
AcDbEntity
  8
Border
100
AcDbLine
 10
265.0
 20
5.0
 30
0.0
 11
265.0
 21
10.0
 31
0.0
  0
LINE
  5
12C
330
10E
100
AcDbEntity
  8
Border
100
AcDbLine
 10
315.0
 20
5.0
 30
0.0
 11
315.0
 21
10.0
 31
0.0
  0
LINE
  5
12D
330
10E
100
AcDbEntity
  8
Border
100
AcDbLine
 10
365.0
 20
5.0
 30
0.0
 11
365.0
 21
10.0
 31
0.0
  0
LINE
  5
12E
330
10E
100
AcDbEntity
  8
Border
100
AcDbLine
 10
165.0
 20
5.0
 30
0.0
 11
165.0
 21
10.0
 31
0.0
  0
LINE
  5
12F
330
10E
100
AcDbEntity
  8
Border
100
AcDbLine
 10
115.0
 20
5.0
 30
0.0
 11
115.0
 21
10.0
 31
0.0
  0
LINE
  5
130
330
10E
100
AcDbEntity
  8
Border
100
AcDbLine
 10
65.0
 20
5.0
 30
0.0
 11
65.0
 21
10.0
 31
0.0
  0
LINE
  5
131
330
10E
100
AcDbEntity
  8
Border
100
AcDbLine
 10
415.0
 20
100.66667
 30
0.0
 11
410.0
 21
100.66667
 31
0.0
  0
LINE
  5
132
330
10E
100
AcDbEntity
  8
Border
100
AcDbLine
 10
415.0
 20
52.83334
 30
0.0
 11
410.0
 21
52.83334
 31
0.0
  0
LINE
  5
133
330
10E
100
AcDbEntity
  8
Border
100
AcDbLine
 10
415.0
 20
196.33333
 30
0.0
 11
410.0
 21
196.33333
 31
0.0
  0
LINE
  5
134
330
10E
100
AcDbEntity
  8
Border
100
AcDbLine
 10
415.0
 20
244.16666
 30
0.0
 11
410.0
 21
244.16666
 31
0.0
  0
TEXT
  5
135
330
10E
100
AcDbEntity
  8
Border
100
AcDbText
 10
39.02882
 20
288.244884
 30
0.0
 40
2.5
  1
1
  7
FusionTitle
 72
     4
 11
40.0
 21
289.5
 31
0.0
100
AcDbText
  0
TEXT
  5
136
330
10E
100
AcDbEntity
  8
Border
100
AcDbText
 10
16.335266
 20
266.83333
 30
0.0
 40
2.5
  1
A
  7
FusionTitle
 72
     4
 11
17.5
 21
268.08333
 31
0.0
100
AcDbText
  0
TEXT
  5
137
330
10E
100
AcDbEntity
  8
Border
100
AcDbText
 10
89.02882
 20
288.244884
 30
0.0
 40
2.5
  1
2
  7
FusionTitle
 72
     4
 11
90.0
 21
289.5
 31
0.0
100
AcDbText
  0
TEXT
  5
138
330
10E
100
AcDbEntity
  8
Border
100
AcDbText
 10
139.02882
 20
288.267053
 30
0.0
 40
2.5
  1
3
  7
FusionTitle
 72
     4
 11
140.0
 21
289.5
 31
0.0
100
AcDbText
  0
TEXT
  5
139
330
10E
100
AcDbEntity
  8
Border
100
AcDbText
 10
189.02882
 20
288.25
 30
0.0
 40
2.5
  1
4
  7
FusionTitle
 72
     4
 11
190.0
 21
289.5
 31
0.0
100
AcDbText
  0
TEXT
  5
13A
330
10E
100
AcDbEntity
  8
Border
100
AcDbText
 10
239.02882
 20
288.28837
 30
0.0
 40
2.5
  1
5
  7
FusionTitle
 72
     4
 11
240.0
 21
289.5
 31
0.0
100
AcDbText
  0
TEXT
  5
13B
330
10E
100
AcDbEntity
  8
Border
100
AcDbText
 10
289.02882
 20
288.266201
 30
0.0
 40
2.5
  1
6
  7
FusionTitle
 72
     4
 11
290.0
 21
289.5
 31
0.0
100
AcDbText
  0
TEXT
  5
13C
330
10E
100
AcDbEntity
  8
Border
100
AcDbText
 10
339.02882
 20
288.266201
 30
0.0
 40
2.5
  1
7
  7
FusionTitle
 72
     4
 11
340.0
 21
289.5
 31
0.0
100
AcDbText
  0
TEXT
  5
13D
330
10E
100
AcDbEntity
  8
Border
100
AcDbText
 10
389.02882
 20
288.266201
 30
0.0
 40
2.5
  1
8
  7
FusionTitle
 72
     4
 11
390.0
 21
289.5
 31
0.0
100
AcDbText
  0
TEXT
  5
13E
330
10E
100
AcDbEntity
  8
Border
100
AcDbText
 10
39.02882
 20
6.244884
 30
0.0
 40
2.5
  1
1
  7
FusionTitle
 72
     4
 11
40.0
 21
7.5
 31
0.0
100
AcDbText
  0
TEXT
  5
13F
330
10E
100
AcDbEntity
  8
Border
100
AcDbText
 10
89.02882
 20
6.244884
 30
0.0
 40
2.5
  1
2
  7
FusionTitle
 72
     4
 11
90.0
 21
7.5
 31
0.0
100
AcDbText
  0
TEXT
  5
140
330
10E
100
AcDbEntity
  8
Border
100
AcDbText
 10
139.02882
 20
6.267053
 30
0.0
 40
2.5
  1
3
  7
FusionTitle
 72
     4
 11
140.0
 21
7.5
 31
0.0
100
AcDbText
  0
TEXT
  5
141
330
10E
100
AcDbEntity
  8
Border
100
AcDbText
 10
189.02882
 20
6.25
 30
0.0
 40
2.5
  1
4
  7
FusionTitle
 72
     4
 11
190.0
 21
7.5
 31
0.0
100
AcDbText
  0
TEXT
  5
142
330
10E
100
AcDbEntity
  8
Border
100
AcDbText
 10
239.02882
 20
6.28837
 30
0.0
 40
2.5
  1
5
  7
FusionTitle
 72
     4
 11
240.0
 21
7.5
 31
0.0
100
AcDbText
  0
TEXT
  5
143
330
10E
100
AcDbEntity
  8
Border
100
AcDbText
 10
289.02882
 20
6.266201
 30
0.0
 40
2.5
  1
6
  7
FusionTitle
 72
     4
 11
290.0
 21
7.5
 31
0.0
100
AcDbText
  0
TEXT
  5
144
330
10E
100
AcDbEntity
  8
Border
100
AcDbText
 10
339.02882
 20
6.266201
 30
0.0
 40
2.5
  1
7
  7
FusionTitle
 72
     4
 11
340.0
 21
7.5
 31
0.0
100
AcDbText
  0
TEXT
  5
145
330
10E
100
AcDbEntity
  8
Border
100
AcDbText
 10
389.02882
 20
6.266201
 30
0.0
 40
2.5
  1
8
  7
FusionTitle
 72
     4
 11
390.0
 21
7.5
 31
0.0
100
AcDbText
  0
TEXT
  5
146
330
10E
100
AcDbEntity
  8
Border
100
AcDbText
 10
16.335266
 20
219.0
 30
0.0
 40
2.5
  1
B
  7
FusionTitle
 72
     4
 11
17.5
 21
220.25
 31
0.0
100
AcDbText
  0
TEXT
  5
147
330
10E
100
AcDbEntity
  8
Border
100
AcDbText
 10
16.238915
 20
171.16667
 30
0.0
 40
2.5
  1
C
  7
FusionTitle
 72
     4
 11
17.5
 21
172.41667
 31
0.0
100
AcDbText
  0
TEXT
  5
148
330
10E
100
AcDbEntity
  8
Border
100
AcDbText
 10
16.238915
 20
123.33334
 30
0.0
 40
2.5
  1
D
  7
FusionTitle
 72
     4
 11
17.5
 21
124.58334
 31
0.0
100
AcDbText
  0
TEXT
  5
149
330
10E
100
AcDbEntity
  8
Border
100
AcDbText
 10
16.335266
 20
75.50001
 30
0.0
 40
2.5
  1
E
  7
FusionTitle
 72
     4
 11
17.5
 21
76.75001
 31
0.0
100
AcDbText
  0
TEXT
  5
14A
330
10E
100
AcDbEntity
  8
Border
100
AcDbText
 10
16.433322
 20
27.66668
 30
0.0
 40
2.5
  1
F
  7
FusionTitle
 72
     4
 11
17.5
 21
28.91668
 31
0.0
100
AcDbText
  0
TEXT
  5
14B
330
10E
100
AcDbEntity
  8
Border
100
AcDbText
 10
411.335266
 20
266.83333
 30
0.0
 40
2.5
  1
A
  7
FusionTitle
 72
     4
 11
412.5
 21
268.08333
 31
0.0
100
AcDbText
  0
TEXT
  5
14C
330
10E
100
AcDbEntity
  8
Border
100
AcDbText
 10
411.335266
 20
219.0
 30
0.0
 40
2.5
  1
B
  7
FusionTitle
 72
     4
 11
412.5
 21
220.25
 31
0.0
100
AcDbText
  0
TEXT
  5
14D
330
10E
100
AcDbEntity
  8
Border
100
AcDbText
 10
411.238915
 20
171.16667
 30
0.0
 40
2.5
  1
C
  7
FusionTitle
 72
     4
 11
412.5
 21
172.41667
 31
0.0
100
AcDbText
  0
TEXT
  5
14E
330
10E
100
AcDbEntity
  8
Border
100
AcDbText
 10
411.238915
 20
123.33334
 30
0.0
 40
2.5
  1
D
  7
FusionTitle
 72
     4
 11
412.5
 21
124.58334
 31
0.0
100
AcDbText
  0
TEXT
  5
14F
330
10E
100
AcDbEntity
  8
Border
100
AcDbText
 10
411.335266
 20
75.50001
 30
0.0
 40
2.5
  1
E
  7
FusionTitle
 72
     4
 11
412.5
 21
76.75001
 31
0.0
100
AcDbText
  0
TEXT
  5
150
330
10E
100
AcDbEntity
  8
Border
100
AcDbText
 10
411.433322
 20
27.66668
 30
0.0
 40
2.5
  1
F
  7
FusionTitle
 72
     4
 11
412.5
 21
28.91668
 31
0.0
100
AcDbText
  0
ENDBLK
  5
151
330
10E
100
AcDbEntity
  8
0
100
AcDbBlockEnd
  0
ENDSEC
  0
SECTION
  2
ENTITIES
  0
INSERT
  5
10C
330
70
100
AcDbEntity
  8
Border
100
AcDbBlockReference
  2
ISO_A3_SHEET
 10
0.0
 20
0.0
 30
0.0
  0
LINE
  5
152
330
70
100
AcDbEntity
  8
Visibile
100
AcDbLine
 10
-172.056191
 20
190.992037
 30
22.601282
 11
-172.056191
 21
190.938447
 31
22.601282
210
0.0
220
1.0
230
0.0
  0
ARC
  5
153
330
70
100
AcDbEntity
  8
Visibile
100
AcDbCircle
 10
277.096402
 20
-2.323101
 30
190.138447
 40
121.5229158710548
210
0.0
220
1.0
230
0.0
100
AcDbArc
 50
172.753568
 51
180.0
  0
ARC
  5
154
330
70
100
AcDbEntity
  8
Visibile
100
AcDbCircle
 10
52.121386
 20
-2.323101
 30
190.138447
 40
121.5229158710545
210
0.0
220
1.0
230
0.0
100
AcDbArc
 50
0.0
 51
7.246432
  0
ARC
  5
155
330
70
100
AcDbEntity
  8
Visibile
100
AcDbCircle
 10
-381.827755
 20
-15.639984
 30
-191.338447
 40
227.7975139843688
210
0.0
220
-1.0
230
0.0
100
AcDbArc
 50
7.246432
 51
9.549508
  0
ARC
  5
156
330
70
100
AcDbEntity
  8
Visibile
100
AcDbCircle
 10
-277.096402
 20
-2.323101
 30
-191.338447
 40
122.2229158710538
210
0.0
220
-1.0
230
0.0
100
AcDbArc
 50
0.0
 51
7.246432
  0
ARC
  5
157
330
70
100
AcDbEntity
  8
Visibile
100
AcDbCircle
 10
-52.121386
 20
-2.323101
 30
-191.338447
 40
122.2229158710534
210
0.0
220
-1.0
230
0.0
100
AcDbArc
 50
172.753568
 51
180.0
  0
ARC
  5
158
330
70
100
AcDbEntity
  8
Visibile
100
AcDbCircle
 10
52.609967
 20
-15.639984
 30
-191.338447
 40
227.7975139844274
210
0.0
220
-1.0
230
0.0
100
AcDbArc
 50
170.450492
 51
172.753568
  0
SPLINE
  5
159
330
70
100
AcDbEntity
  8
Visibile
100
AcDbSpline
210
0.0
220
0.0
230
1.0
 70
     8
 71
     3
 72
    22
 73
    18
 74
     0
 42
0.000000001
 43
0.0000000001
 40
0.0
 40
0.0
 40
0.0
 40
0.0
 40
0.1474196858240819
 40
0.1474196858240819
 40
0.2948393716481639
 40
0.2948393716481639
 40
0.4433402488428549
 40
0.4433402488428549
 40
0.5918411260375458
 40
0.5918411260375458
 40
0.7416624143806519
 40
0.7416624143806519
 40
0.8914837027237577
 40
0.8914837027237577
 40
1.042412146722575
 40
1.042412146722575
 40
1.193340590721393
 40
1.193340590721393
 40
1.193340590721393
 40
1.193340590721393
 10
-172.0561905817158
 20
190.9384467643261
 30
22.60128221478658
 10
-172.0561905817158
 20
190.8893068690515
 30
22.60128221478658
 10
-172.0512937658646
 20
190.8356477669715
 30
22.60128221478658
 10
-172.0302022370824
 20
190.7305947653478
 30
22.60128221478658
 10
-172.0140091867004
 20
190.6792005320201
 30
22.60128221478658
 10
-171.9759925168686
 20
190.588180647165
 30
22.60128221478658
 10
-171.9506045485543
 20
190.5402079762944
 30
22.60128221478658
 10
-171.8902407973746
 20
190.4507213477558
 30
22.60128221478658
 10
-171.8552684130785
 20
190.4092050976088
 30
22.60128221478658
 10
-171.7846486262735
 20
190.3391957919929
 30
22.60128221478658
 10
-171.742433571287
 20
190.3043149257411
 30
22.60128221478658
 10
-171.6516082142328
 20
190.244202778374
 30
22.60128221478658
 10
-171.6030001758165
 20
190.2189680771051
 30
22.60128221478658
 10
-171.5102685692884
 20
190.1808774777102
 30
22.60128221478658
 10
-171.4575632271078
 20
190.1645751083
 30
22.60128221478658
 10
-171.3499049290045
 20
190.1433605996403
 30
22.60128221478658
 10
-171.2949523073051
 20
190.1384467643261
 30
22.60128221478658
 10
-171.2446428259721
 20
190.1384467643261
 30
22.60128221478658
1001
ACAD_VIEW_EDGE_ID
1071
       46
1071
       -1
1071
        2
1071
        0
  0
ARC
  5
15A
330
70
100
AcDbEntity
  8
Visibile
100
AcDbCircle
 10
-52.609967
 20
-15.639984
 30
190.138447
 40
227.0975139843535
210
0.0
220
1.0
230
0.0
100
AcDbArc
 50
7.246432
 51
9.694304
  0
LINE
  5
15B
330
70
100
AcDbEntity
  8
Visibile
100
AcDbLine
 10
-171.244643
 20
190.138447
 30
22.601282
 11
-157.973145
 21
190.138447
 31
22.601282
210
0.0
220
1.0
230
0.0
  0
ARC
  5
15C
330
70
100
AcDbEntity
  8
Visibile
100
AcDbCircle
 10
381.827755
 20
-15.639984
 30
190.138447
 40
227.09751398431
210
0.0
220
1.0
230
0.0
100
AcDbArc
 50
170.305696
 51
172.753568
  0
SPLINE
  5
15D
330
70
100
AcDbEntity
  8
Visibile
100
AcDbSpline
210
0.0
220
0.0
230
1.0
 70
     8
 71
     3
 72
    22
 73
    18
 74
     0
 42
0.000000001
 43
0.0000000001
 40
-1.19334059072139
 40
-1.19334059072139
 40
-1.19334059072139
 40
-1.19334059072139
 40
-1.042412146722559
 40
-1.042412146722559
 40
-0.8914837027237272
 40
-0.8914837027237272
 40
-0.7416624143806319
 40
-0.7416624143806319
 40
-0.5918411260375365
 40
-0.5918411260375365
 40
-0.4433402488428389
 40
-0.4433402488428389
 40
-0.2948393716481421
 40
-0.2948393716481421
 40
-0.1474196858240706
 40
-0.1474196858240706
 40
0.0
 40
0.0
 40
0.0
 40
0.0
 10
-157.9731452307903
 20
190.1384467643261
 30
22.60128221478658
 10
-157.9228357494573
 20
190.1384467643261
 30
22.60128221478658
 10
-157.8678831277581
 20
190.1433605996403
 30
22.60128221478658
 10
-157.7602248296547
 20
190.1645751083
 30
22.60128221478658
 10
-157.7075194874742
 20
190.1808774777102
 30
22.60128221478658
 10
-157.6147878809461
 20
190.2189680771051
 30
22.60128221478658
 10
-157.5661798425299
 20
190.244202778374
 30
22.60128221478658
 10
-157.4753544854754
 20
190.3043149257411
 30
22.60128221478658
 10
-157.4331394304893
 20
190.3391957919929
 30
22.60128221478658
 10
-157.362519643684
 20
190.4092050976089
 30
22.60128221478658
 10
-157.3275472593881
 20
190.4507213477558
 30
22.60128221478658
 10
-157.2671835082083
 20
190.5402079762945
 30
22.60128221478658
 10
-157.2417955398939
 20
190.588180647165
 30
22.60128221478658
 10
-157.2037788700621
 20
190.6792005320202
 30
22.60128221478658
 10
-157.1875858196803
 20
190.7305947653478
 30
22.60128221478658
 10
-157.1664942908979
 20
190.8356477669716
 30
22.60128221478658
 10
-157.1615974750468
 20
190.8893068690515
 30
22.60128221478658
 10
-157.1615974750468
 20
190.9384467643261
 30
22.60128221478658
1001
ACAD_VIEW_EDGE_ID
1071
       50
1071
       -1
1071
        2
1071
        0
  0
LINE
  5
15E
330
70
100
AcDbEntity
  8
Visibile
100
AcDbLine
 10
-157.161597
 20
190.938447
 30
22.601282
 11
-157.161597
 21
190.992037
 31
22.601282
210
0.0
220
1.0
230
0.0
  0
LINE
  5
15F
330
70
100
AcDbEntity
  8
Visibile
100
AcDbLine
 10
-174.444302
 20
190.938447
 30
-2.323101
 11
-174.444302
 21
191.238447
 31
-2.323101
210
0.0
220
1.0
230
0.0
  0
ARC
  5
160
330
70
100
AcDbEntity
  8
Visibile
100
AcDbCircle
 10
155.573486
 20
190.938447
 30
2.323101
 40
0.8
210
0.0000000000000001
220
0.0
230
-1.0
100
AcDbArc
 50
180.0
 51
270.0
  0
ARC
  5
161
330
70
100
AcDbEntity
  8
Visibile
100
AcDbCircle
 10
173.644302
 20
190.938447
 30
2.323101
 40
0.8
210
0.0000000000000001
220
0.0
230
-1.0
100
AcDbArc
 50
270.0
 51
0.0
  0
LINE
  5
162
330
70
100
AcDbEntity
  8
Visibile
100
AcDbLine
 10
-154.773486
 20
190.938447
 30
-2.323101
 11
-154.773486
 21
191.238447
 31
-2.323101
210
0.0
220
1.0
230
0.0
  0
ARC
  5
163
330
70
100
AcDbEntity
  8
Visibile
100
AcDbCircle
 10
174.344302
 20
191.238447
 30
2.323101
 40
0.1
210
0.0000000000000001
220
0.0
230
-1.0
100
AcDbArc
 50
0.0
 51
90.0
  0
ARC
  5
164
330
70
100
AcDbEntity
  8
Visibile
100
AcDbCircle
 10
154.873486
 20
191.238447
 30
2.323101
 40
0.1
210
0.0000000000000001
220
0.0
230
-1.0
100
AcDbArc
 50
90.0
 51
180.0
  0
SPLINE
  5
165
330
70
100
AcDbEntity
  8
Visibile
100
AcDbSpline
210
-0.0000000000003288
220
-0.5000000000002696
230
-0.8660254037842829
 70
     8
 71
     3
 72
    22
 73
    18
 74
     0
 42
0.000000001
 43
0.0000000001
 40
0.0
 40
0.0
 40
0.0
 40
0.0
 40
0.1474196858240819
 40
0.1474196858240819
 40
0.2948393716481639
 40
0.2948393716481639
 40
0.4433402488428549
 40
0.4433402488428549
 40
0.5918411260375458
 40
0.5918411260375458
 40
0.7416624143806519
 40
0.7416624143806519
 40
0.8914837027237577
 40
0.8914837027237577
 40
1.042412146722575
 40
1.042412146722575
 40
1.193340590721393
 40
1.193340590721393
 40
1.193340590721393
 40
1.193340590721393
 10
-172.0561905817158
 20
190.9920366028123
 30
22.80128221478651
 10
-172.0561905817158
 20
190.9494802051652
 30
22.82585216242399
 10
-172.0512937658646
 20
190.9030100596197
 30
22.85268171346388
 10
-172.0302022370824
 20
190.8120314914698
 30
22.90520821427572
 10
-172.0140091867004
 20
190.7675227798
 30
22.93090533093959
 10
-171.9759925168686
 20
190.6886972472659
 30
22.97641527336714
 10
-171.9506045485543
 20
190.6471516956046
 30
23.00040160880246
 10
-171.8902407973746
 20
190.5696540019911
 30
23.0451449230718
 10
-171.8552684130785
 20
190.5336998746939
 30
23.06590304814517
 10
-171.7846486262735
 20
190.4730700375292
 30
23.10090770095326
 10
-171.742433571287
 20
190.4428623212492
 30
23.11834813407904
 10
-171.6516082142328
 20
190.3908036745533
 30
23.14840420776261
 10
-171.6030001758165
 20
190.3689497821975
 30
23.16102155839713
 10
-171.5102685692884
 20
190.3359623554761
 30
23.18006685809462
 10
-171.4575632271078
 20
190.321844089425
 30
23.18821804279969
 10
-171.3499049290045
 20
190.3034717859969
 30
23.19882529712947
 10
-171.2949523073051
 20
190.2992162797848
 30
23.20128221478649
 10
-171.2446428259721
 20
190.2992162797848
 30
23.20128221478649
1001
ACAD_VIEW_EDGE_ID
1071
        0
1071
       -1
1071
        3
1071
        0
  0
LINE
  5
166
330
70
100
AcDbEntity
  8
Visibile
100
AcDbLine
 10
-172.056191
 20
191.251844
 30
22.651282
 11
-172.056191
 21
190.992037
 31
22.801282
210
0.0
220
1.0
230
0.0
  0
SPLINE
  5
167
330
70
100
AcDbEntity
  8
Visibile
100
AcDbSpline
210
-0.0000000000434869
220
0.4999999999998592
230
0.8660254037845199
 70
     8
 71
     3
 72
     8
 73
     4
 74
     0
 42
0.000000001
 43
0.0000000001
 40
-0.0264910931650282
 40
-0.0264910931650282
 40
-0.0264910931650282
 40
-0.0264910931650282
 40
0.0
 40
0.0
 40
0.0
 40
0.0
 10
-172.0520869319043
 20
191.2759964909321
 30
22.63733789694175
 10
-172.0546895067616
 20
191.2681088561379
 30
22.64189182501332
 10
-172.0561905817158
 20
191.2594915438327
 30
22.64686703259235
 10
-172.0561905817158
 20
191.2518442239477
 30
22.65128221478653
1001
ACAD_VIEW_EDGE_ID
1071
        2
1071
       -1
1071
        3
1071
        0
  0
SPLINE
  5
168
330
70
100
AcDbEntity
  8
Visibile
100
AcDbSpline
210
-0.0000000000509611
220
-0.5000000000012528
230
-0.8660254037837153
 70
     8
 71
     3
 72
     8
 73
     4
 74
     0
 42
0.000000001
 43
0.0000000001
 40
0.0
 40
0.0
 40
0.0
 40
0.0
 40
0.0264910931650248
 40
0.0264910931650248
 40
0.0264910931650248
 40
0.0264910931650248
 10
-157.1615974750468
 20
191.2518442239477
 30
22.65128221478653
 10
-157.1615974750468
 20
191.2594915438326
 30
22.64686703259235
 10
-157.1630985500009
 20
191.2681088561379
 30
22.64189182501332
 10
-157.1657011248583
 20
191.2759964909321
 30
22.63733789694175
1001
ACAD_VIEW_EDGE_ID
1071
        4
1071
       -1
1071
        3
1071
        0
  0
LINE
  5
169
330
70
100
AcDbEntity
  8
Visibile
100
AcDbLine
 10
-157.161597
 20
190.992037
 30
22.801282
 11
-157.161597
 21
191.251844
 31
22.651282
210
0.0
220
1.0
230
0.0
  0
SPLINE
  5
16A
330
70
100
AcDbEntity
  8
Visibile
100
AcDbSpline
210
0.0000000000002493
220
-0.5000000000000845
230
-0.8660254037843898
 70
     8
 71
     3
 72
    22
 73
    18
 74
     0
 42
0.000000001
 43
0.0000000001
 40
-1.19334059072139
 40
-1.19334059072139
 40
-1.19334059072139
 40
-1.19334059072139
 40
-1.042412146722559
 40
-1.042412146722559
 40
-0.8914837027237272
 40
-0.8914837027237272
 40
-0.7416624143806319
 40
-0.7416624143806319
 40
-0.5918411260375365
 40
-0.5918411260375365
 40
-0.4433402488428389
 40
-0.4433402488428389
 40
-0.2948393716481421
 40
-0.2948393716481421
 40
-0.1474196858240706
 40
-0.1474196858240706
 40
0.0
 40
0.0
 40
0.0
 40
0.0
 10
-157.9731452307903
 20
190.2992162797848
 30
23.20128221478649
 10
-157.9228357494573
 20
190.2992162797848
 30
23.20128221478649
 10
-157.8678831277581
 20
190.3034717859969
 30
23.19882529712947
 10
-157.7602248296547
 20
190.321844089425
 30
23.18821804279969
 10
-157.7075194874742
 20
190.3359623554761
 30
23.18006685809462
 10
-157.6147878809461
 20
190.3689497821975
 30
23.16102155839713
 10
-157.5661798425299
 20
190.3908036745533
 30
23.14840420776261
 10
-157.4753544854754
 20
190.4428623212492
 30
23.11834813407904
 10
-157.4331394304893
 20
190.4730700375292
 30
23.10090770095326
 10
-157.362519643684
 20
190.533699874694
 30
23.06590304814517
 10
-157.3275472593881
 20
190.5696540019911
 30
23.0451449230718
 10
-157.2671835082083
 20
190.6471516956046
 30
23.00040160880246
 10
-157.2417955398939
 20
190.6886972472659
 30
22.97641527336714
 10
-157.2037788700621
 20
190.7675227798
 30
22.93090533093959
 10
-157.1875858196803
 20
190.8120314914698
 30
22.90520821427572
 10
-157.1664942908979
 20
190.9030100596197
 30
22.85268171346388
 10
-157.1615974750468
 20
190.9494802051652
 30
22.82585216242399
 10
-157.1615974750468
 20
190.9920366028123
 30
22.80128221478651
1001
ACAD_VIEW_EDGE_ID
1071
        6
1071
       -1
1071
        3
1071
        0
  0
LINE
  5
16B
330
70
100
AcDbEntity
  8
Visibile
100
AcDbLine
 10
-171.244643
 20
190.299216
 30
23.201282
 11
-157.973145
 21
190.299216
 31
23.201282
210
0.0
220
1.0
230
0.0
  0
SPLINE
  5
16C
330
70
100
AcDbEntity
  8
Visibile
100
AcDbSpline
210
-1.0
220
-0.0000000000426224
230
-0.000000000044196
 70
     8
 71
     3
 72
    12
 73
     8
 74
     0
 42
0.000000001
 43
0.0000000001
 40
0.0527492892597755
 40
0.0527492892597755
 40
0.0527492892597755
 40
0.0527492892597755
 40
0.0800197396324229
 40
0.0800197396324229
 40
0.1189597240346465
 40
0.1189597240346465
 40
0.1577280051102144
 40
0.1577280051102144
 40
0.1577280051102144
 40
0.1577280051102144
 10
-164.6088940283796
 20
196.8016320350038
 30
32.09096157097417
 10
-164.6088940283801
 20
196.8016320292981
 30
32.10001583700114
 10
-164.6088940283809
 20
196.8004152680016
 30
32.10904715646473
 10
-164.6088940283811
 20
196.7945345688979
 30
32.13031617322622
 10
-164.6088940283813
 20
196.7886838312406
 30
32.14203372785608
 10
-164.6088940283813
 20
196.7728455520619
 30
32.16252149423701
 10
-164.6088940283813
 20
196.7630321590102
 30
32.17110229909554
 10
-164.6088940283813
 20
196.7518442239477
 30
32.17756165641538
1001
ACAD_VIEW_EDGE_ID
1071
       22
1071
       -1
1071
        3
1071
        0
  0
LINE
  5
16D
330
70
100
AcDbEntity
  8
Visibile
100
AcDbLine
 10
-164.608894
 20
196.492037
 30
32.327562
 11
-164.608894
 21
196.751844
 31
32.177562
210
0.0
220
1.0
230
0.0
  0
SPLINE
  5
16E
330
70
100
AcDbEntity
  8
Visibile
100
AcDbSpline
210
1.0
220
-0.0000000000016432
230
0.0000000000060262
 70
     8
 71
     3
 72
    18
 73
    14
 74
     0
 42
0.000000001
 43
0.0000000001
 40
-0.0012823497244136
 40
-0.0012823497244136
 40
-0.0012823497244136
 40
-0.0012823497244136
 40
0.0
 40
0.0
 40
0.1643096311255071
 40
0.1643096311255071
 40
0.3284836810377405
 40
0.3284836810377405
 40
0.642738407319815
 40
0.642738407319815
 40
0.9542421923065401
 40
0.9542421923065401
 40
1.264393253369504
 40
1.264393253369504
 40
1.264393253369504
 40
1.264393253369504
 10
-164.6088940283813
 20
195.395681379833
 30
32.02861870707159
 10
-164.6088940283813
 20
195.395895104787
 30
32.02898888955088
 10
-164.6088940283811
 20
195.396109121018
 30
32.02935890378933
 10
-164.6088940283835
 20
195.4237829846046
 30
32.07711769540515
 10
-164.6088940283814
 20
195.4559545739964
 30
32.12162353306383
 10
-164.6088940283813
 20
195.528710757321
 30
32.20344943768566
 10
-164.6088940283973
 20
195.5691113482212
 30
32.2405762411513
 10
-164.6088940283911
 20
195.696829280945
 30
32.33607448573662
 10
-164.6088940283828
 20
195.7920954997373
 30
32.38195917210226
 10
-164.6088940283823
 20
195.9939643742124
 30
32.43434164124471
 10
-164.6088940283813
 20
196.0985396809951
 30
32.44067866368709
 10
-164.6088940283813
 20
196.3038295444534
 30
32.41290290747395
 10
-164.6088940283813
 20
196.4025333523156
 30
32.37923638218297
 10
-164.6088940283813
 20
196.4920366028123
 30
32.32756165641536
1001
ACAD_VIEW_EDGE_ID
1071
       40
1071
       -1
1071
        3
1071
        0
  0
SPLINE
  5
16F
330
70
100
AcDbEntity
  8
Visibile
100
AcDbSpline
 70
     0
 71
     3
 72
    16
 73
    12
 74
     0
 42
0.000000001
 43
0.0000000001
 40
6.077718999878126
 40
6.077718999878126
 40
6.077718999878126
 40
6.077718999878126
 40
6.085092090855701
 40
6.085092090855701
 40
6.092465181833276
 40
6.092465181833276
 40
6.099838272810851
 40
6.099838272810851
 40
6.107211363788426
 40
6.107211363788426
 40
6.114584454766003
 40
6.114584454766003
 40
6.114584454766003
 40
6.114584454766003
 10
-158.7294419064186
 20
195.4077277923682
 30
29.78284620710577
 10
-158.6150496494554
 20
195.1332838545182
 30
29.30819396359516
 10
-158.5026799113535
 20
194.8586266830691
 30
28.83317704166393
 10
-158.2819917500158
 20
194.3089008612037
 30
27.88243966384243
 10
-158.173673326806
 20
194.0338322108091
 30
27.40671920799901
 10
-157.9610938523203
 20
193.483298450638
 30
26.45460062357552
 10
-157.8568328010702
 20
193.2078333408844
 30
25.9782024950423
 10
-157.6523739066624
 20
192.6565217122241
 30
25.02475446330072
 10
-157.5521760635311
 20
192.3806751933415
 30
24.54770456013944
 10
-157.355849199825
 20
191.8286158265942
 30
23.59297891263555
 10
-157.2597201792766
 20
191.5524029787546
 30
23.11530316834001
 10
-157.1656282659951
 20
191.2760145211132
 30
22.63732748721168
1001
ACAD_VIEW_EDGE_ID
1071
    -2049
1071
       -1
1071
        3
1071
        0
  0
SPLINE
  5
170
330
70
100
AcDbEntity
  8
Visibile
100
AcDbSpline
 70
     0
 71
     3
 72
    16
 73
    12
 74
     0
 42
0.000000001
 43
0.0000000001
 40
3.310193506003376
 40
3.310193506003376
 40
3.310193506003376
 40
3.310193506003376
 40
3.317566596980951
 40
3.317566596980951
 40
3.324939687958527
 40
3.324939687958527
 40
3.332312778936102
 40
3.332312778936102
 40
3.339685869913678
 40
3.339685869913678
 40
3.347058960891253
 40
3.347058960891253
 40
3.347058960891253
 40
3.347058960891253
 10
-172.0521597907675
 20
191.2760145211132
 30
22.63732748721168
 10
-171.9580678774858
 20
191.5524029787546
 30
23.11530316833989
 10
-171.8619388569375
 20
191.828615826594
 30
23.59297891263532
 10
-171.6656119932315
 20
192.3806751933413
 30
24.5477045601391
 10
-171.5654141501002
 20
192.656521712224
 30
25.02475446330038
 10
-171.3609552556925
 20
193.2078333408842
 30
25.97820249504195
 10
-171.2566942044425
 20
193.4832984506379
 30
26.45460062357529
 10
-171.0441147299565
 20
194.033832210809
 30
27.40671920799901
 10
-170.9357963067468
 20
194.3089008612036
 30
27.88243966384221
 10
-170.7151081454092
 20
194.8586266830691
 30
28.8331770416637
 10
-170.6027384073071
 20
195.1332838545181
 30
29.30819396359516
 10
-170.4883461503439
 20
195.4077277923682
 30
29.78284620710553
1001
ACAD_VIEW_EDGE_ID
1071
    -6145
1071
       -1
1071
        3
1071
        0
  0
SPLINE
  5
171
330
70
100
AcDbEntity
  8
Visibile
100
AcDbSpline
 70
     0
 71
     3
 72
    16
 73
    12
 74
     0
 42
0.000000001
 43
0.0000000001
 40
4.842578514602458
 40
4.842578514602458
 40
4.842578514602458
 40
4.842578514602458
 40
4.886595852376355
 40
4.886595852376355
 40
4.930613190150252
 40
4.930613190150252
 40
4.974630527924149
 40
4.974630527924149
 40
5.018647865698046
 40
5.018647865698046
 40
5.062665203471942
 40
5.062665203471942
 40
5.062665203471942
 40
5.062665203471942
 10
-164.6088940283813
 20
196.8016320439905
 30
32.09096157097417
 10
-164.3062771912907
 20
196.781821218139
 30
32.05673228359035
 10
-164.0045277481656
 20
196.7586794554028
 30
32.01674830417676
 10
-163.4033448469651
 20
196.7057781227042
 30
31.92534840878284
 10
-163.1039114267248
 20
196.6760185565583
 30
31.87393249852016
 10
-162.5079373038286
 20
196.6099382659164
 30
31.75976834358471
 10
-162.2113966386566
 20
196.5736175462144
 30
31.69702010605409
 10
-161.6217790875286
 20
196.4944840448516
 30
31.56031285188624
 10
-161.3287022386202
 20
196.4516712689715
 30
31.48635384380191
 10
-160.7465765924358
 20
196.3596350405796
 30
31.32736832150067
 10
-160.4575278316824
 20
196.310411594847
 30
31.24234181723034
 10
-160.170771286389
 20
196.2580295537567
 30
31.15186391644011
1001
ACAD_VIEW_EDGE_ID
1071
   -10241
1071
       -1
1071
        3
1071
        0
  0
SPLINE
  5
172
330
70
100
AcDbEntity
  8
Visibile
100
AcDbSpline
 70
     0
 71
     3
 72
    16
 73
    12
 74
     0
 42
0.000000001
 43
0.0000000001
 40
5.06266520347194
 40
5.06266520347194
 40
5.06266520347194
 40
5.06266520347194
 40
5.265675962753177
 40
5.265675962753177
 40
5.468686722034414
 40
5.468686722034414
 40
5.671697481315651
 40
5.671697481315651
 40
5.874708240596888
 40
5.874708240596888
 40
6.077718999878126
 40
6.077718999878126
 40
6.077718999878126
 40
6.077718999878126
 10
-160.170771286389
 20
196.2580295537567
 30
31.15186391644011
 10
-160.0304631234255
 20
196.2323993525345
 30
31.10862622370053
 10
-159.895085856588
 20
196.1995787730643
 30
31.05333563605995
 10
-159.6393618230728
 20
196.1206064715309
 30
30.92091338233411
 10
-159.5190197663342
 20
196.074462485553
 30
30.84378545764344
 10
-159.2979013749885
 20
195.9701576882733
 30
30.67085518479974
 10
-159.1971189401145
 20
195.9120073329702
 30
30.57505772253524
 10
-159.0189875677488
 20
195.7849767509019
 30
30.36872202577422
 10
-158.9416057213859
 20
195.7160884158188
 30
30.25818962098743
 10
-158.8139991750528
 20
195.5686760713192
 30
30.0269231236673
 10
-158.7637546219955
 20
195.4900490703222
 30
29.906195565227
 10
-158.7294419064186
 20
195.4077277923682
 30
29.78284620710553
1001
ACAD_VIEW_EDGE_ID
1071
   -12289
1071
       -1
1071
        3
1071
        0
  0
SPLINE
  5
173
330
70
100
AcDbEntity
  8
Visibile
100
AcDbSpline
 70
     0
 71
     3
 72
    16
 73
    12
 74
     0
 42
0.000000001
 43
0.0000000001
 40
3.347058960891252
 40
3.347058960891252
 40
3.347058960891252
 40
3.347058960891252
 40
3.550069720172489
 40
3.550069720172489
 40
3.753080479453726
 40
3.753080479453726
 40
3.956091238734963
 40
3.956091238734963
 40
4.1591019980162
 40
4.1591019980162
 40
4.362112757297436
 40
4.362112757297436
 40
4.362112757297436
 40
4.362112757297436
 10
-170.4883461503439
 20
195.4077277923682
 30
29.78284620710553
 10
-170.454033434767
 20
195.4900490703222
 30
29.906195565227
 10
-170.4037888817098
 20
195.5686760713192
 30
30.0269231236673
 10
-170.2761823353767
 20
195.7160884158188
 30
30.25818962098743
 10
-170.1988004890138
 20
195.7849767509019
 30
30.36872202577422
 10
-170.020669116648
 20
195.9120073329702
 30
30.57505772253524
 10
-169.9198866817742
 20
195.9701576882733
 30
30.67085518479974
 10
-169.6987682904284
 20
196.074462485553
 30
30.84378545764344
 10
-169.5784262336898
 20
196.1206064715309
 30
30.92091338233411
 10
-169.3227022001745
 20
196.1995787730643
 30
31.05333563605995
 10
-169.187324933337
 20
196.2323993525345
 30
31.10862622370053
 10
-169.0470167703736
 20
196.2580295537567
 30
31.15186391644011
1001
ACAD_VIEW_EDGE_ID
1071
   -14337
1071
       -1
1071
        3
1071
        0
  0
SPLINE
  5
174
330
70
100
AcDbEntity
  8
Visibile
100
AcDbSpline
 70
     0
 71
     3
 72
    16
 73
    12
 74
     0
 42
0.000000001
 43
0.0000000001
 40
4.362112757297436
 40
4.362112757297436
 40
4.362112757297436
 40
4.362112757297436
 40
4.406130095071334
 40
4.406130095071334
 40
4.450147432845231
 40
4.450147432845231
 40
4.494164770619128
 40
4.494164770619128
 40
4.538182108393025
 40
4.538182108393025
 40
4.582199446166921
 40
4.582199446166921
 40
4.582199446166921
 40
4.582199446166921
 10
-169.0470167703736
 20
196.2580295537567
 30
31.15186391644011
 10
-168.7602602250801
 20
196.310411594847
 30
31.24234181723034
 10
-168.4712114643267
 20
196.3596350405796
 30
31.32736832150067
 10
-167.8890858181423
 20
196.4516712689715
 30
31.48635384380191
 10
-167.596008969234
 20
196.4944840448516
 30
31.56031285188624
 10
-167.0063914181058
 20
196.5736175462144
 30
31.69702010605409
 10
-166.7098507529339
 20
196.6099382659164
 30
31.75976834358471
 10
-166.1138766300377
 20
196.6760185565583
 30
31.87393249852016
 10
-165.8144432097975
 20
196.7057781227042
 30
31.92534840878284
 10
-165.2132603085969
 20
196.7586794554028
 30
32.01674830417676
 10
-164.9115108654718
 20
196.781821218139
 30
32.05673228359035
 10
-164.6088940283813
 20
196.8016320439905
 30
32.09096157097417
1001
ACAD_VIEW_EDGE_ID
1071
   -16385
1071
       -1
1071
        3
1071
        0
  0
ARC
  5
175
330
70
100
AcDbEntity
  8
Visibile
100
AcDbCircle
 10
185.76768
 20
656.705312
 30
-11.157866
 40
611.6145793552503
100
AcDbArc
 50
262.754509
 51
277.246432
  0
ARC
  5
176
330
70
100
AcDbEntity
  8
Visibile
100
AcDbCircle
 10
119.183263
 20
1180.362079
 30
-11.157866
 40
1139.487569922496
100
AcDbArc
 50
277.246432
 51
279.659947
  0
ARC
  5
177
330
70
100
AcDbEntity
  8
Visibile
100
AcDbCircle
 10
122.180727
 20
156.556599
 30
-11.157866
 40
107.4399710039617
100
AcDbArc
 50
216.410491
 51
262.754509
  0
LINE
  5
178
330
70
100
AcDbEntity
  8
Visibile
100
AcDbLine
 10
310.389596
 20
130.997061
 30
-10.657866
 11
310.389596
 21
57.538485
 31
-10.657866
  0
ARC
  5
179
330
70
100
AcDbEntity
  8
Visibile
100
AcDbCircle
 10
185.76768
 20
-468.169766
 30
-11.157866
 40
611.614579355258
100
AcDbArc
 50
82.753568
 51
97.245491
  0
ARC
  5
17A
330
70
100
AcDbEntity
  8
Visibile
100
AcDbCircle
 10
122.180727
 20
31.978947
 30
-11.157866
 40
107.4399710039616
100
AcDbArc
 50
97.245491
 51
143.589509
  0
ARC
  5
17B
330
70
100
AcDbEntity
  8
Visibile
100
AcDbCircle
 10
37.726599
 20
94.267773
 30
-11.157866
 40
2.500000000000038
100
AcDbArc
 50
143.589509
 51
216.410491
  0
SPLINE
  5
17C
330
70
100
AcDbEntity
  8
Visibile
100
AcDbSpline
210
1.0
220
0.0
230
0.0
 70
     8
 71
     3
 72
    14
 73
    10
 74
     0
 42
0.000000001
 43
0.0000000001
 40
-0.1491637034681668
 40
-0.1491637034681668
 40
-0.1491637034681668
 40
-0.1491637034681668
 40
-0.1114352335821773
 40
-0.1114352335821773
 40
-0.0739807593182752
 40
-0.0739807593182752
 40
-0.036855243419168
 40
-0.036855243419168
 40
0.0
 40
0.0
 40
0.0
 40
0.0
 10
310.3895961733688
 20
57.53848505018322
 30
-10.65786592746867
 10
310.3895961733688
 20
57.47560426703967
 30
-10.65786592746867
 10
310.3895961733688
 20
57.40156769843633
 30
-10.67243769020162
 10
310.3895961733688
 20
57.28566051175767
 30
-10.72004907301733
 10
310.3895961733688
 20
57.22317048404239
 30
-10.76135702631649
 10
310.3895961733688
 20
57.13489677006873
 30
-10.84886838183898
 10
310.3895961733688
 20
57.09333856676676
 30
-10.91039993034412
 10
310.3895961733688
 20
57.04581720397072
 30
-11.02417568417325
 10
310.3895961733688
 20
57.0312903627082
 30
-11.09644052177006
 10
310.3895961733688
 20
57.0312903627082
 30
-11.15786592746867
1001
ACAD_VIEW_EDGE_ID
1071
       37
1071
       -1
1071
        2
1071
        0
  0
SPLINE
  5
17D
330
70
100
AcDbEntity
  8
Visibile
100
AcDbSpline
210
1.0
220
0.0
230
0.0
 70
     8
 71
     3
 72
    14
 73
    10
 74
     0
 42
0.000000001
 43
0.0000000001
 40
0.0
 40
0.0
 40
0.0
 40
0.0
 40
0.0368552434191637
 40
0.0368552434191637
 40
0.073980759318264
 40
0.073980759318264
 40
0.1114352335821924
 40
0.1114352335821924
 40
0.1491637034681536
 40
0.1491637034681536
 40
0.1491637034681536
 40
0.1491637034681536
 10
310.3895961733688
 20
131.5042558960531
 30
-11.15786592746867
 10
310.3895961733688
 20
131.5042558960531
 30
-11.09644052177007
 10
310.3895961733688
 20
131.4897290547906
 30
-11.02417568417329
 10
310.3895961733688
 20
131.4422076919945
 30
-10.91039993034418
 10
310.3895961733688
 20
131.4006494886926
 30
-10.84886838183897
 10
310.3895961733688
 20
131.3123757747189
 30
-10.76135702631646
 10
310.3895961733688
 20
131.2498857470036
 30
-10.7200490730173
 10
310.3895961733688
 20
131.133978560325
 30
-10.67243769020162
 10
310.3895961733688
 20
131.0599419917216
 30
-10.65786592746867
 10
310.3895961733688
 20
130.9970612085781
 30
-10.65786592746867
1001
ACAD_VIEW_EDGE_ID
1071
       44
1071
       -1
1071
        2
1071
        0
  0
ARC
  5
17E
330
70
100
AcDbEntity
  8
Visibile
100
AcDbCircle
 10
119.183263
 20
-991.826533
 30
-11.157866
 40
1139.487569922596
100
AcDbArc
 50
80.340053
 51
82.753568
  0
SPLINE
  5
17F
330
70
100
AcDbEntity
  8
Visibile
100
AcDbSpline
210
0.8660254037849808
220
-0.0000000000448304
230
0.4999999999990607
 70
     8
 71
     3
 72
     8
 73
     4
 74
     0
 42
0.000000001
 43
0.0000000001
 40
0.0
 40
0.0
 40
0.0
 40
0.0
 40
0.0744106913851685
 40
0.0744106913851685
 40
0.0744106913851685
 40
0.0744106913851685
 10
311.3895961733688
 20
57.0312903627082
 30
-12.38991673503756
 10
311.451605082857
 20
57.0312903627082
 30
-12.49731931679209
 10
311.5164924638939
 20
57.03752833575072
 30
-12.60970755751906
 10
311.5824412660149
 20
57.05048790160344
 30
-12.72393423349016
1001
ACAD_VIEW_EDGE_ID
1071
        0
1071
       -1
1071
        3
1071
        0
  0
LINE
  5
180
330
70
100
AcDbEntity
  8
Visibile
100
AcDbLine
 10
310.639596
 20
57.03129
 30
-11.090879
 11
311.389596
 21
57.03129
 31
-12.389917
  0
SPLINE
  5
181
330
70
100
AcDbEntity
  8
Visibile
100
AcDbSpline
210
0.8660254037858479
220
0.0000000000028156
230
0.4999999999975591
 70
     8
 71
     3
 72
    14
 73
    10
 74
     0
 42
0.000000001
 43
0.0000000001
 40
-0.1491637034681668
 40
-0.1491637034681668
 40
-0.1491637034681668
 40
-0.1491637034681668
 40
-0.1114352335821773
 40
-0.1114352335821773
 40
-0.0739807593182752
 40
-0.0739807593182752
 40
-0.036855243419168
 40
-0.036855243419168
 40
0.0
 40
0.0
 40
0.0
 40
0.0
 10
310.3895961733688
 20
57.53848505018322
 30
-10.65786592746868
 10
310.3895961733688
 20
57.47560426703967
 30
-10.65786592746868
 10
310.3968820547352
 20
57.40156769843633
 30
-10.67048544417332
 10
310.4206877461438
 20
57.28566051175767
 30
-10.71171811120103
 10
310.4413417227934
 20
57.22317048404239
 30
-10.74749184813645
 10
310.485097400554
 20
57.13489677006873
 30
-10.82327890513854
 10
310.5158631748072
 20
57.09333856676676
 30
-10.87656678927818
 10
310.5727510517218
 20
57.04581720397072
 30
-10.97509948242894
 10
310.6088834705197
 20
57.0312903627082
 30
-11.03768266758813
 10
310.6395961733688
 20
57.0312903627082
 30
-11.0908786293609
1001
ACAD_VIEW_EDGE_ID
1071
        2
1071
       -1
1071
        3
1071
        0
  0
LINE
  5
182
330
70
100
AcDbEntity
  8
Visibile
100
AcDbLine
 10
310.389596
 20
130.997061
 30
-10.657866
 11
310.389596
 21
57.538485
 31
-10.657866
  0
SPLINE
  5
183
330
70
100
AcDbEntity
  8
Visibile
100
AcDbSpline
210
0.8660254037859063
220
-0.0000000000028962
230
0.4999999999974579
 70
     8
 71
     3
 72
    14
 73
    10
 74
     0
 42
0.000000001
 43
0.0000000001
 40
0.0
 40
0.0
 40
0.0
 40
0.0
 40
0.0368552434191637
 40
0.0368552434191637
 40
0.073980759318264
 40
0.073980759318264
 40
0.1114352335821924
 40
0.1114352335821924
 40
0.1491637034681536
 40
0.1491637034681536
 40
0.1491637034681536
 40
0.1491637034681536
 10
310.6395961733688
 20
131.5042558960531
 30
-11.0908786293609
 10
310.6088834705197
 20
131.5042558960531
 30
-11.03768266758814
 10
310.5727510517218
 20
131.4897290547906
 30
-10.97509948242897
 10
310.5158631748072
 20
131.4422076919945
 30
-10.87656678927823
 10
310.485097400554
 20
131.4006494886926
 30
-10.82327890513853
 10
310.4413417227934
 20
131.3123757747189
 30
-10.74749184813643
 10
310.4206877461438
 20
131.2498857470036
 30
-10.71171811120101
 10
310.3968820547352
 20
131.133978560325
 30
-10.67048544417332
 10
310.3895961733688
 20
131.0599419917216
 30
-10.65786592746868
 10
310.3895961733688
 20
130.9970612085781
 30
-10.65786592746868
1001
ACAD_VIEW_EDGE_ID
1071
        4
1071
       -1
1071
        3
1071
        0
  0
LINE
  5
184
330
70
100
AcDbEntity
  8
Visibile
100
AcDbLine
 10
311.389596
 20
131.504256
 30
-12.389917
 11
310.639596
 21
131.504256
 31
-11.090879
  0
SPLINE
  5
185
330
70
100
AcDbEntity
  8
Visibile
100
AcDbSpline
210
-0.8660254037849785
220
-0.0000000000447827
230
-0.4999999999990649
 70
     8
 71
     3
 72
     8
 73
     4
 74
     0
 42
0.000000001
 43
0.0000000001
 40
-0.074410691385169
 40
-0.074410691385169
 40
-0.074410691385169
 40
-0.074410691385169
 40
0.0
 40
0.0
 40
0.0
 40
0.0
 10
311.5824412660149
 20
131.4850583571578
 30
-12.72393423349016
 10
311.5164924638939
 20
131.4980179230106
 30
-12.60970755751906
 10
311.451605082857
 20
131.5042558960531
 30
-12.49731931679209
 10
311.3895961733688
 20
131.5042558960531
 30
-12.38991673503756
1001
ACAD_VIEW_EDGE_ID
1071
        6
1071
       -1
1071
        3
1071
        0
  0
SPLINE
  5
186
330
70
100
AcDbEntity
  8
Visibile
100
AcDbSpline
210
0.0000000000031341
220
-1.0
230
0.0000000000118986
 70
     8
 71
     3
 72
    18
 73
    14
 74
     0
 42
0.000000001
 43
0.0000000001
 40
-0.0004511226627459
 40
-0.0004511226627459
 40
-0.0004511226627459
 40
-0.0004511226627459
 40
0.0
 40
0.0
 40
0.0203755528024429
 40
0.0203755528024429
 40
0.0407373958195845
 40
0.0407373958195845
 40
0.0800197396324229
 40
0.0800197396324229
 40
0.1189597240346465
 40
0.1189597240346465
 40
0.1577280051102144
 40
0.1577280051102144
 40
0.1577280051102144
 40
0.1577280051102144
 10
357.5842848128768
 20
94.26777312938066
 30
16.59000026287167
 10
357.5849359523536
 20
94.26777312938066
 30
16.59037619842395
 10
357.5855879246765
 20
94.26777312938156
 30
16.59075068969285
 10
357.6157253144593
 20
94.2677731293752
 30
16.60797276824537
 10
357.6468270675014
 20
94.26777312938066
 30
16.62182866631178
 10
357.7112983694651
 20
94.26777312938066
 30
16.64311795755059
 10
357.7445117081916
 20
94.2677731293952
 30
16.65050457222049
 10
357.8432207502729
 20
94.26777312938975
 30
16.66225060876529
 10
357.9091277624966
 20
94.26777312938247
 30
16.65731097145051
 10
358.0347659655672
 20
94.26777312938156
 30
16.62257309539029
 10
358.0933537387164
 20
94.26777312938066
 30
16.59331940710371
 10
358.195792570621
 20
94.26777312938066
 30
16.51412801121047
 10
358.2386965949136
 20
94.26777312938066
 30
16.46506104595175
 10
358.2709933815131
 20
94.26777312938066
 30
16.4091213706391
1001
ACAD_VIEW_EDGE_ID
1071
       22
1071
       -1
1071
        3
1071
        0
  0
LINE
  5
187
330
70
100
AcDbEntity
  8
Visibile
100
AcDbLine
 10
359.020993
 20
94.267773
 30
15.110083
 11
358.270993
 21
94.267773
 31
16.409121
  0
SPLINE
  5
188
330
70
100
AcDbEntity
  8
Visibile
100
AcDbSpline
210
-0.0000000000049262
220
1.0
230
-0.0000000000022337
 70
     8
 71
     3
 72
    10
 73
     6
 74
     0
 42
0.000000001
 43
0.0000000001
 40
0.8467447817876651
 40
0.8467447817876651
 40
0.8467447817876651
 40
0.8467447817876651
 40
0.9542421923065401
 40
0.9542421923065401
 40
1.264393253369504
 40
1.264393253369504
 40
1.264393253369504
 40
1.264393253369504
 10
359.5529570556573
 20
94.26777312937884
 30
13.12259579412835
 10
359.5529573998829
 20
94.26777312937975
 30
13.30093360932719
 10
359.5410030366192
 20
94.26777312938066
 30
13.47944506691352
 10
359.4476996368058
 20
94.26777312938066
 30
14.1690479731679
 10
359.2793670103511
 20
94.26777312938066
 30
14.66256701247873
 10
359.0209933815131
 20
94.26777312938066
 30
15.11008326496243
1001
ACAD_VIEW_EDGE_ID
1071
       40
1071
       -1
1071
        3
1071
        0
  0
SPLINE
  5
189
330
70
100
AcDbEntity
  8
Visibile
100
AcDbSpline
 70
     0
 71
     3
 72
    16
 73
    12
 74
     0
 42
0.000000001
 43
0.0000000001
 40
3.310193322650827
 40
3.310193322650827
 40
3.310193322650827
 40
3.310193322650827
 40
3.317566450298912
 40
3.317566450298912
 40
3.324939577946997
 40
3.324939577946997
 40
3.332312705595083
 40
3.332312705595083
 40
3.339685833243168
 40
3.339685833243168
 40
3.347058960891253
 40
3.347058960891253
 40
3.347058960891253
 40
3.347058960891253
 10
311.5824554461897
 20
57.05019926058866
 30
-12.72395879427393
 10
313.9760368951274
 20
57.52065578827114
 30
-11.34839495329436
 10
316.3681096628879
 20
58.00130023455313
 30
-9.973694302373566
 10
321.149107301203
 20
58.98293849723086
 30
-7.226094112907228
 10
323.5380321715102
 20
59.48393231356658
 30
-5.85319457449701
 10
328.3126036606991
 20
60.50624173106825
 30
-3.109271244667006
 10
330.6982502793344
 20
61.02755733217236
 30
-1.73824745338236
 10
335.4661350994947
 20
62.09048161765895
 30
1.001849849552051
 10
337.8483733007751
 20
62.63209030197685
 30
2.370923361066861
 10
342.6093113164579
 20
63.73557093794625
 30
5.107045677839742
 10
344.9880111306157
 20
64.29744288953134
 30
6.474094482963032
 10
347.3648768680905
 20
64.8694310105875
 30
7.840093776681396
1001
ACAD_VIEW_EDGE_ID
1071
   -24577
1071
       -1
1071
        3
1071
        0
  0
SPLINE
  5
18A
330
70
100
AcDbEntity
  8
Visibile
100
AcDbSpline
 70
     0
 71
     3
 72
    16
 73
    12
 74
     0
 42
0.000000001
 43
0.0000000001
 40
3.347058960891252
 40
3.347058960891252
 40
3.347058960891252
 40
3.347058960891252
 40
3.550069720172489
 40
3.550069720172489
 40
3.753080479453725
 40
3.753080479453725
 40
3.956091238734962
 40
3.956091238734962
 40
4.159101998016199
 40
4.159101998016199
 40
4.362112757297436
 40
4.362112757297436
 40
4.362112757297436
 40
4.362112757297436
 10
347.3648768680905
 20
64.8694310105875
 30
7.840093776681442
 10
348.0805450543339
 20
65.04165516893863
 30
8.080240673066306
 10
348.7746642816919
 20
65.29674494905703
 30
8.315283229502668
 10
350.0857455545038
 20
65.95199654583303
 30
8.765532281585738
 10
350.702697397136
 20
66.35193933452865
 30
8.980726056112338
 10
351.8362371927524
 20
67.26965526382628
 30
9.382437730540541
 10
352.3529225924812
 20
67.78730011902007
 30
9.568944280673754
 10
353.2722766540637
 20
68.91253388125278
 30
9.905619468505673
 10
353.6750486468772
 20
69.52008846454191
 30
10.05577859394558
 10
354.3591153870748
 20
70.79898260839218
 30
10.31358936595855
 10
354.6404764931649
 20
71.47033488556644
 30
10.42123372847006
 10
354.8591365597131
 20
72.16143310056395
 30
10.50541250229096
1001
ACAD_VIEW_EDGE_ID
1071
   -26625
1071
       -1
1071
        3
1071
        0
  0
SPLINE
  5
18B
330
70
100
AcDbEntity
  8
Visibile
100
AcDbSpline
 70
     0
 71
     3
 72
    16
 73
    12
 74
     0
 42
0.000000001
 43
0.0000000001
 40
4.362112757297436
 40
4.362112757297436
 40
4.362112757297436
 40
4.362112757297436
 40
4.406059369442674
 40
4.406059369442674
 40
4.450005981587912
 40
4.450005981587912
 40
4.493952593733149
 40
4.493952593733149
 40
4.537899205878387
 40
4.537899205878387
 40
4.581845818023625
 40
4.581845818023625
 40
4.581845818023625
 40
4.581845818023625
 10
354.8591365597131
 20
72.16143310056395
 30
10.50541250229094
 10
355.3113342174011
 20
73.59065151702179
 30
10.7573830206969
 10
355.7362441987452
 20
75.03107200991872
 30
10.99419642962134
 10
356.5307276570493
 20
77.93158832103563
 30
11.43705180210935
 10
356.900301101723
 20
79.39168398936908
 30
11.64309373814506
 10
357.5834499752318
 20
82.32878890038955
 30
12.02400829528147
 10
357.8970253755934
 20
83.80579799090083
 30
12.19888089270457
 10
358.4676172736227
 20
86.77393989837765
 30
12.517119090799
 10
358.7246337469996
 20
88.26507256110653
 30
12.66048467168868
 10
359.1816483216471
 20
91.25864826533325
 30
12.91543199471838
 10
359.381646403127
 20
92.76109115082727
 30
13.0270137210109
 10
359.5529566037831
 20
94.26777312938066
 30
13.12259579412921
1001
ACAD_VIEW_EDGE_ID
1071
   -28673
1071
       -1
1071
        3
1071
        0
  0
SPLINE
  5
18C
330
70
100
AcDbEntity
  8
Visibile
100
AcDbSpline
 70
     0
 71
     3
 72
    16
 73
    12
 74
     0
 42
0.000000001
 43
0.0000000001
 40
4.842932142745755
 40
4.842932142745755
 40
4.842932142745755
 40
4.842932142745755
 40
4.886878754890993
 40
4.886878754890993
 40
4.930825367036231
 40
4.930825367036231
 40
4.974771979181468
 40
4.974771979181468
 40
5.018718591326706
 40
5.018718591326706
 40
5.062665203471942
 40
5.062665203471942
 40
5.062665203471942
 40
5.062665203471942
 10
359.5529566037831
 20
94.26777312938066
 30
13.12259579412922
 10
359.381646403127
 20
95.77445510793404
 30
13.02701372101091
 10
359.1816483216471
 20
97.27689799342806
 30
12.91543199471838
 10
358.7246337469996
 20
100.2704736976548
 30
12.66048467168868
 10
358.4676172736227
 20
101.7616063603836
 30
12.517119090799
 10
357.8970253755934
 20
104.7297482678605
 30
12.19888089270457
 10
357.5834499752318
 20
106.2067573583717
 30
12.02400829528147
 10
356.900301101723
 20
109.1438622693922
 30
11.64309373814506
 10
356.5307276570493
 20
110.6039579377266
 30
11.43705180210935
 10
355.7362441987452
 20
113.5044742488426
 30
10.99419642962135
 10
355.3113342174011
 20
114.9448947417395
 30
10.75738302069692
 10
354.8591365597131
 20
116.3741131581973
 30
10.50541250229097
1001
ACAD_VIEW_EDGE_ID
1071
   -30721
1071
       -1
1071
        3
1071
        0
  0
SPLINE
  5
18D
330
70
100
AcDbEntity
  8
Visibile
100
AcDbSpline
 70
     0
 71
     3
 72
    16
 73
    12
 74
     0
 42
0.000000001
 43
0.0000000001
 40
5.062665203471942
 40
5.062665203471942
 40
5.062665203471942
 40
5.062665203471942
 40
5.265675962753179
 40
5.265675962753179
 40
5.468686722034416
 40
5.468686722034416
 40
5.671697481315653
 40
5.671697481315653
 40
5.87470824059689
 40
5.87470824059689
 40
6.077718999878126
 40
6.077718999878126
 40
6.077718999878126
 40
6.077718999878126
 10
354.8591365597131
 20
116.3741131581973
 30
10.50541250229095
 10
354.6404764931649
 20
117.0652113731948
 30
10.42123372847006
 10
354.3591153870748
 20
117.7365636503691
 30
10.31358936595854
 10
353.6750486468772
 20
119.0154577942194
 30
10.05577859394558
 10
353.2722766540637
 20
119.6230123775085
 30
9.905619468505669
 10
352.3529225924812
 20
120.7482461397412
 30
9.568944280673751
 10
351.8362371927524
 20
121.265890994935
 30
9.38243773054053
 10
350.702697397136
 20
122.1836069242326
 30
8.980726056112327
 10
350.0857455545038
 20
122.5835497129283
 30
8.765532281585734
 10
348.7746642816919
 20
123.2388013097043
 30
8.315283229502661
 10
348.0805450543339
 20
123.4938910898227
 30
8.080240673066306
 10
347.3648768680905
 20
123.6661152481738
 30
7.840093776681442
1001
ACAD_VIEW_EDGE_ID
1071
   -32769
1071
       -1
1071
        3
1071
        0
  0
SPLINE
  5
18E
330
70
100
AcDbEntity
  8
Visibile
100
AcDbSpline
 70
     0
 71
     3
 72
    16
 73
    12
 74
     0
 42
0.000000001
 43
0.0000000001
 40
6.077718999878126
 40
6.077718999878126
 40
6.077718999878126
 40
6.077718999878126
 40
6.085092127526211
 40
6.085092127526211
 40
6.092465255174296
 40
6.092465255174296
 40
6.099838382822381
 40
6.099838382822381
 40
6.107211510470467
 40
6.107211510470467
 40
6.114584638118551
 40
6.114584638118551
 40
6.114584638118551
 40
6.114584638118551
 10
347.3648768680905
 20
123.6661152481738
 30
7.840093776681591
 10
344.9880111306165
 20
124.23810336923
 30
6.474094482963145
 10
342.6093113164579
 20
124.799975320815
 30
5.107045677839785
 10
337.8483733007751
 20
125.9034559567835
 30
2.370923361066825
 10
335.4661350994947
 20
126.4450646411023
 30
1.001849849551998
 10
330.6982502793344
 20
127.5079889265889
 30
-1.738247453382413
 10
328.3126036606982
 20
128.029304527693
 30
-3.109271244667041
 10
323.5380321715102
 20
129.0516139451947
 30
-5.853194574497045
 10
321.149107301203
 20
129.5526077615304
 30
-7.226094112907265
 10
316.3681096628879
 20
130.5342460242073
 30
-9.973694302373436
 10
313.9760368951274
 20
131.0148904704901
 30
-11.34839495329408
 10
311.5824554461906
 20
131.4853469981726
 30
-12.72395879427349
1001
ACAD_VIEW_EDGE_ID
1071
   -34817
1071
       -1
1071
        3
1071
        0
  0
LINE
  5
18F
330
70
100
AcDbEntity
  8
Visibile
100
AcDbLine
 10
310.389596
 20
196.076656
 30
37.236483
 11
310.389596
 21
194.576656
 31
37.236483
210
0.0
220
1.0
230
0.0000000000002967
  0
ARC
  5
190
330
70
100
AcDbEntity
  8
Visibile
100
AcDbCircle
 10
-185.76768
 20
-562.437539
 30
190.576656
 40
607.6145793552548
210
0.0
220
1.0
230
0.0000000000002967
100
AcDbArc
 50
82.754509
 51
97.246432
  0
ARC
  5
191
330
70
100
AcDbEntity
  8
Visibile
100
AcDbCircle
 10
-122.180727
 20
-62.288826
 30
190.576656
 40
103.4399710039617
210
0.0
220
1.0
230
0.0000000000002967
100
AcDbArc
 50
37.025734
 51
82.754509
  0
ARC
  5
192
330
70
100
AcDbEntity
  8
Visibile
100
AcDbCircle
 10
37.726599
 20
0.0
 30
-196.576656
 40
1.999999999999666
210
0.0
220
-1.0
230
-0.0000000000002967
100
AcDbArc
 50
143.589509
 51
180.0
  0
ARC
  5
193
330
70
100
AcDbEntity
  8
Visibile
100
AcDbCircle
 10
122.180727
 20
-62.288826
 30
-196.576656
 40
106.9399710039615
210
0.0
220
-1.0
230
-0.0000000000002967
100
AcDbArc
 50
97.245491
 51
143.589509
  0
ARC
  5
194
330
70
100
AcDbEntity
  8
Visibile
100
AcDbCircle
 10
185.76768
 20
-562.437539
 30
-196.576656
 40
611.1145793552577
210
0.0
220
-1.0
230
-0.0000000000002967
100
AcDbArc
 50
82.753568
 51
97.245491
  0
ARC
  5
195
330
70
100
AcDbEntity
  8
Visibile
100
AcDbCircle
 10
119.183263
 20
-1086.094306
 30
-196.576656
 40
1138.987569921399
210
0.0
220
-1.0
230
-0.0000000000002967
100
AcDbArc
 50
80.335772
 51
82.753568
  0
SPLINE
  5
196
330
70
100
AcDbEntity
  8
Visibile
100
AcDbSpline
210
1.0
220
0.0
230
0.0
 70
     8
 71
     3
 72
    14
 73
    10
 74
     0
 42
0.000000001
 43
0.0000000001
 40
-0.1491637034681668
 40
-0.1491637034681668
 40
-0.1491637034681668
 40
-0.1491637034681668
 40
-0.1114352335821773
 40
-0.1114352335821773
 40
-0.0739807593182752
 40
-0.0739807593182752
 40
-0.036855243419168
 40
-0.036855243419168
 40
0.0
 40
0.0
 40
0.0
 40
0.0
 10
310.389596173367
 20
196.576655925592
 30
36.72928807919561
 10
310.389596173367
 20
196.576655925592
 30
36.79216886233917
 10
310.389596173367
 20
196.5620841628591
 30
36.8662054309425
 10
310.389596173367
 20
196.5144727800433
 30
36.98211261762117
 10
310.389596173367
 20
196.4731648267441
 30
37.04460264533646
 10
310.389596173367
 20
196.3856534712216
 30
37.1328763593101
 10
310.389596173367
 20
196.3241219227164
 30
37.17443456261208
 10
310.389596173367
 20
196.2103461688873
 30
37.22195592540811
 10
310.389596173367
 20
196.1380813312905
 30
37.23648276667063
 10
310.389596173367
 20
196.0766559255919
 30
37.23648276667063
1001
ACAD_VIEW_EDGE_ID
1071
       37
1071
       -1
1071
        2
1071
        0
  0
SPLINE
  5
197
330
70
100
AcDbEntity
  8
Visibile
100
AcDbSpline
210
1.0
220
0.0
230
0.0
 70
     8
 71
     3
 72
    22
 73
    18
 74
     0
 42
0.000000001
 43
0.0000000001
 40
0.0
 40
0.0
 40
0.0
 40
0.0
 40
0.1474196858240819
 40
0.1474196858240819
 40
0.2948393716481639
 40
0.2948393716481639
 40
0.4433402488428549
 40
0.4433402488428549
 40
0.5918411260375458
 40
0.5918411260375458
 40
0.7416624143806519
 40
0.7416624143806519
 40
0.8914837027237577
 40
0.8914837027237577
 40
1.042412146722575
 40
1.042412146722575
 40
1.193340590721393
 40
1.193340590721393
 40
1.193340590721393
 40
1.193340590721393
 10
310.389596173367
 20
194.5766559255919
 30
37.23648276666973
 10
310.389596173367
 20
194.3309564492184
 30
37.23648276666973
 10
310.389596173367
 20
194.062660938819
 30
37.21199868741405
 10
310.389596173367
 20
193.5373959307003
 30
37.10654104350306
 10
310.389596173367
 20
193.280424764062
 30
37.02557579159293
 10
310.389596173367
 20
192.8253253397862
 30
36.83549244243386
 10
310.389596173367
 20
192.5854619854336
 30
36.70855260086228
 10
310.389596173367
 20
192.1380288427404
 30
36.40673384496404
 10
310.389596173367
 20
191.9304475920058
 30
36.23187192348269
 10
310.389596173367
 20
191.5804010639259
 30
35.87877298945751
 10
310.389596173367
 20
191.4059967326672
 30
35.66769771452527
 10
310.389596173367
 20
191.1054359958318
 30
35.21357092925427
 10
310.389596173367
 20
190.9792624894876
 30
34.97053073717234
 10
310.389596173367
 20
190.7888094925132
 30
34.50687270453182
 10
310.389596173367
 20
190.707297645462
 30
34.24334599362919
 10
310.389596173367
 20
190.6012251021638
 30
33.70505450311248
 10
310.389596173367
 20
190.576655925593
 30
33.43029139461578
 10
310.389596173367
 20
190.5766559255931
 30
33.17874398795084
1001
ACAD_VIEW_EDGE_ID
1071
       46
1071
       -1
1071
        2
1071
        0
  0
ARC
  5
198
330
70
100
AcDbEntity
  8
Visibile
100
AcDbCircle
 10
-119.183263
 20
-1086.094306
 30
190.576656
 40
1135.487569921767
210
0.0
220
1.0
230
0.0000000000002967
100
AcDbArc
 50
97.246432
 51
99.694304
  0
SPLINE
  5
199
330
70
100
AcDbEntity
  8
Visibile
100
AcDbSpline
210
-0.000000000000124
220
-0.0000000000003741
230
1.0
 70
     8
 71
     3
 72
    18
 73
    14
 74
     0
 42
0.000000001
 43
0.0000000001
 40
-0.000969958402886
 40
-0.000969958402886
 40
-0.000969958402886
 40
-0.000969958402886
 40
0.1048337966027094
 40
0.1048337966027094
 40
0.2106375516083048
 40
0.2106375516083048
 40
0.3164413066139001
 40
0.3164413066139001
 40
0.4197568144480183
 40
0.4197568144480183
 40
0.5045449283529634
 40
0.5045449283529634
 40
0.528048816625091
 40
0.528048816625091
 40
0.528048816625091
 40
0.528048816625091
 10
39.59786064056698
 20
190.5766559256029
 30
-0.000000000003638
 10
39.23419378006656
 20
190.5766559256029
 30
-0.000000000007276
 10
38.86762939103391
 20
190.6172519111894
 30
-0.000000000003638
 10
38.14057047581719
 20
190.7869544052544
 30
-0.000000000003638
 10
37.77620850000585
 20
190.9166877380799
 30
-0.000000000003638
 10
37.06415731139896
 20
191.2879420137949
 30
-0.000000000003638
 10
36.71067387107087
 20
191.5333508347701
 30
-0.000000000003638
 10
36.07759230930151
 20
192.157671764665
 30
-0.0000000000027285
 10
35.79013356808991
 20
192.5419081088039
 30
-0.0000000000027285
 10
35.40709183672516
 20
193.363126000362
 30
-0.0000000000027285
 10
35.28663506535213
 20
193.7821120426236
 30
-0.0000000000027285
 10
35.2324802200701
 20
194.3355620929624
 30
-0.0000000000027285
 10
35.22659903697513
 20
194.4563572998151
 30
-0.0000000000027285
 10
35.22659903697513
 20
194.5766559256029
 30
-0.0000000000027285
1001
ACAD_VIEW_EDGE_ID
1071
   -14337
1071
       -1
1071
        2
1071
        0
  0
LINE
  5
19A
330
70
100
AcDbEntity
  8
Visibile
100
AcDbLine
 10
35.226599
 20
194.576656
 30
0.0
 11
35.226599
 21
196.076656
 31
0.0
210
0.0
220
1.0
230
0.0000000000002967
  0
ARC
  5
19B
330
70
100
AcDbEntity
  8
Visibile
100
AcDbCircle
 10
-35.726599
 20
196.076656
 30
0.0
 40
0.5
210
0.0000000000000002
220
0.0000000000002967
230
-1.0
100
AcDbArc
 50
0.0
 51
90.0
  0
SPLINE
  5
19C
330
70
100
AcDbEntity
  8
Visibile
100
AcDbSpline
210
0.8660254037842662
220
0.5000000000002985
230
-0.0000000000001938
 70
     8
 71
     3
 72
    22
 73
    18
 74
     0
 42
0.000000001
 43
0.0000000001
 40
0.0
 40
0.0
 40
0.0
 40
0.0
 40
0.1474196858240819
 40
0.1474196858240819
 40
0.2948393716481639
 40
0.2948393716481639
 40
0.4433402488428549
 40
0.4433402488428549
 40
0.5918411260375458
 40
0.5918411260375458
 40
0.7416624143806519
 40
0.7416624143806519
 40
0.8914837027237577
 40
0.8914837027237577
 40
1.042412146722575
 40
1.042412146722575
 40
1.193340590721393
 40
1.193340590721393
 40
1.193340590721393
 40
1.193340590721393
 10
311.3895961733669
 20
194.844605118023
 30
37.23648276666973
 10
311.5124459115541
 20
194.631823129787
 30
37.23648276666973
 10
311.6465936667537
 20
194.3994724020599
 30
37.21199868741405
 10
311.9092261708129
 20
193.94457956131
 30
37.10654104350306
 10
312.037711754132
 20
193.7220360029611
 30
37.02557579159293
 10
312.2652614662702
 20
193.3279083402906
 30
36.83549244243386
 10
312.3851931434465
 20
193.1201805819843
 30
36.70855260086228
 10
312.6089097147933
 20
192.7326921139169
 30
36.40673384496404
 10
312.7127003401601
 20
192.5529214774314
 30
36.2318719234836
 10
312.8877236042008
 20
192.2497722916077
 30
35.87877298945841
 10
312.9749257698295
 20
192.0987337102076
 30
35.66769771452527
 10
313.1252061382475
 20
191.838440476728
 30
35.21357092925427
 10
313.1882928914202
 20
191.7291710149494
 30
34.97053073717234
 10
313.2835193899073
 20
191.5642338813427
 30
34.50687270453182
 10
313.3242753134327
 20
191.493642551087
 30
34.24334599362919
 10
313.3773115850818
 20
191.4017810339468
 30
33.70505450311248
 10
313.3895961733669
 20
191.3805035028864
 30
33.43029139461578
 10
313.3895961733669
 20
191.3805035028864
 30
33.17874398795084
1001
ACAD_VIEW_EDGE_ID
1071
        0
1071
       -1
1071
        3
1071
        0
  0
LINE
  5
19D
330
70
100
AcDbEntity
  8
Visibile
100
AcDbLine
 10
310.639596
 20
196.143643
 30
37.236483
 11
311.389596
 21
194.844605
 31
37.236483
210
0.0
220
1.0
230
0.0000000000002967
  0
SPLINE
  5
19E
330
70
100
AcDbEntity
  8
Visibile
100
AcDbSpline
210
-0.8660254037858551
220
-0.4999999999975465
230
0.0000000000026879
 70
     8
 71
     3
 72
    14
 73
    10
 74
     0
 42
0.000000001
 43
0.0000000001
 40
-0.1491637034681668
 40
-0.1491637034681668
 40
-0.1491637034681668
 40
-0.1491637034681668
 40
-0.1114352335821773
 40
-0.1114352335821773
 40
-0.0739807593182752
 40
-0.0739807593182752
 40
-0.036855243419168
 40
-0.036855243419168
 40
0.0
 40
0.0
 40
0.0
 40
0.0
 10
310.389596173367
 20
196.576655925592
 30
36.72928807919561
 10
310.389596173367
 20
196.576655925592
 30
36.79216886233917
 10
310.3968820547334
 20
196.5640364088873
 30
36.8662054309425
 10
310.420687746142
 20
196.5228037418596
 30
36.98211261762117
 10
310.4413417227915
 20
196.4870300049241
 30
37.04460264533646
 10
310.4850974005521
 20
196.411242947922
 30
37.1328763593101
 10
310.5158631748054
 20
196.3579550637824
 30
37.17443456261208
 10
310.5727510517199
 20
196.2594223706316
 30
37.22195592540811
 10
310.6088834705179
 20
196.1968391854724
 30
37.23648276667063
 10
310.639596173367
 20
196.1436432236997
 30
37.23648276667063
1001
ACAD_VIEW_EDGE_ID
1071
        2
1071
       -1
1071
        3
1071
        0
  0
ARC
  5
19F
330
70
100
AcDbEntity
  8
Visibile
100
AcDbCircle
 10
175.887271
 20
-1086.094306
 30
-15.04558
 40
1138.987569922624
210
0.4999999999999825
220
-0.8660254037844488
230
-0.0000000000003613
100
AcDbArc
 50
78.227648
 51
80.335772
  0
ARC
  5
1A0
330
70
100
AcDbEntity
  8
Visibile
100
AcDbCircle
 10
406.07444
 20
18.411804
 30
-15.04558
 40
10.75005973925865
210
0.5000000000000001
220
-0.8660254037844385
230
-0.0000000000002579
100
AcDbArc
 50
20.069349
 51
78.227648
  0
ARC
  5
1A1
330
70
100
AcDbEntity
  8
Visibile
100
AcDbCircle
 10
318.722081
 20
-13.501643
 30
-15.04558
 40
103.7495366292374
210
0.5000000000000046
220
-0.866025403784436
230
-0.0000000000002557
100
AcDbArc
 50
7.477503
 51
20.069349
  0
SPLINE
  5
1A2
330
70
100
AcDbEntity
  8
Visibile
100
AcDbSpline
210
0.0000000000031341
220
0.0000000000118986
230
1.0
 70
     8
 71
     3
 72
    18
 73
    14
 74
     0
 42
0.000000001
 43
0.0000000001
 40
-0.0004511226627459
 40
-0.0004511226627459
 40
-0.0004511226627459
 40
-0.0004511226627459
 40
0.0
 40
0.0
 40
0.0203755528024429
 40
0.0203755528024429
 40
0.0407373958195845
 40
0.0407373958195845
 40
0.0800197396324229
 40
0.0800197396324229
 40
0.1189597240346465
 40
0.1189597240346465
 40
0.1577280051102144
 40
0.1577280051102144
 40
0.1577280051102144
 40
0.1577280051102144
 10
357.584284812875
 20
223.8245221159433
 30
0.0000000000063665
 10
357.5849359523518
 20
223.8248980514956
 30
0.0000000000063665
 10
357.5855879246747
 20
223.8252725427645
 30
0.000000000005457
 10
357.6157253144574
 20
223.842494621317
 30
0.0000000000118234
 10
357.6468270674995
 20
223.8563505193834
 30
0.0000000000063665
 10
357.7112983694633
 20
223.8776398106222
 30
0.0000000000063665
 10
357.7445117081897
 20
223.8850264252921
 30
-0.0000000000081855
 10
357.843220750271
 20
223.8967724618369
 30
-0.0000000000027285
 10
357.9091277624957
 20
223.8918328245222
 30
0.0000000000045475
 10
358.0347659655654
 20
223.8570949484619
 30
0.000000000005457
 10
358.0933537387145
 20
223.8278412601753
 30
0.0000000000063665
 10
358.1957925706192
 20
223.7486498642821
 30
0.0000000000063665
 10
358.2386965949118
 20
223.6995828990234
 30
0.0000000000063665
 10
358.2709933815113
 20
223.6436432237107
 30
0.0000000000063665
1001
ACAD_VIEW_EDGE_ID
1071
       22
1071
       -1
1071
        3
1071
        0
  0
LINE
  5
1A3
330
70
100
AcDbEntity
  8
Visibile
100
AcDbLine
 10
359.020993
 20
222.344605
 30
0.0
 11
358.270993
 21
223.643643
 31
0.0
210
0.0
220
1.0
230
0.0000000000002967
  0
ARC
  5
1A4
330
70
100
AcDbEntity
  8
Visibile
100
AcDbCircle
 10
-175.887271
 20
-1086.094306
 30
9.04558
 40
1135.487569922349
210
-0.5000000000000055
220
0.8660254037844353
230
0.0000000000002279
100
AcDbArc
 50
99.694304
 51
101.772352
  0
ARC
  5
1A5
330
70
100
AcDbEntity
  8
Visibile
100
AcDbCircle
 10
-406.07444
 20
18.411804
 30
9.04558
 40
7.250059739258697
210
-0.5000000000000027
220
0.8660254037844373
230
0.0000000000002549
100
AcDbArc
 50
101.772352
 51
159.930651
  0
ARC
  5
1A6
330
70
100
AcDbEntity
  8
Visibile
100
AcDbCircle
 10
-318.722081
 20
-13.501643
 30
9.04558
 40
100.2495366292371
210
-0.4999999999999934
220
0.8660254037844424
230
0.0000000000002586
100
AcDbArc
 50
159.930651
 51
172.259863
  0
SPLINE
  5
1A7
330
70
100
AcDbEntity
  8
Visibile
100
AcDbSpline
210
0.0000000000056653
220
-0.0000000000013788
230
-1.0
 70
     8
 71
     3
 72
    18
 73
    14
 74
     0
 42
0.000000001
 43
0.0000000001
 40
-0.0012823497244136
 40
-0.0012823497244136
 40
-0.0012823497244136
 40
-0.0012823497244136
 40
0.0
 40
0.0
 40
0.1643096311255071
 40
0.1643096311255071
 40
0.3284836810377405
 40
0.3284836810377405
 40
0.642738407319815
 40
0.642738407319815
 40
0.9542421923065401
 40
0.9542421923065401
 40
1.264393253369504
 40
1.264393253369504
 40
1.264393253369504
 40
1.264393253369504
 10
357.5262786347921
 20
216.862829003137
 30
0.0000000000045475
 10
357.5281295471886
 20
216.8638976279074
 30
0.0000000000045475
 10
357.5299796183808
 20
216.8649677090619
 30
0.000000000003638
 10
357.7687735764603
 20
217.0033370269954
 30
0.0000000000154614
 10
357.9913027647535
 20
217.1641949739544
 30
0.000000000005457
 10
358.4004322878627
 20
217.5279758905773
 30
0.0000000000045475
 10
358.5860663051908
 20
217.7299788450783
 30
0.000000000084583
 10
359.0635575281176
 20
218.3685685086972
 30
0.0000000000536602
 10
359.2929809599454
 20
218.844899602659
 30
0.0000000000118234
 10
359.554893305658
 20
219.8542439750341
 30
0.0000000000109139
 10
359.5865784178695
 20
220.3771205089481
 30
0.000000000005457
 10
359.4476996368039
 20
221.4035698262395
 30
0.000000000005457
 10
359.2793670103493
 20
221.8970888655503
 30
0.000000000005457
 10
359.0209933815113
 20
222.344605118034
 30
0.000000000005457
1001
ACAD_VIEW_EDGE_ID
1071
       40
1071
       -1
1071
        3
1071
        0
  0
ENDSEC
  0
SECTION
  2
OBJECTS
  0
DICTIONARY
  5
C
330
0
100
AcDbDictionary
281
     1
  3
ACAD_COLOR
350
63
  3
ACAD_DETAILVIEWSTYLE
350
6A
  3
ACAD_GROUP
350
D
  3
ACAD_LAYOUT
350
62
  3
ACAD_MATERIAL
350
10
  3
ACAD_MLEADERSTYLE
350
66
  3
ACAD_MLINESTYLE
350
5F
  3
ACAD_PLOTSETTINGS
350
61
  3
ACAD_PLOTSTYLENAME
350
E
  3
ACAD_SCALELIST
350
42
  3
ACAD_SECTIONVIEWSTYLE
350
68
  3
ACAD_TABLESTYLE
350
64
  3
ACAD_VISUALSTYLE
350
29
  3
ACDB_RECOMPOSE_DATA
350
1B1
  3
AcDbVariableDictionary
350
1A8
  0
DICTIONARY
  5
A4
330
70
100
AcDbDictionary
280
     1
281
     1
  3
ACAD_SORTENTS
360
A5
  0
DICTIONARY
  5
10F
330
10E
100
AcDbDictionary
280
     1
281
     1
  0
DICTIONARY
  5
63
102
{ACAD_REACTORS
330
C
102
}
330
C
100
AcDbDictionary
281
     1
  0
DICTIONARY
  5
6A
102
{ACAD_REACTORS
330
C
102
}
330
C
100
AcDbDictionary
281
     1
  3
Imperial24
350
6B
  0
DICTIONARY
  5
D
102
{ACAD_REACTORS
330
C
102
}
330
C
100
AcDbDictionary
281
     1
  0
DICTIONARY
  5
62
102
{ACAD_REACTORS
330
C
102
}
330
C
100
AcDbDictionary
281
     1
  3
Foglio1
350
6F
  3
Foglio2
350
77
  3
Model
350
73
  0
DICTIONARY
  5
10
102
{ACAD_REACTORS
330
C
102
}
330
C
100
AcDbDictionary
281
     1
  3
ByBlock
350
19
  3
ByLayer
350
11
  3
Global
350
21
  0
DICTIONARY
  5
66
102
{ACAD_REACTORS
330
C
102
}
330
C
100
AcDbDictionary
281
     1
  3
Standard
350
67
  0
DICTIONARY
  5
5F
102
{ACAD_REACTORS
330
C
102
}
330
C
100
AcDbDictionary
281
     1
  3
Standard
350
60
  0
DICTIONARY
  5
61
102
{ACAD_REACTORS
330
C
102
}
330
C
100
AcDbDictionary
281
     1
  0
ACDBDICTIONARYWDFLT
  5
E
102
{ACAD_REACTORS
330
C
102
}
330
C
100
AcDbDictionary
281
     1
  3
Normal
350
F
100
AcDbDictionaryWithDefault
340
F
  0
DICTIONARY
  5
42
102
{ACAD_REACTORS
330
C
102
}
330
C
100
AcDbDictionary
281
     1
  3
A0
350
43
  3
A1
350
44
  3
A2
350
45
  3
A3
350
46
  3
A4
350
47
  3
A5
350
48
  3
A6
350
49
  3
A7
350
4A
  3
A8
350
4B
  3
A9
350
4C
  3
B0
350
4D
  3
B1
350
4E
  3
B2
350
4F
  3
B3
350
50
  3
B4
350
51
  3
B5
350
52
  3
B6
350
53
  0
DICTIONARY
  5
68
102
{ACAD_REACTORS
330
C
102
}
330
C
100
AcDbDictionary
281
     1
  3
Imperial24
350
69
  0
DICTIONARY
  5
64
102
{ACAD_REACTORS
330
C
102
}
330
C
100
AcDbDictionary
281
     1
  3
Standard
350
65
  0
DICTIONARY
  5
29
102
{ACAD_REACTORS
330
C
102
}
330
C
100
AcDbDictionary
281
     1
  3
2dWireframe
350
2F
  3
Basic
350
2E
  3
Brighten
350
35
  3
ColorChange
350
39
  3
Conceptual
350
32
  3
Dim
350
34
  3
EdgeColorOff
350
41
  3
Facepattern
350
38
  3
Flat
350
2A
  3
FlatWithEdges
350
2B
  3
Gouraud
350
2C
  3
GouraudWithEdges
350
2D
  3
Hidden
350
31
  3
JitterOff
350
3F
  3
Linepattern
350
37
  3
OverhangOff
350
40
  3
Realistic
350
33
  3
Shaded
350
3E
  3
Shaded with edges
350
3D
  3
Shades of Gray
350
3A
  3
Sketchy
350
3B
  3
Thicken
350
36
  3
Wireframe
350
30
  3
X-Ray
350
3C
  0
XRECORD
  5
1B1
102
{ACAD_REACTORS
330
C
102
}
330
C
100
AcDbXrecord
280
     1
 90
        1
330
65
  0
DICTIONARY
  5
1A8
102
{ACAD_REACTORS
330
C
102
}
330
C
100
AcDbDictionary
281
     1
  3
ANNOALLVISIBLE
350
1AD
  3
CANNOSCALE
350
1AE
  3
CMLEADERSTYLE
350
1AA
  3
CTABLESTYLE
350
1A9
  3
CVIEWDETAILSTYLE
350
1AB
  3
CVIEWSECTIONSTYLE
350
1AC
  0
SORTENTSTABLE
  5
A5
102
{ACAD_REACTORS
330
A4
102
}
330
A4
100
AcDbSortentsTable
330
70
  0
ACDBDETAILVIEWSTYLE
  5
6B
102
{ACAD_XDICTIONARY
360
1B4
102
}
102
{ACAD_REACTORS
330
6A
102
}
330
6A
100
AcDbModelDocViewStyle
 70
     0
  3
Imperial24
290
     0
100
AcDbDetailViewStyle
 70
     0
 71
     0
 90
        3
 71
     1
340
55
 62
   256
 40
0.24
340
0
 62
   256
 40
0.24
300

 40
0.36
280
     3
 71
     2
340
5D
 90
       25
 62
   256
 71
     3
340
55
 62
   256
 40
0.24
 90
        1
 40
0.75
 90
        1
300
%<\AcVar ViewType \f "%tc1">% %<\AcVar ViewDetailId>%\PSCALA %<\AcVar ViewScale \f "%sn">%
 71
     4
340
5D
 90
       25
 62
   256
340
5D
 90
       25
 62
   256
280
     0
  0
LAYOUT
  5
6F
102
{ACAD_REACTORS
330
62
102
}
330
62
100
AcDbPlotSettings
  1

  2
None
  4

  6

 40
0.0
 41
0.0
 42
0.0
 43
0.0
 44
0.0
 45
0.0
 46
0.0
 47
0.0
 48
0.0
 49
0.0
140
0.0
141
0.0
142
1.0
143
1.0
 70
   688
 72
     0
 73
     0
 74
     5
  7

 75
    16
147
1.0
 76
     0
 77
     2
 78
   300
148
0.0
149
0.0
100
AcDbLayout
  1
Foglio1
 70
     1
 71
     1
 10
0.0
 20
0.0
 11
12.0
 21
9.0
 12
0.0
 22
0.0
 32
0.0
 14
0.0
 24
0.0
 34
0.0
 15
0.0
 25
0.0
 35
0.0
146
0.0
 13
0.0
 23
0.0
 33
0.0
 16
1.0
 26
0.0
 36
0.0
 17
0.0
 27
1.0
 37
0.0
 76
     0
330
6C
  0
LAYOUT
  5
77
102
{ACAD_REACTORS
330
62
102
}
330
62
100
AcDbPlotSettings
  1

  2
None
  4

  6

 40
0.0
 41
0.0
 42
0.0
 43
0.0
 44
0.0
 45
0.0
 46
0.0
 47
0.0
 48
0.0
 49
0.0
140
0.0
141
0.0
142
1.0
143
1.0
 70
   688
 72
     0
 73
     0
 74
     5
  7

 75
    16
147
1.0
 76
     0
 77
     2
 78
   300
148
0.0
149
0.0
100
AcDbLayout
  1
Foglio2
 70
     1
 71
     2
 10
0.0
 20
0.0
 11
12.0
 21
9.0
 12
0.0
 22
0.0
 32
0.0
 14
0.0
 24
0.0
 34
0.0
 15
0.0
 25
0.0
 35
0.0
146
0.0
 13
0.0
 23
0.0
 33
0.0
 16
1.0
 26
0.0
 36
0.0
 17
0.0
 27
1.0
 37
0.0
 76
     0
330
74
  0
LAYOUT
  5
73
102
{ACAD_REACTORS
330
62
102
}
330
62
100
AcDbPlotSettings
  1

  2
AutoCAD PDF (High Quality Print).pc3
  4
ISO_full_bleed_A3_(420.00_x_297.00_MM)
  6

 40
0.0
 41
0.0
 42
0.0
 43
0.0
 44
420.0
 45
297.0
 46
0.0
 47
0.0
 48
0.0
 49
0.0
140
0.0
141
0.0
142
1.0
143
2.183381
 70
 11952
 72
     1
 73
     0
 74
     0
  7

 75
     0
147
0.458005
 76
     0
 77
     2
 78
   300
148
233.505661
149
62.403828
100
AcDbLayout
  1
Model
 70
     1
 71
     0
 10
0.0
 20
0.0
 11
12.0
 21
9.0
 12
0.0
 22
0.0
 32
0.0
 14
0.0
 24
0.0
 34
0.0
 15
0.0
 25
0.0
 35
0.0
146
0.0
 13
0.0
 23
0.0
 33
0.0
 16
1.0
 26
0.0
 36
0.0
 17
0.0
 27
1.0
 37
0.0
 76
     0
330
70
1001
ACAD_PSEXT
1000
AutoCAD PDF (High Quality Print).pc3
1000
DWG To PDF
1000
File
1000

1070
     0
  0
MATERIAL
  5
19
102
{ACAD_XDICTIONARY
360
1A
102
}
102
{ACAD_REACTORS
330
10
102
}
330
10
100
AcDbMaterial
  1
ByBlock
 72
     0
 43
0.020833
 43
0.0
 43
0.0
 43
0.0
 43
0.0
 43
0.020833
 43
0.0
 43
0.0
 43
0.0
 43
0.0
 43
1.0
 43
0.0
 43
0.0
 43
0.0
 43
0.0
 43
1.0
 77
     0
 47
0.020833
 47
0.0
 47
0.0
 47
0.0
 47
0.0
 47
0.020833
 47
0.0
 47
0.0
 47
0.0
 47
0.0
 47
1.0
 47
0.0
 47
0.0
 47
0.0
 47
0.0
 47
1.0
171
     0
 49
0.020833
 49
0.0
 49
0.0
 49
0.0
 49
0.0
 49
0.020833
 49
0.0
 49
0.0
 49
0.0
 49
0.0
 49
1.0
 49
0.0
 49
0.0
 49
0.0
 49
0.0
 49
1.0
175
     0
142
0.020833
142
0.0
142
0.0
142
0.0
142
0.0
142
0.020833
142
0.0
142
0.0
142
0.0
142
0.0
142
1.0
142
0.0
142
0.0
142
0.0
142
0.0
142
1.0
179
     0
144
0.020833
144
0.0
144
0.0
144
0.0
144
0.0
144
0.020833
144
0.0
144
0.0
144
0.0
144
0.0
144
1.0
144
0.0
144
0.0
144
0.0
144
0.0
144
1.0
147
0.020833
147
0.0
147
0.0
147
0.0
147
0.0
147
0.020833
147
0.0
147
0.0
147
0.0
147
0.0
147
1.0
147
0.0
147
0.0
147
0.0
147
0.0
147
1.0
  0
MATERIAL
  5
11
102
{ACAD_XDICTIONARY
360
12
102
}
102
{ACAD_REACTORS
330
10
102
}
330
10
100
AcDbMaterial
  1
ByLayer
 72
     0
 43
0.020833
 43
0.0
 43
0.0
 43
0.0
 43
0.0
 43
0.020833
 43
0.0
 43
0.0
 43
0.0
 43
0.0
 43
1.0
 43
0.0
 43
0.0
 43
0.0
 43
0.0
 43
1.0
 77
     0
 47
0.020833
 47
0.0
 47
0.0
 47
0.0
 47
0.0
 47
0.020833
 47
0.0
 47
0.0
 47
0.0
 47
0.0
 47
1.0
 47
0.0
 47
0.0
 47
0.0
 47
0.0
 47
1.0
171
     0
 49
0.020833
 49
0.0
 49
0.0
 49
0.0
 49
0.0
 49
0.020833
 49
0.0
 49
0.0
 49
0.0
 49
0.0
 49
1.0
 49
0.0
 49
0.0
 49
0.0
 49
0.0
 49
1.0
175
     0
142
0.020833
142
0.0
142
0.0
142
0.0
142
0.0
142
0.020833
142
0.0
142
0.0
142
0.0
142
0.0
142
1.0
142
0.0
142
0.0
142
0.0
142
0.0
142
1.0
179
     0
144
0.020833
144
0.0
144
0.0
144
0.0
144
0.0
144
0.020833
144
0.0
144
0.0
144
0.0
144
0.0
144
1.0
144
0.0
144
0.0
144
0.0
144
0.0
144
1.0
147
0.020833
147
0.0
147
0.0
147
0.0
147
0.0
147
0.020833
147
0.0
147
0.0
147
0.0
147
0.0
147
1.0
147
0.0
147
0.0
147
0.0
147
0.0
147
1.0
  0
MATERIAL
  5
21
102
{ACAD_XDICTIONARY
360
22
102
}
102
{ACAD_REACTORS
330
10
102
}
330
10
100
AcDbMaterial
  1
Global
 72
     0
 43
0.020833
 43
0.0
 43
0.0
 43
0.0
 43
0.0
 43
0.020833
 43
0.0
 43
0.0
 43
0.0
 43
0.0
 43
1.0
 43
0.0
 43
0.0
 43
0.0
 43
0.0
 43
1.0
 77
     0
 47
0.020833
 47
0.0
 47
0.0
 47
0.0
 47
0.0
 47
0.020833
 47
0.0
 47
0.0
 47
0.0
 47
0.0
 47
1.0
 47
0.0
 47
0.0
 47
0.0
 47
0.0
 47
1.0
171
     0
 49
0.020833
 49
0.0
 49
0.0
 49
0.0
 49
0.0
 49
0.020833
 49
0.0
 49
0.0
 49
0.0
 49
0.0
 49
1.0
 49
0.0
 49
0.0
 49
0.0
 49
0.0
 49
1.0
175
     0
142
0.020833
142
0.0
142
0.0
142
0.0
142
0.0
142
0.020833
142
0.0
142
0.0
142
0.0
142
0.0
142
1.0
142
0.0
142
0.0
142
0.0
142
0.0
142
1.0
179
     0
144
0.020833
144
0.0
144
0.0
144
0.0
144
0.0
144
0.020833
144
0.0
144
0.0
144
0.0
144
0.0
144
1.0
144
0.0
144
0.0
144
0.0
144
0.0
144
1.0
147
0.020833
147
0.0
147
0.0
147
0.0
147
0.0
147
0.020833
147
0.0
147
0.0
147
0.0
147
0.0
147
1.0
147
0.0
147
0.0
147
0.0
147
0.0
147
1.0
  0
MLEADERSTYLE
  5
67
102
{ACAD_REACTORS
330
66
102
}
330
66
100
AcDbMLeaderStyle
179
     2
170
     2
171
     1
172
     0
 90
        2
 40
0.0
 41
0.0
173
     1
 91
-1056964608
340
5B
 92
       -2
290
     1
 42
0.09
291
     1
 43
0.36
  3
Standard
 44
0.18
300

342
55
174
     1
178
     6
175
     1
176
     0
 93
-1056964608
 45
0.18
292
     0
297
     0
 46
0.18
 94
-1056964608
 47
1.0
 49
1.0
140
1.0
293
     1
141
0.0
294
     1
177
     0
142
1.0
295
     0
296
     0
143
0.125
271
     0
272
     9
273
     9
298
     1
  0
MLINESTYLE
  5
60
102
{ACAD_REACTORS
330
5F
102
}
330
5F
100
AcDbMlineStyle
  2
STANDARD
 70
     0
  3

 62
   256
 51
90.0
 52
90.0
 71
     0
  0
ACDBPLACEHOLDER
  5
F
102
{ACAD_REACTORS
330
E
102
}
330
E
  0
SCALE
  5
43
102
{ACAD_REACTORS
330
42
102
}
330
42
100
AcDbScale
 70
     0
300
1:1
140
1.0
141
1.0
290
     1
  0
SCALE
  5
44
102
{ACAD_REACTORS
330
42
102
}
330
42
100
AcDbScale
 70
     0
300
1:2
140
1.0
141
2.0
290
     0
  0
SCALE
  5
45
102
{ACAD_REACTORS
330
42
102
}
330
42
100
AcDbScale
 70
     0
300
1:4
140
1.0
141
4.0
290
     0
  0
SCALE
  5
46
102
{ACAD_REACTORS
330
42
102
}
330
42
100
AcDbScale
 70
     0
300
1:5
140
1.0
141
5.0
290
     0
  0
SCALE
  5
47
102
{ACAD_REACTORS
330
42
102
}
330
42
100
AcDbScale
 70
     0
300
1:8
140
1.0
141
8.0
290
     0
  0
SCALE
  5
48
102
{ACAD_REACTORS
330
42
102
}
330
42
100
AcDbScale
 70
     0
300
1:10
140
1.0
141
10.0
290
     0
  0
SCALE
  5
49
102
{ACAD_REACTORS
330
42
102
}
330
42
100
AcDbScale
 70
     0
300
1:16
140
1.0
141
16.0
290
     0
  0
SCALE
  5
4A
102
{ACAD_REACTORS
330
42
102
}
330
42
100
AcDbScale
 70
     0
300
1:20
140
1.0
141
20.0
290
     0
  0
SCALE
  5
4B
102
{ACAD_REACTORS
330
42
102
}
330
42
100
AcDbScale
 70
     0
300
1:30
140
1.0
141
30.0
290
     0
  0
SCALE
  5
4C
102
{ACAD_REACTORS
330
42
102
}
330
42
100
AcDbScale
 70
     0
300
1:40
140
1.0
141
40.0
290
     0
  0
SCALE
  5
4D
102
{ACAD_REACTORS
330
42
102
}
330
42
100
AcDbScale
 70
     0
300
1:50
140
1.0
141
50.0
290
     0
  0
SCALE
  5
4E
102
{ACAD_REACTORS
330
42
102
}
330
42
100
AcDbScale
 70
     0
300
1:100
140
1.0
141
100.0
290
     0
  0
SCALE
  5
4F
102
{ACAD_REACTORS
330
42
102
}
330
42
100
AcDbScale
 70
     0
300
2:1
140
2.0
141
1.0
290
     0
  0
SCALE
  5
50
102
{ACAD_REACTORS
330
42
102
}
330
42
100
AcDbScale
 70
     0
300
4:1
140
4.0
141
1.0
290
     0
  0
SCALE
  5
51
102
{ACAD_REACTORS
330
42
102
}
330
42
100
AcDbScale
 70
     0
300
8:1
140
8.0
141
1.0
290
     0
  0
SCALE
  5
52
102
{ACAD_REACTORS
330
42
102
}
330
42
100
AcDbScale
 70
     0
300
10:1
140
10.0
141
1.0
290
     0
  0
SCALE
  5
53
102
{ACAD_REACTORS
330
42
102
}
330
42
100
AcDbScale
 70
     0
300
100:1
140
100.0
141
1.0
290
     0
  0
ACDBSECTIONVIEWSTYLE
  5
69
102
{ACAD_XDICTIONARY
360
1B2
102
}
102
{ACAD_REACTORS
330
68
102
}
330
68
100
AcDbModelDocViewStyle
 70
     0
  3
Imperial24
290
     0
100
AcDbSectionViewStyle
 70
     0
 71
     0
 90
       78
 71
     1
340
55
 62
   256
 40
0.24
340
0
340
0
 62
   256
 40
0.24
300
I, O, Q, S, X, Z
 40
0.48
 90
        3
 40
0.18
 90
        1
 71
     2
340
5D
 90
       25
 62
   256
340
5D
 90
       50
 62
   256
 40
0.24
 40
0.0
 40
0.24
 71
     3
340
55
 62
   256
 40
0.24
 90
        1
 40
0.75
 90
        1
300
%<\AcVar ViewType \f "%tc1">% %<\AcVar ViewSectionStartId>%-%<\AcVar ViewSectionEndId>%\PSCALA %<\AcVar ViewScale \f "%sn">%
 71
     4
 62
   256
 62
   257
300
ANSI31
 40
1.0
 90
        0
290
     0
290
     0
 90
        6
 40
0.0
 40
1.570796
 40
0.261799
 40
1.308997
 40
-0.261799
 40
1.832596
  0
TABLESTYLE
  5
65
102
{ACAD_XDICTIONARY
360
1AF
102
}
102
{ACAD_REACTORS
330
64
102
}
330
64
100
AcDbTableStyle
280
     0
  3
Standard
 70
     0
 71
     0
 40
1.5
 41
1.5
280
     0
281
     0
  7
Standard
140
0.18
170
     2
 62
     0
 63
     7
283
     0
 90
      512
 91
        0
  1

274
    -2
284
     1
 64
     0
275
    -2
285
     1
 65
     0
276
    -2
286
     1
 66
     0
277
    -2
287
     1
 67
     0
278
    -2
288
     1
 68
     0
279
    -2
289
     1
 69
     0
  7
Standard
140
0.25
170
     5
 62
     0
 63
     7
283
     0
 90
      512
 91
        0
  1

274
    -2
284
     1
 64
     0
275
    -2
285
     1
 65
     0
276
    -2
286
     1
 66
     0
277
    -2
287
     1
 67
     0
278
    -2
288
     1
 68
     0
279
    -2
289
     1
 69
     0
  7
Standard
140
0.18
170
     5
 62
     0
 63
     7
283
     0
 90
      512
 91
        0
  1

274
    -2
284
     1
 64
     0
275
    -2
285
     1
 65
     0
276
    -2
286
     1
 66
     0
277
    -2
287
     1
 67
     0
278
    -2
288
     1
 68
     0
279
    -2
289
     1
 69
     0
  0
VISUALSTYLE
  5
2F
102
{ACAD_REACTORS
330
29
102
}
330
29
100
AcDbVisualStyle
  2
2dWireframe
 70
     4
177
     3
291
     0
 70
    58
 90
        0
176
     1
 90
        2
176
     1
 90
        0
176
     1
 90
        0
176
     1
 40
0.6
176
     1
 40
30.0
176
     1
 62
     7
420
 16777215
176
     1
 90
        1
176
     1
 90
        4
176
     1
 62
     7
176
     1
 62
   257
176
     1
 90
        1
176
     1
 90
        1
176
     1
 40
1.0
176
     1
 90
        0
176
     1
 62
   257
176
     1
 40
1.0
176
     1
 90
        1
176
     1
 90
        6
176
     1
 90
        2
176
     1
 62
     7
176
     1
 90
        5
176
     1
 90
        0
176
     1
 90
        0
176
     1
290
     0
176
     1
 90
        1
176
     1
 40
0.0
176
     1
 90
        0
176
     1
290
     1
176
     1
290
     1
176
     1
290
     0
176
     1
290
     0
176
     1
290
     0
176
     1
290
     0
176
     1
290
     0
176
     1
290
     0
176
     1
290
     0
176
     1
 90
       50
176
     1
 40
0.0
176
     1
 40
1.0
176
     1
 90
        0
176
     1
 62
    18
420
        0
176
     1
 90
       50
176
     1
 90
        3
176
     1
 62
     5
420
      255
176
     1
290
     0
176
     1
 90
       50
176
     1
 90
       50
176
     1
 90
       50
176
     1
290
     0
176
     1
 90
       50
176
     1
 62
   256
176
     0
 40
1.0
176
     0
 90
        2
176
     1
  1
strokes_ogs.tif
176
     1
290
     0
176
     1
 40
1.0
176
     1
 40
1.0
176
     1
1001
ACAD
1000
AcDbSavedByObjectVersion
1070
     0
  0
VISUALSTYLE
  5
2E
102
{ACAD_REACTORS
330
29
102
}
330
29
100
AcDbVisualStyle
  2
Basic
 70
     7
177
     3
291
     1
 70
    58
 90
        1
176
     1
 90
        0
176
     1
 90
        1
176
     1
 90
        0
176
     1
 40
0.6
176
     1
 40
30.0
176
     1
 62
     7
420
 16777215
176
     1
 90
        0
176
     1
 90
        4
176
     1
 62
     7
176
     1
 62
   257
176
     1
 90
        1
176
     1
 90
        1
176
     1
 40
1.0
176
     1
 90
        8
176
     1
 62
     7
176
     1
 40
1.0
176
     1
 90
        1
176
     1
 90
        6
176
     1
 90
        2
176
     1
 62
     7
176
     1
 90
        5
176
     1
 90
        0
176
     1
 90
        0
176
     1
290
     0
176
     1
 90
        1
176
     1
 40
0.0
176
     1
 90
        0
176
     1
290
     0
176
     1
290
     1
176
     1
290
     1
176
     1
290
     0
176
     1
290
     0
176
     1
290
     0
176
     1
290
     0
176
     1
290
     0
176
     1
290
     0
176
     1
 90
       50
176
     1
 40
0.0
176
     1
 40
1.0
176
     1
 90
        0
176
     1
 62
    18
420
        0
176
     1
 90
       50
176
     1
 90
        3
176
     1
 62
     5
420
      255
176
     1
290
     0
176
     1
 90
       50
176
     1
 90
       50
176
     1
 90
       50
176
     1
290
     0
176
     1
 90
       50
176
     1
 62
   256
176
     0
 40
1.0
176
     0
 90
        2
176
     1
  1
strokes_ogs.tif
176
     1
290
     0
176
     1
 40
1.0
176
     1
 40
1.0
176
     1
1001
ACAD
1000
AcDbSavedByObjectVersion
1070
     0
  0
VISUALSTYLE
  5
35
102
{ACAD_REACTORS
330
29
102
}
330
29
100
AcDbVisualStyle
  2
Brighten
 70
    12
177
     3
291
     1
 70
    58
 90
        2
176
     1
 90
        2
176
     1
 90
        0
176
     1
 90
        0
176
     1
 40
0.6
176
     1
 40
30.0
176
     1
 62
     7
420
 16777215
176
     1
 90
        1
176
     1
 90
        4
176
     1
 62
     7
176
     1
 62
   257
176
     1
 90
        1
176
     1
 90
        1
176
     1
 40
1.0
176
     1
 90
        8
176
     1
 62
     7
176
     1
 40
1.0
176
     1
 90
        1
176
     1
 90
        6
176
     1
 90
        2
176
     1
 62
     7
176
     1
 90
        5
176
     1
 90
        0
176
     1
 90
        0
176
     1
290
     0
176
     1
 90
        1
176
     1
 40
50.0
176
     1
 90
        0
176
     1
290
     0
176
     1
290
     1
176
     1
290
     1
176
     1
290
     0
176
     1
290
     0
176
     1
290
     0
176
     1
290
     0
176
     1
290
     0
176
     1
290
     0
176
     1
 90
       50
176
     1
 40
0.0
176
     1
 40
1.0
176
     1
 90
        0
176
     1
 62
    18
420
        0
176
     1
 90
       50
176
     1
 90
        3
176
     1
 62
     5
420
      255
176
     1
290
     0
176
     1
 90
       50
176
     1
 90
       50
176
     1
 90
       50
176
     1
290
     0
176
     1
 90
       50
176
     1
 62
   256
176
     0
 40
1.0
176
     0
 90
        2
176
     1
  1
strokes_ogs.tif
176
     1
290
     0
176
     1
 40
1.0
176
     1
 40
1.0
176
     1
1001
ACAD
1000
AcDbSavedByObjectVersion
1070
     0
  0
VISUALSTYLE
  5
39
102
{ACAD_REACTORS
330
29
102
}
330
29
100
AcDbVisualStyle
  2
ColorChange
 70
    16
177
     3
291
     1
 70
    58
 90
        2
176
     1
 90
        2
176
     1
 90
        3
176
     1
 90
        0
176
     1
 40
0.6
176
     1
 40
30.0
176
     1
 62
     8
420
  8421504
176
     1
 90
        1
176
     1
 90
        4
176
     1
 62
     7
176
     1
 62
   257
176
     1
 90
        1
176
     1
 90
        1
176
     1
 40
1.0
176
     1
 90
        8
176
     1
 62
     8
420
  8421504
176
     1
 40
1.0
176
     1
 90
        1
176
     1
 90
        6
176
     1
 90
        2
176
     1
 62
     7
176
     1
 90
        5
176
     1
 90
        0
176
     1
 90
        0
176
     1
290
     0
176
     1
 90
        1
176
     1
 40
0.0
176
     1
 90
        0
176
     1
290
     0
176
     1
290
     1
176
     1
290
     1
176
     1
290
     0
176
     1
290
     0
176
     1
290
     0
176
     1
290
     0
176
     1
290
     0
176
     1
290
     0
176
     1
 90
       50
176
     1
 40
0.0
176
     1
 40
1.0
176
     1
 90
        0
176
     1
 62
    18
420
        0
176
     1
 90
       50
176
     1
 90
        3
176
     1
 62
     5
420
      255
176
     1
290
     0
176
     1
 90
       50
176
     1
 90
       50
176
     1
 90
       50
176
     1
290
     0
176
     1
 90
       50
176
     1
 62
   256
176
     0
 40
1.0
176
     0
 90
        2
176
     1
  1
strokes_ogs.tif
176
     1
290
     0
176
     1
 40
1.0
176
     1
 40
1.0
176
     1
1001
ACAD
1000
AcDbSavedByObjectVersion
1070
     0
  0
VISUALSTYLE
  5
32
102
{ACAD_REACTORS
330
29
102
}
330
29
100
AcDbVisualStyle
  2
Conceptual
 70
     9
177
     3
291
     0
 70
    58
 90
        3
176
     1
 90
        2
176
     1
 90
        0
176
     1
 90
        0
176
     1
 40
0.6
176
     1
 40
30.0
176
     1
 62
     7
420
 16777215
176
     1
 90
        2
176
     1
 90
        2
176
     1
 62
     7
176
     1
 62
   257
176
     1
 90
        1
176
     1
 90
        1
176
     1
 40
179.0
176
     1
 90
        8
176
     1
 62
     7
176
     1
 40
1.0
176
     1
 90
        1
176
     1
 90
        6
176
     1
 90
        2
176
     1
 62
     7
176
     1
 90
        3
176
     1
 90
        0
176
     1
 90
        0
176
     1
290
     0
176
     1
 90
        1
176
     1
 40
0.0
176
     1
 90
        0
176
     1
290
     0
176
     1
290
     1
176
     1
290
     1
176
     1
290
     0
176
     1
290
     0
176
     1
290
     0
176
     1
290
     0
176
     1
290
     0
176
     1
290
     0
176
     1
 90
       50
176
     1
 40
0.0
176
     1
 40
1.0
176
     1
 90
        0
176
     1
 62
    18
420
        0
176
     1
 90
       50
176
     1
 90
        3
176
     1
 62
     5
420
      255
176
     1
290
     0
176
     1
 90
       50
176
     1
 90
       50
176
     1
 90
       50
176
     1
290
     0
176
     1
 90
       50
176
     1
 62
   256
176
     0
 40
1.0
176
     0
 90
        2
176
     1
  1
strokes_ogs.tif
176
     1
290
     0
176
     1
 40
1.0
176
     1
 40
1.0
176
     1
1001
ACAD
1000
AcDbSavedByObjectVersion
1070
     0
  0
VISUALSTYLE
  5
34
102
{ACAD_REACTORS
330
29
102
}
330
29
100
AcDbVisualStyle
  2
Dim
 70
    11
177
     3
291
     1
 70
    58
 90
        2
176
     1
 90
        2
176
     1
 90
        0
176
     1
 90
        0
176
     1
 40
0.6
176
     1
 40
30.0
176
     1
 62
     7
420
 16777215
176
     1
 90
        1
176
     1
 90
        4
176
     1
 62
     7
176
     1
 62
   257
176
     1
 90
        1
176
     1
 90
        1
176
     1
 40
1.0
176
     1
 90
        8
176
     1
 62
     7
176
     1
 40
1.0
176
     1
 90
        1
176
     1
 90
        6
176
     1
 90
        2
176
     1
 62
     7
176
     1
 90
        5
176
     1
 90
        0
176
     1
 90
        0
176
     1
290
     0
176
     1
 90
        1
176
     1
 40
-50.0
176
     1
 90
        0
176
     1
290
     0
176
     1
290
     1
176
     1
290
     1
176
     1
290
     0
176
     1
290
     0
176
     1
290
     0
176
     1
290
     0
176
     1
290
     0
176
     1
290
     0
176
     1
 90
       50
176
     1
 40
0.0
176
     1
 40
1.0
176
     1
 90
        0
176
     1
 62
    18
420
        0
176
     1
 90
       50
176
     1
 90
        3
176
     1
 62
     5
420
      255
176
     1
290
     0
176
     1
 90
       50
176
     1
 90
       50
176
     1
 90
       50
176
     1
290
     0
176
     1
 90
       50
176
     1
 62
   256
176
     0
 40
1.0
176
     0
 90
        2
176
     1
  1
strokes_ogs.tif
176
     1
290
     0
176
     1
 40
1.0
176
     1
 40
1.0
176
     1
1001
ACAD
1000
AcDbSavedByObjectVersion
1070
     0
  0
VISUALSTYLE
  5
41
102
{ACAD_REACTORS
330
29
102
}
330
29
100
AcDbVisualStyle
  2
EdgeColorOff
 70
    22
177
     3
291
     1
 70
    58
 90
        2
176
     0
 90
        2
176
     0
 90
        0
176
     0
 90
        0
176
     0
 40
0.6
176
     0
 40
30.0
176
     0
 62
     7
420
 16777215
176
     0
 90
        1
176
     0
 90
        4
176
     0
 62
     7
176
     0
 62
   257
176
     0
 90
        1
176
     0
 90
        1
176
     0
 40
1.0
176
     0
 90
        8
176
     2
 62
     7
176
     0
 40
1.0
176
     0
 90
        1
176
     0
 90
        6
176
     0
 90
        2
176
     0
 62
     7
176
     0
 90
        5
176
     0
 90
        0
176
     0
 90
        0
176
     0
290
     0
176
     0
 90
        1
176
     0
 40
0.0
176
     0
 90
        0
176
     0
290
     0
176
     0
290
     1
176
     0
290
     1
176
     0
290
     0
176
     0
290
     0
176
     0
290
     0
176
     0
290
     0
176
     0
290
     0
176
     0
290
     0
176
     0
 90
       50
176
     0
 40
0.0
176
     0
 40
1.0
176
     0
 90
        0
176
     0
 62
    18
420
        0
176
     0
 90
       50
176
     0
 90
        3
176
     0
 62
     5
420
      255
176
     0
290
     0
176
     0
 90
       50
176
     0
 90
       50
176
     0
 90
       50
176
     0
290
     0
176
     0
 90
       50
176
     0
 62
   256
176
     0
 40
1.0
176
     0
 90
        2
176
     0
  1
strokes_ogs.tif
176
     0
290
     0
176
     0
 40
1.0
176
     0
 40
1.0
176
     0
1001
ACAD
1000
AcDbSavedByObjectVersion
1070
     0
  0
VISUALSTYLE
  5
38
102
{ACAD_REACTORS
330
29
102
}
330
29
100
AcDbVisualStyle
  2
Facepattern
 70
    15
177
     3
291
     1
 70
    58
 90
        2
176
     1
 90
        2
176
     1
 90
        0
176
     1
 90
        0
176
     1
 40
0.6
176
     1
 40
30.0
176
     1
 62
     7
420
 16777215
176
     1
 90
        1
176
     1
 90
        4
176
     1
 62
     7
176
     1
 62
   257
176
     1
 90
        1
176
     1
 90
        1
176
     1
 40
1.0
176
     1
 90
        8
176
     1
 62
     7
176
     1
 40
1.0
176
     1
 90
        1
176
     1
 90
        6
176
     1
 90
        2
176
     1
 62
     7
176
     1
 90
        5
176
     1
 90
        0
176
     1
 90
        0
176
     1
290
     0
176
     1
 90
        1
176
     1
 40
0.0
176
     1
 90
        0
176
     1
290
     0
176
     1
290
     1
176
     1
290
     1
176
     1
290
     0
176
     1
290
     0
176
     1
290
     0
176
     1
290
     0
176
     1
290
     0
176
     1
290
     0
176
     1
 90
       50
176
     1
 40
0.0
176
     1
 40
1.0
176
     1
 90
        0
176
     1
 62
    18
420
        0
176
     1
 90
       50
176
     1
 90
        3
176
     1
 62
     5
420
      255
176
     1
290
     0
176
     1
 90
       50
176
     1
 90
       50
176
     1
 90
       50
176
     1
290
     0
176
     1
 90
       50
176
     1
 62
   256
176
     0
 40
1.0
176
     0
 90
        2
176
     1
  1
strokes_ogs.tif
176
     1
290
     0
176
     1
 40
1.0
176
     1
 40
1.0
176
     1
1001
ACAD
1000
AcDbSavedByObjectVersion
1070
     0
  0
VISUALSTYLE
  5
2A
102
{ACAD_REACTORS
330
29
102
}
330
29
100
AcDbVisualStyle
  2
Flat
 70
     0
177
     3
291
     1
 70
    58
 90
        2
176
     1
 90
        1
176
     1
 90
        1
176
     1
 90
        2
176
     1
 40
0.6
176
     1
 40
30.0
176
     1
 62
     7
420
 16777215
176
     1
 90
        0
176
     1
 90
        0
176
     1
 62
     7
176
     1
 62
   257
176
     1
 90
        1
176
     1
 90
        1
176
     1
 40
1.0
176
     1
 90
        8
176
     1
 62
     7
176
     1
 40
1.0
176
     1
 90
        1
176
     1
 90
        6
176
     1
 90
        2
176
     1
 62
     7
176
     1
 90
        5
176
     1
 90
        0
176
     1
 90
        0
176
     1
290
     0
176
     1
 90
       13
176
     1
 40
0.0
176
     1
 90
        0
176
     1
290
     0
176
     1
290
     1
176
     1
290
     1
176
     1
290
     0
176
     1
290
     0
176
     1
290
     0
176
     1
290
     0
176
     1
290
     0
176
     1
290
     0
176
     1
 90
       50
176
     1
 40
0.0
176
     1
 40
1.0
176
     1
 90
        0
176
     1
 62
    18
420
        0
176
     1
 90
       50
176
     1
 90
        3
176
     1
 62
     5
420
      255
176
     1
290
     0
176
     1
 90
       50
176
     1
 90
       50
176
     1
 90
       50
176
     1
290
     0
176
     1
 90
       50
176
     1
 62
   256
176
     0
 40
1.0
176
     0
 90
        2
176
     1
  1
strokes_ogs.tif
176
     1
290
     0
176
     1
 40
1.0
176
     1
 40
1.0
176
     1
1001
ACAD
1000
AcDbSavedByObjectVersion
1070
     0
  0
VISUALSTYLE
  5
2B
102
{ACAD_REACTORS
330
29
102
}
330
29
100
AcDbVisualStyle
  2
FlatWithEdges
 70
     1
177
     3
291
     1
 70
    58
 90
        2
176
     1
 90
        1
176
     1
 90
        1
176
     1
 90
        2
176
     1
 40
0.6
176
     1
 40
30.0
176
     1
 62
     7
420
 16777215
176
     1
 90
        1
176
     1
 90
        0
176
     1
 62
     7
176
     1
 62
   257
176
     1
 90
        1
176
     1
 90
        1
176
     1
 40
1.0
176
     1
 90
        0
176
     1
 62
   257
176
     1
 40
1.0
176
     1
 90
        1
176
     1
 90
        6
176
     1
 90
        2
176
     1
 62
     7
176
     1
 90
        5
176
     1
 90
        0
176
     1
 90
        0
176
     1
290
     0
176
     1
 90
       13
176
     1
 40
0.0
176
     1
 90
        0
176
     1
290
     0
176
     1
290
     1
176
     1
290
     1
176
     1
290
     0
176
     1
290
     0
176
     1
290
     0
176
     1
290
     0
176
     1
290
     0
176
     1
290
     0
176
     1
 90
       50
176
     1
 40
0.0
176
     1
 40
1.0
176
     1
 90
        0
176
     1
 62
    18
420
        0
176
     1
 90
       50
176
     1
 90
        3
176
     1
 62
     5
420
      255
176
     1
290
     0
176
     1
 90
       50
176
     1
 90
       50
176
     1
 90
       50
176
     1
290
     0
176
     1
 90
       50
176
     1
 62
   256
176
     0
 40
1.0
176
     0
 90
        2
176
     1
  1
strokes_ogs.tif
176
     1
290
     0
176
     1
 40
1.0
176
     1
 40
1.0
176
     1
1001
ACAD
1000
AcDbSavedByObjectVersion
1070
     0
  0
VISUALSTYLE
  5
2C
102
{ACAD_REACTORS
330
29
102
}
330
29
100
AcDbVisualStyle
  2
Gouraud
 70
     2
177
     3
291
     1
 70
    58
 90
        2
176
     1
 90
        2
176
     1
 90
        1
176
     1
 90
        2
176
     1
 40
0.6
176
     1
 40
30.0
176
     1
 62
     7
420
 16777215
176
     1
 90
        0
176
     1
 90
        0
176
     1
 62
     7
176
     1
 62
   257
176
     1
 90
        1
176
     1
 90
        1
176
     1
 40
1.0
176
     1
 90
        0
176
     1
 62
     7
176
     1
 40
1.0
176
     1
 90
        1
176
     1
 90
        6
176
     1
 90
        2
176
     1
 62
     7
176
     1
 90
        5
176
     1
 90
        0
176
     1
 90
        0
176
     1
290
     0
176
     1
 90
       13
176
     1
 40
0.0
176
     1
 90
        0
176
     1
290
     0
176
     1
290
     1
176
     1
290
     1
176
     1
290
     0
176
     1
290
     0
176
     1
290
     0
176
     1
290
     0
176
     1
290
     0
176
     1
290
     0
176
     1
 90
       50
176
     1
 40
0.0
176
     1
 40
1.0
176
     1
 90
        0
176
     1
 62
    18
420
        0
176
     1
 90
       50
176
     1
 90
        3
176
     1
 62
     5
420
      255
176
     1
290
     0
176
     1
 90
       50
176
     1
 90
       50
176
     1
 90
       50
176
     1
290
     0
176
     1
 90
       50
176
     1
 62
   256
176
     0
 40
1.0
176
     0
 90
        2
176
     1
  1
strokes_ogs.tif
176
     1
290
     0
176
     1
 40
1.0
176
     1
 40
1.0
176
     1
1001
ACAD
1000
AcDbSavedByObjectVersion
1070
     0
  0
VISUALSTYLE
  5
2D
102
{ACAD_REACTORS
330
29
102
}
330
29
100
AcDbVisualStyle
  2
GouraudWithEdges
 70
     3
177
     3
291
     1
 70
    58
 90
        2
176
     1
 90
        2
176
     1
 90
        1
176
     1
 90
        2
176
     1
 40
0.6
176
     1
 40
30.0
176
     1
 62
     7
420
 16777215
176
     1
 90
        1
176
     1
 90
        0
176
     1
 62
     7
176
     1
 62
   257
176
     1
 90
        1
176
     1
 90
        1
176
     1
 40
1.0
176
     1
 90
        0
176
     1
 62
   257
176
     1
 40
1.0
176
     1
 90
        1
176
     1
 90
        6
176
     1
 90
        2
176
     1
 62
     7
176
     1
 90
        5
176
     1
 90
        0
176
     1
 90
        0
176
     1
290
     0
176
     1
 90
       13
176
     1
 40
0.0
176
     1
 90
        0
176
     1
290
     0
176
     1
290
     1
176
     1
290
     1
176
     1
290
     0
176
     1
290
     0
176
     1
290
     0
176
     1
290
     0
176
     1
290
     0
176
     1
290
     0
176
     1
 90
       50
176
     1
 40
0.0
176
     1
 40
1.0
176
     1
 90
        0
176
     1
 62
    18
420
        0
176
     1
 90
       50
176
     1
 90
        3
176
     1
 62
     5
420
      255
176
     1
290
     0
176
     1
 90
       50
176
     1
 90
       50
176
     1
 90
       50
176
     1
290
     0
176
     1
 90
       50
176
     1
 62
   256
176
     0
 40
1.0
176
     0
 90
        2
176
     1
  1
strokes_ogs.tif
176
     1
290
     0
176
     1
 40
1.0
176
     1
 40
1.0
176
     1
1001
ACAD
1000
AcDbSavedByObjectVersion
1070
     0
  0
VISUALSTYLE
  5
31
102
{ACAD_REACTORS
330
29
102
}
330
29
100
AcDbVisualStyle
  2
Hidden
 70
     6
177
     3
291
     0
 70
    58
 90
        1
176
     1
 90
        2
176
     1
 90
        2
176
     1
 90
        0
176
     1
 40
0.6
176
     1
 40
30.0
176
     1
 62
     7
420
 16777215
176
     1
 90
        2
176
     1
 90
        2
176
     1
 62
     7
176
     1
 62
   257
176
     1
 90
        2
176
     1
 90
        1
176
     1
 40
40.0
176
     1
 90
        0
176
     1
 62
   257
176
     1
 40
1.0
176
     1
 90
        1
176
     1
 90
        6
176
     1
 90
        2
176
     1
 62
     7
176
     1
 90
        3
176
     1
 90
        0
176
     1
 90
        0
176
     1
290
     0
176
     1
 90
        1
176
     1
 40
0.0
176
     1
 90
        0
176
     1
290
     0
176
     1
290
     1
176
     1
290
     1
176
     1
290
     0
176
     1
290
     0
176
     1
290
     0
176
     1
290
     0
176
     1
290
     0
176
     1
290
     0
176
     1
 90
       50
176
     1
 40
0.0
176
     1
 40
1.0
176
     1
 90
        0
176
     1
 62
    18
420
        0
176
     1
 90
       50
176
     1
 90
        3
176
     1
 62
     5
420
      255
176
     1
290
     0
176
     1
 90
       50
176
     1
 90
       50
176
     1
 90
       50
176
     1
290
     0
176
     1
 90
       50
176
     1
 62
   256
176
     0
 40
1.0
176
     0
 90
        2
176
     1
  1
strokes_ogs.tif
176
     1
290
     0
176
     1
 40
1.0
176
     1
 40
1.0
176
     1
1001
ACAD
1000
AcDbSavedByObjectVersion
1070
     0
  0
VISUALSTYLE
  5
3F
102
{ACAD_REACTORS
330
29
102
}
330
29
100
AcDbVisualStyle
  2
JitterOff
 70
    20
177
     3
291
     1
 70
    58
 90
        2
176
     0
 90
        2
176
     0
 90
        0
176
     0
 90
        0
176
     0
 40
0.6
176
     0
 40
30.0
176
     0
 62
     7
420
 16777215
176
     0
 90
        1
176
     0
 90
        4
176
     0
 62
     7
176
     0
 62
   257
176
     0
 90
        1
176
     0
 90
        1
176
     0
 40
1.0
176
     0
 90
       10
176
     2
 62
     7
176
     0
 40
1.0
176
     0
 90
        1
176
     0
 90
        6
176
     0
 90
        2
176
     0
 62
     7
176
     0
 90
        5
176
     0
 90
        0
176
     0
 90
        0
176
     0
290
     0
176
     0
 90
        1
176
     0
 40
0.0
176
     0
 90
        0
176
     0
290
     0
176
     0
290
     1
176
     0
290
     1
176
     0
290
     0
176
     0
290
     0
176
     0
290
     0
176
     0
290
     0
176
     0
290
     0
176
     0
290
     0
176
     0
 90
       50
176
     0
 40
0.0
176
     0
 40
1.0
176
     0
 90
        0
176
     0
 62
    18
420
        0
176
     0
 90
       50
176
     0
 90
        3
176
     0
 62
     5
420
      255
176
     0
290
     0
176
     0
 90
       50
176
     0
 90
       50
176
     0
 90
       50
176
     0
290
     0
176
     0
 90
       50
176
     0
 62
   256
176
     0
 40
1.0
176
     0
 90
        2
176
     0
  1
strokes_ogs.tif
176
     0
290
     0
176
     0
 40
1.0
176
     0
 40
1.0
176
     0
1001
ACAD
1000
AcDbSavedByObjectVersion
1070
     0
  0
VISUALSTYLE
  5
37
102
{ACAD_REACTORS
330
29
102
}
330
29
100
AcDbVisualStyle
  2
Linepattern
 70
    14
177
     3
291
     1
 70
    58
 90
        2
176
     1
 90
        2
176
     1
 90
        0
176
     1
 90
        0
176
     1
 40
0.6
176
     1
 40
30.0
176
     1
 62
     7
420
 16777215
176
     1
 90
        1
176
     1
 90
        4
176
     1
 62
     7
176
     1
 62
   257
176
     1
 90
        7
176
     1
 90
        7
176
     1
 40
1.0
176
     1
 90
        8
176
     1
 62
     7
176
     1
 40
1.0
176
     1
 90
        1
176
     1
 90
        6
176
     1
 90
        2
176
     1
 62
     7
176
     1
 90
        5
176
     1
 90
        0
176
     1
 90
        0
176
     1
290
     0
176
     1
 90
        1
176
     1
 40
0.0
176
     1
 90
        0
176
     1
290
     0
176
     1
290
     1
176
     1
290
     1
176
     1
290
     0
176
     1
290
     0
176
     1
290
     0
176
     1
290
     0
176
     1
290
     0
176
     1
290
     0
176
     1
 90
       50
176
     1
 40
0.0
176
     1
 40
1.0
176
     1
 90
        0
176
     1
 62
    18
420
        0
176
     1
 90
       50
176
     1
 90
        3
176
     1
 62
     5
420
      255
176
     1
290
     0
176
     1
 90
       50
176
     1
 90
       50
176
     1
 90
       50
176
     1
290
     0
176
     1
 90
       50
176
     1
 62
   256
176
     0
 40
1.0
176
     0
 90
        2
176
     1
  1
strokes_ogs.tif
176
     1
290
     0
176
     1
 40
1.0
176
     1
 40
1.0
176
     1
1001
ACAD
1000
AcDbSavedByObjectVersion
1070
     0
  0
VISUALSTYLE
  5
40
102
{ACAD_REACTORS
330
29
102
}
330
29
100
AcDbVisualStyle
  2
OverhangOff
 70
    21
177
     3
291
     1
 70
    58
 90
        2
176
     0
 90
        2
176
     0
 90
        0
176
     0
 90
        0
176
     0
 40
0.6
176
     0
 40
30.0
176
     0
 62
     7
420
 16777215
176
     0
 90
        1
176
     0
 90
        4
176
     0
 62
     7
176
     0
 62
   257
176
     0
 90
        1
176
     0
 90
        1
176
     0
 40
1.0
176
     0
 90
        9
176
     2
 62
     7
176
     0
 40
1.0
176
     0
 90
        1
176
     0
 90
        6
176
     0
 90
        2
176
     0
 62
     7
176
     0
 90
        5
176
     0
 90
        0
176
     0
 90
        0
176
     0
290
     0
176
     0
 90
        1
176
     0
 40
0.0
176
     0
 90
        0
176
     0
290
     0
176
     0
290
     1
176
     0
290
     1
176
     0
290
     0
176
     0
290
     0
176
     0
290
     0
176
     0
290
     0
176
     0
290
     0
176
     0
290
     0
176
     0
 90
       50
176
     0
 40
0.0
176
     0
 40
1.0
176
     0
 90
        0
176
     0
 62
    18
420
        0
176
     0
 90
       50
176
     0
 90
        3
176
     0
 62
     5
420
      255
176
     0
290
     0
176
     0
 90
       50
176
     0
 90
       50
176
     0
 90
       50
176
     0
290
     0
176
     0
 90
       50
176
     0
 62
   256
176
     0
 40
1.0
176
     0
 90
        2
176
     0
  1
strokes_ogs.tif
176
     0
290
     0
176
     0
 40
1.0
176
     0
 40
1.0
176
     0
1001
ACAD
1000
AcDbSavedByObjectVersion
1070
     0
  0
VISUALSTYLE
  5
33
102
{ACAD_REACTORS
330
29
102
}
330
29
100
AcDbVisualStyle
  2
Realistic
 70
     8
177
     3
291
     0
 70
    58
 90
        2
176
     1
 90
        3
176
     1
 90
        0
176
     1
 90
        2
176
     1
 40
0.6
176
     1
 40
30.0
176
     1
 62
     7
420
 16777215
176
     1
 90
        0
176
     1
 90
        0
176
     1
 62
     7
176
     1
 62
   257
176
     1
 90
        1
176
     1
 90
        1
176
     1
 40
1.0
176
     1
 90
        8
176
     1
 62
   257
176
     1
 40
1.0
176
     1
 90
        1
176
     1
 90
        6
176
     1
 90
        2
176
     1
 62
     7
176
     1
 90
        3
176
     1
 90
        0
176
     1
 90
        0
176
     1
290
     0
176
     1
 90
       13
176
     1
 40
0.0
176
     1
 90
        0
176
     1
290
     0
176
     1
290
     1
176
     1
290
     1
176
     1
290
     0
176
     1
290
     0
176
     1
290
     0
176
     1
290
     0
176
     1
290
     0
176
     1
290
     0
176
     1
 90
       50
176
     1
 40
0.0
176
     1
 40
1.0
176
     1
 90
        0
176
     1
 62
    18
420
        0
176
     1
 90
       50
176
     1
 90
        3
176
     1
 62
     5
420
      255
176
     1
290
     0
176
     1
 90
       50
176
     1
 90
       50
176
     1
 90
       50
176
     1
290
     0
176
     1
 90
       50
176
     1
 62
   256
176
     0
 40
1.0
176
     0
 90
        2
176
     1
  1
strokes_ogs.tif
176
     1
290
     0
176
     1
 40
1.0
176
     1
 40
1.0
176
     1
1001
ACAD
1000
AcDbSavedByObjectVersion
1070
     0
  0
VISUALSTYLE
  5
3E
102
{ACAD_REACTORS
330
29
102
}
330
29
100
AcDbVisualStyle
  2
Shaded
 70
    27
177
     3
291
     0
 70
    58
 90
        2
176
     1
 90
        2
176
     1
 90
        1
176
     1
 90
        2
176
     1
 40
0.6
176
     1
 40
30.0
176
     1
 62
     7
420
 16777215
176
     1
 90
        0
176
     1
 90
        4
176
     1
 62
     7
176
     1
 62
   257
176
     1
 90
        1
176
     1
 90
        1
176
     1
 40
1.0
176
     1
 90
        8
176
     1
 62
   257
176
     1
 40
1.0
176
     1
 90
        1
176
     1
 90
        6
176
     1
 90
        2
176
     1
 62
     8
420
  7895160
176
     1
 90
        3
176
     1
 90
        0
176
     1
 90
        0
176
     1
290
     0
176
     1
 90
        5
176
     1
 40
0.0
176
     1
 90
        0
176
     1
290
     0
176
     1
290
     1
176
     1
290
     1
176
     1
290
     0
176
     1
290
     0
176
     1
290
     0
176
     1
290
     0
176
     1
290
     0
176
     1
290
     0
176
     1
 90
       50
176
     1
 40
0.0
176
     1
 40
1.0
176
     1
 90
        0
176
     1
 62
    18
420
        0
176
     1
 90
       50
176
     1
 90
        3
176
     1
 62
     5
420
      255
176
     1
290
     0
176
     1
 90
       50
176
     1
 90
       50
176
     1
 90
       50
176
     1
290
     0
176
     1
 90
       50
176
     1
 62
   256
176
     0
 40
1.0
176
     0
 90
        2
176
     1
  1
strokes_ogs.tif
176
     1
290
     0
176
     1
 40
1.0
176
     1
 40
1.0
176
     1
1001
ACAD
1000
AcDbSavedByObjectVersion
1070
     0
  0
VISUALSTYLE
  5
3D
102
{ACAD_REACTORS
330
29
102
}
330
29
100
AcDbVisualStyle
  2
Shaded with edges
 70
    26
177
     3
291
     0
 70
    58
 90
        2
176
     1
 90
        2
176
     1
 90
        1
176
     1
 90
        2
176
     1
 40
0.6
176
     1
 40
30.0
176
     1
 62
     7
420
 16777215
176
     1
 90
        1
176
     1
 90
        2
176
     1
 62
     7
176
     1
 62
   257
176
     1
 90
        2
176
     1
 90
        1
176
     1
 40
1.0
176
     1
 90
        8
176
     1
 62
   257
176
     1
 40
1.0
176
     1
 90
        1
176
     1
 90
        6
176
     1
 90
        2
176
     1
 62
     7
176
     1
 90
        3
176
     1
 90
        0
176
     1
 90
        0
176
     1
290
     0
176
     1
 90
        5
176
     1
 40
0.0
176
     1
 90
        0
176
     1
290
     0
176
     1
290
     1
176
     1
290
     1
176
     1
290
     0
176
     1
290
     0
176
     1
290
     0
176
     1
290
     0
176
     1
290
     0
176
     1
290
     0
176
     1
 90
       50
176
     1
 40
0.0
176
     1
 40
1.0
176
     1
 90
        0
176
     1
 62
    18
420
        0
176
     1
 90
       50
176
     1
 90
        3
176
     1
 62
     5
420
      255
176
     1
290
     0
176
     1
 90
       50
176
     1
 90
       50
176
     1
 90
       50
176
     1
290
     0
176
     1
 90
       50
176
     1
 62
   256
176
     0
 40
1.0
176
     0
 90
        2
176
     1
  1
strokes_ogs.tif
176
     1
290
     0
176
     1
 40
1.0
176
     1
 40
1.0
176
     1
1001
ACAD
1000
AcDbSavedByObjectVersion
1070
     0
  0
VISUALSTYLE
  5
3A
102
{ACAD_REACTORS
330
29
102
}
330
29
100
AcDbVisualStyle
  2
Shades of Gray
 70
    23
177
     3
291
     0
 70
    58
 90
        2
176
     1
 90
        2
176
     1
 90
        3
176
     1
 90
        0
176
     1
 40
0.6
176
     1
 40
30.0
176
     1
 62
     7
420
 16777215
176
     1
 90
        2
176
     1
 90
        2
176
     1
 62
     7
176
     1
 62
     7
176
     1
 90
        1
176
     1
 90
        1
176
     1
 40
40.0
176
     1
 90
        8
176
     1
 62
     7
176
     1
 40
1.0
176
     1
 90
        1
176
     1
 90
        6
176
     1
 90
        2
176
     1
 62
     7
176
     1
 90
        3
176
     1
 90
        0
176
     1
 90
        0
176
     1
290
     0
176
     1
 90
        1
176
     1
 40
0.0
176
     1
 90
        0
176
     1
290
     0
176
     1
290
     1
176
     1
290
     1
176
     1
290
     0
176
     1
290
     0
176
     1
290
     0
176
     1
290
     0
176
     1
290
     0
176
     1
290
     0
176
     1
 90
       50
176
     1
 40
0.0
176
     1
 40
1.0
176
     1
 90
        0
176
     1
 62
    18
420
        0
176
     1
 90
       50
176
     1
 90
        3
176
     1
 62
     5
420
      255
176
     1
290
     0
176
     1
 90
       50
176
     1
 90
       50
176
     1
 90
       50
176
     1
290
     0
176
     1
 90
       50
176
     1
 62
   256
176
     0
 40
1.0
176
     0
 90
        2
176
     1
  1
strokes_ogs.tif
176
     1
290
     0
176
     1
 40
1.0
176
     1
 40
1.0
176
     1
1001
ACAD
1000
AcDbSavedByObjectVersion
1070
     0
  0
VISUALSTYLE
  5
3B
102
{ACAD_REACTORS
330
29
102
}
330
29
100
AcDbVisualStyle
  2
Sketchy
 70
    24
177
     3
291
     0
 70
    58
 90
        1
176
     1
 90
        2
176
     1
 90
        2
176
     1
 90
        0
176
     1
 40
0.6
176
     1
 40
30.0
176
     1
 62
     7
420
 16777215
176
     1
 90
        2
176
     1
 90
        2
176
     1
 62
     7
176
     1
 62
     7
176
     1
 90
        1
176
     1
 90
        1
176
     1
 40
40.0
176
     1
 90
       11
176
     1
 62
     7
176
     1
 40
1.0
176
     1
 90
        1
176
     1
 90
        6
176
     1
 90
        2
176
     1
 62
     7
176
     1
 90
        6
176
     1
 90
        0
176
     1
 90
        0
176
     1
290
     0
176
     1
 90
        1
176
     1
 40
0.0
176
     1
 90
        0
176
     1
290
     0
176
     1
290
     1
176
     1
290
     1
176
     1
290
     0
176
     1
290
     0
176
     1
290
     0
176
     1
290
     0
176
     1
290
     0
176
     1
290
     0
176
     1
 90
       50
176
     1
 40
0.0
176
     1
 40
1.0
176
     1
 90
        0
176
     1
 62
    18
420
        0
176
     1
 90
       50
176
     1
 90
        3
176
     1
 62
     5
420
      255
176
     1
290
     0
176
     1
 90
       50
176
     1
 90
       50
176
     1
 90
       50
176
     1
290
     0
176
     1
 90
       50
176
     1
 62
   256
176
     0
 40
1.0
176
     0
 90
        2
176
     1
  1
strokes_ogs.tif
176
     1
290
     0
176
     1
 40
1.0
176
     1
 40
1.0
176
     1
1001
ACAD
1000
AcDbSavedByObjectVersion
1070
     0
  0
VISUALSTYLE
  5
36
102
{ACAD_REACTORS
330
29
102
}
330
29
100
AcDbVisualStyle
  2
Thicken
 70
    13
177
     3
291
     1
 70
    58
 90
        2
176
     1
 90
        2
176
     1
 90
        0
176
     1
 90
        0
176
     1
 40
0.6
176
     1
 40
30.0
176
     1
 62
     7
420
 16777215
176
     1
 90
        1
176
     1
 90
        4
176
     1
 62
     7
176
     1
 62
   257
176
     1
 90
        1
176
     1
 90
        1
176
     1
 40
1.0
176
     1
 90
       12
176
     1
 62
     7
176
     1
 40
1.0
176
     1
 90
        1
176
     1
 90
        6
176
     1
 90
        2
176
     1
 62
     7
176
     1
 90
        5
176
     1
 90
        0
176
     1
 90
        0
176
     1
290
     0
176
     1
 90
        1
176
     1
 40
0.0
176
     1
 90
        0
176
     1
290
     0
176
     1
290
     1
176
     1
290
     1
176
     1
290
     0
176
     1
290
     0
176
     1
290
     0
176
     1
290
     0
176
     1
290
     0
176
     1
290
     0
176
     1
 90
       50
176
     1
 40
0.0
176
     1
 40
1.0
176
     1
 90
        0
176
     1
 62
    18
420
        0
176
     1
 90
       50
176
     1
 90
        3
176
     1
 62
     5
420
      255
176
     1
290
     0
176
     1
 90
       50
176
     1
 90
       50
176
     1
 90
       50
176
     1
290
     0
176
     1
 90
       50
176
     1
 62
   256
176
     0
 40
1.0
176
     0
 90
        2
176
     1
  1
strokes_ogs.tif
176
     1
290
     0
176
     1
 40
1.0
176
     1
 40
1.0
176
     1
1001
ACAD
1000
AcDbSavedByObjectVersion
1070
     0
  0
VISUALSTYLE
  5
30
102
{ACAD_REACTORS
330
29
102
}
330
29
100
AcDbVisualStyle
  2
Wireframe
 70
     5
177
     3
291
     0
 70
    58
 90
        0
176
     1
 90
        2
176
     1
 90
        0
176
     1
 90
        0
176
     1
 40
0.6
176
     1
 40
30.0
176
     1
 62
     7
420
 16777215
176
     1
 90
        1
176
     1
 90
        4
176
     1
 62
     7
176
     1
 62
   257
176
     1
 90
        1
176
     1
 90
        1
176
     1
 40
1.0
176
     1
 90
        0
176
     1
 62
   257
176
     1
 40
1.0
176
     1
 90
        1
176
     1
 90
        6
176
     1
 90
        2
176
     1
 62
     7
176
     1
 90
        3
176
     1
 90
        0
176
     1
 90
        0
176
     1
290
     0
176
     1
 90
        1
176
     1
 40
0.0
176
     1
 90
        0
176
     1
290
     0
176
     1
290
     1
176
     1
290
     1
176
     1
290
     0
176
     1
290
     0
176
     1
290
     0
176
     1
290
     0
176
     1
290
     0
176
     1
290
     0
176
     1
 90
       50
176
     1
 40
0.0
176
     1
 40
1.0
176
     1
 90
        0
176
     1
 62
    18
420
        0
176
     1
 90
       50
176
     1
 90
        3
176
     1
 62
     5
420
      255
176
     1
290
     0
176
     1
 90
       50
176
     1
 90
       50
176
     1
 90
       50
176
     1
290
     0
176
     1
 90
       50
176
     1
 62
   256
176
     0
 40
1.0
176
     0
 90
        2
176
     1
  1
strokes_ogs.tif
176
     1
290
     0
176
     1
 40
1.0
176
     1
 40
1.0
176
     1
1001
ACAD
1000
AcDbSavedByObjectVersion
1070
     0
  0
VISUALSTYLE
  5
3C
102
{ACAD_REACTORS
330
29
102
}
330
29
100
AcDbVisualStyle
  2
X-Ray
 70
    25
177
     3
291
     0
 70
    58
 90
        2
176
     1
 90
        2
176
     1
 90
        1
176
     1
 90
        1
176
     1
 40
0.5
176
     1
 40
30.0
176
     1
 62
     7
420
 16777215
176
     1
 90
        1
176
     1
 90
        0
176
     1
 62
     7
176
     1
 62
   257
176
     1
 90
        1
176
     1
 90
        1
176
     1
 40
1.0
176
     1
 90
        8
176
     1
 62
     7
176
     1
 40
1.0
176
     1
 90
        1
176
     1
 90
        6
176
     1
 90
        2
176
     1
 62
     7
176
     1
 90
        3
176
     1
 90
        0
176
     1
 90
        0
176
     1
290
     0
176
     1
 90
       13
176
     1
 40
0.0
176
     1
 90
        0
176
     1
290
     0
176
     1
290
     1
176
     1
290
     1
176
     1
290
     0
176
     1
290
     0
176
     1
290
     0
176
     1
290
     0
176
     1
290
     0
176
     1
290
     0
176
     1
 90
       50
176
     1
 40
0.0
176
     1
 40
1.0
176
     1
 90
        0
176
     1
 62
    18
420
        0
176
     1
 90
       50
176
     1
 90
        3
176
     1
 62
     5
420
      255
176
     1
290
     0
176
     1
 90
       50
176
     1
 90
       50
176
     1
 90
       50
176
     1
290
     0
176
     1
 90
       50
176
     1
 62
   256
176
     0
 40
1.0
176
     0
 90
        2
176
     1
  1
strokes_ogs.tif
176
     1
290
     0
176
     1
 40
1.0
176
     1
 40
1.0
176
     1
1001
ACAD
1000
AcDbSavedByObjectVersion
1070
     0
  0
DICTIONARYVAR
  5
1AD
102
{ACAD_REACTORS
330
1A8
102
}
330
1A8
100
DictionaryVariables
280
     0
  1
0
  0
DICTIONARYVAR
  5
1AE
102
{ACAD_REACTORS
330
1A8
102
}
330
1A8
100
DictionaryVariables
280
     0
  1
1:1
  0
DICTIONARYVAR
  5
1AA
102
{ACAD_REACTORS
330
1A8
102
}
330
1A8
100
DictionaryVariables
280
     0
  1
STANDARD
  0
DICTIONARYVAR
  5
1A9
102
{ACAD_REACTORS
330
1A8
102
}
330
1A8
100
DictionaryVariables
280
     0
  1
STANDARD
  0
DICTIONARYVAR
  5
1AB
102
{ACAD_REACTORS
330
1A8
102
}
330
1A8
100
DictionaryVariables
280
     0
  1
Imperial24
  0
DICTIONARYVAR
  5
1AC
102
{ACAD_REACTORS
330
1A8
102
}
330
1A8
100
DictionaryVariables
280
     0
  1
Imperial24
  0
DICTIONARY
  5
1B4
330
6B
100
AcDbDictionary
280
     1
281
     1
  3
ACAD_XREC_ROUNDTRIP
360
1B5
  0
DICTIONARY
  5
1A
330
19
100
AcDbDictionary
280
     1
281
     1
  3
BUMPTILE
360
1C
  3
DIFFUSETILE
360
1B
  3
OPACITYTILE
360
1F
  3
REFLECTIONTILE
360
1E
  3
REFRACTIONTILE
360
20
  3
SPECULARTILE
360
1D
  0
DICTIONARY
  5
12
330
11
100
AcDbDictionary
280
     1
281
     1
  3
BUMPTILE
360
14
  3
DIFFUSETILE
360
13
  3
OPACITYTILE
360
17
  3
REFLECTIONTILE
360
16
  3
REFRACTIONTILE
360
18
  3
SPECULARTILE
360
15
  0
DICTIONARY
  5
22
330
21
100
AcDbDictionary
280
     1
281
     1
  3
BUMPTILE
360
24
  3
DIFFUSETILE
360
23
  3
OPACITYTILE
360
27
  3
REFLECTIONTILE
360
26
  3
REFRACTIONTILE
360
28
  3
SPECULARTILE
360
25
  0
DICTIONARY
  5
1B2
330
69
100
AcDbDictionary
280
     1
281
     1
  3
ACAD_XREC_ROUNDTRIP
360
1B3
  0
DICTIONARY
  5
1AF
330
65
100
AcDbDictionary
280
     1
281
     1
  3
ACAD_ROUNDTRIP_2008_TABLESTYLE_CELLSTYLEMAP
360
1B0
  0
XRECORD
  5
1B5
102
{ACAD_REACTORS
330
1B4
102
}
330
1B4
100
AcDbXrecord
280
     1
102
DISPLAYNAME
  1
Imperial24
102
FLAGS
 90
        0
  0
XRECORD
  5
1C
102
{ACAD_REACTORS
330
1A
102
}
330
1A
100
AcDbXrecord
280
     1
270
     1
271
     1
  0
XRECORD
  5
1B
102
{ACAD_REACTORS
330
1A
102
}
330
1A
100
AcDbXrecord
280
     1
270
     1
271
     1
  0
XRECORD
  5
1F
102
{ACAD_REACTORS
330
1A
102
}
330
1A
100
AcDbXrecord
280
     1
270
     1
271
     1
  0
XRECORD
  5
1E
102
{ACAD_REACTORS
330
1A
102
}
330
1A
100
AcDbXrecord
280
     1
270
     1
271
     1
  0
XRECORD
  5
20
102
{ACAD_REACTORS
330
1A
102
}
330
1A
100
AcDbXrecord
280
     1
270
     1
271
     1
  0
XRECORD
  5
1D
102
{ACAD_REACTORS
330
1A
102
}
330
1A
100
AcDbXrecord
280
     1
270
     1
271
     1
  0
XRECORD
  5
14
102
{ACAD_REACTORS
330
12
102
}
330
12
100
AcDbXrecord
280
     1
270
     1
271
     1
  0
XRECORD
  5
13
102
{ACAD_REACTORS
330
12
102
}
330
12
100
AcDbXrecord
280
     1
270
     1
271
     1
  0
XRECORD
  5
17
102
{ACAD_REACTORS
330
12
102
}
330
12
100
AcDbXrecord
280
     1
270
     1
271
     1
  0
XRECORD
  5
16
102
{ACAD_REACTORS
330
12
102
}
330
12
100
AcDbXrecord
280
     1
270
     1
271
     1
  0
XRECORD
  5
18
102
{ACAD_REACTORS
330
12
102
}
330
12
100
AcDbXrecord
280
     1
270
     1
271
     1
  0
XRECORD
  5
15
102
{ACAD_REACTORS
330
12
102
}
330
12
100
AcDbXrecord
280
     1
270
     1
271
     1
  0
XRECORD
  5
24
102
{ACAD_REACTORS
330
22
102
}
330
22
100
AcDbXrecord
280
     1
270
     1
271
     1
  0
XRECORD
  5
23
102
{ACAD_REACTORS
330
22
102
}
330
22
100
AcDbXrecord
280
     1
270
     1
271
     1
  0
XRECORD
  5
27
102
{ACAD_REACTORS
330
22
102
}
330
22
100
AcDbXrecord
280
     1
270
     1
271
     1
  0
XRECORD
  5
26
102
{ACAD_REACTORS
330
22
102
}
330
22
100
AcDbXrecord
280
     1
270
     1
271
     1
  0
XRECORD
  5
28
102
{ACAD_REACTORS
330
22
102
}
330
22
100
AcDbXrecord
280
     1
270
     1
271
     1
  0
XRECORD
  5
25
102
{ACAD_REACTORS
330
22
102
}
330
22
100
AcDbXrecord
280
     1
270
     1
271
     1
  0
XRECORD
  5
1B3
102
{ACAD_REACTORS
330
1B2
102
}
330
1B2
100
AcDbXrecord
280
     1
102
DISPLAYNAME
  1
Imperial24
102
FLAGS
 90
        0
  0
CELLSTYLEMAP
  5
1B0
102
{ACAD_REACTORS
330
1AF
102
}
330
1AF
100
AcDbCellStyleMap
 90
        3
300
CELLSTYLE
  1
TABLEFORMAT_BEGIN
 90
        5
170
     1
 91
        0
 92
    32768
 62
   257
 93
        1
300
CONTENTFORMAT
  1
CONTENTFORMAT_BEGIN
 90
        0
 91
        0
 92
      512
 93
        0
300

 40
0.0
140
1.0
 94
        5
 62
     0
340
55
144
0.25
309
CONTENTFORMAT_END
171
     1
301
MARGIN
  1
CELLMARGIN_BEGIN
 40
1.5
 40
1.5
 40
1.5
 40
1.5
 40
0.18
 40
0.18
309
CELLMARGIN_END
 94
        0
309
TABLEFORMAT_END
  1
CELLSTYLE_BEGIN
 90
        1
 91
        1
300
_TITLE
309
CELLSTYLE_END
300
CELLSTYLE
  1
TABLEFORMAT_BEGIN
 90
        5
170
     1
 91
        0
 92
        0
 62
   257
 93
        1
300
CONTENTFORMAT
  1
CONTENTFORMAT_BEGIN
 90
        0
 91
        0
 92
      512
 93
        0
300

 40
0.0
140
1.0
 94
        5
 62
     0
340
55
144
0.18
309
CONTENTFORMAT_END
171
     1
301
MARGIN
  1
CELLMARGIN_BEGIN
 40
1.5
 40
1.5
 40
1.5
 40
1.5
 40
0.18
 40
0.18
309
CELLMARGIN_END
 94
        0
309
TABLEFORMAT_END
  1
CELLSTYLE_BEGIN
 90
        2
 91
        1
300
_HEADER
309
CELLSTYLE_END
300
CELLSTYLE
  1
TABLEFORMAT_BEGIN
 90
        5
170
     1
 91
        0
 92
        0
 62
   257
 93
        1
300
CONTENTFORMAT
  1
CONTENTFORMAT_BEGIN
 90
        0
 91
        0
 92
      512
 93
        0
300

 40
0.0
140
1.0
 94
        2
 62
     0
340
55
144
0.18
309
CONTENTFORMAT_END
171
     1
301
MARGIN
  1
CELLMARGIN_BEGIN
 40
1.5
 40
1.5
 40
1.5
 40
1.5
 40
0.18
 40
0.18
309
CELLMARGIN_END
 94
        0
309
TABLEFORMAT_END
  1
CELLSTYLE_BEGIN
 90
        3
 91
        2
300
_DATA
309
CELLSTYLE_END
  0
ENDSEC
  0
EOF
