  0
SECTION
  2
HEADER
  9
$ACADVER
  1
AC1018
  9
$ACADMAINTVER
 70
     0
  9
$DWGCODEPAGE
  3
ANSI_1252
  9
$INSBASE
 10
0.0
 20
0.0
 30
0.0
  9
$EXTMIN
 10
1.000000000000000E+20
 20
1.000000000000000E+20
 30
1.000000000000000E+20
  9
$EXTMAX
 10
-1.000000000000000E+20
 20
-1.000000000000000E+20
 30
-1.000000000000000E+20
  9
$LIMMIN
 10
0.0
 20
0.0
  9
$LIMMAX
 10
12.0
 20
9.0
  9
$ORTHOMODE
 70
     0
  9
$REGENMODE
 70
     1
  9
$FILLMODE
 70
     1
  9
$QTEXTMODE
 70
     0
  9
$MIRRTEXT
 70
     1
  9
$LTSCALE
 40
1.0
  9
$ATTMODE
 70
     1
  9
$TEXTSIZE
 40
0.2
  9
$TRACEWID
 40
0.05
  9
$TEXTSTYLE
  7
Standard
  9
$CLAYER
  8
0
  9
$CELTYPE
  6
ByLayer
  9
$CECOLOR
 62
   256
  9
$CELTSCALE
 40
1.0
  9
$DISPSILH
 70
     0
  9
$DIMSCALE
 40
1.0
  9
$DIMASZ
 40
0.18
  9
$DIMEXO
 40
0.0625
  9
$DIMDLI
 40
0.38
  9
$DIMRND
 40
0.0
  9
$DIMDLE
 40
0.0
  9
$DIMEXE
 40
0.18
  9
$DIMTP
 40
0.0
  9
$DIMTM
 40
0.0
  9
$DIMTXT
 40
0.18
  9
$DIMCEN
 40
0.09
  9
$DIMTSZ
 40
0.0
  9
$DIMTOL
 70
     0
  9
$DIMLIM
 70
     0
  9
$DIMTIH
 70
     1
  9
$DIMTOH
 70
     1
  9
$DIMSE1
 70
     0
  9
$DIMSE2
 70
     0
  9
$DIMTAD
 70
     0
  9
$DIMZIN
 70
     0
  9
$DIMBLK
  1

  9
$DIMASO
 70
     1
  9
$DIMSHO
 70
     1
  9
$DIMPOST
  1

  9
$DIMAPOST
  1

  9
$DIMALT
 70
     0
  9
$DIMALTD
 70
     2
  9
$DIMALTF
 40
25.4
  9
$DIMLFAC
 40
1.0
  9
$DIMTOFL
 70
     0
  9
$DIMTVP
 40
0.0
  9
$DIMTIX
 70
     0
  9
$DIMSOXD
 70
     0
  9
$DIMSAH
 70
     0
  9
$DIMBLK1
  1

  9
$DIMBLK2
  1

  9
$DIMSTYLE
  2
Standard
  9
$DIMCLRD
 70
     0
  9
$DIMCLRE
 70
     0
  9
$DIMCLRT
 70
     0
  9
$DIMTFAC
 40
1.0
  9
$DIMGAP
 40
0.09
  9
$DIMJUST
 70
     0
  9
$DIMSD1
 70
     0
  9
$DIMSD2
 70
     0
  9
$DIMTOLJ
 70
     1
  9
$DIMTZIN
 70
     0
  9
$DIMALTZ
 70
     0
  9
$DIMALTTZ
 70
     0
  9
$DIMUPT
 70
     0
  9
$DIMDEC
 70
     4
  9
$DIMTDEC
 70
     4
  9
$DIMALTU
 70
     2
  9
$DIMALTTD
 70
     2
  9
$DIMTXSTY
  7
Standard
  9
$DIMAUNIT
 70
     0
  9
$DIMADEC
 70
     0
  9
$DIMALTRND
 40
0.0
  9
$DIMAZIN
 70
     0
  9
$DIMDSEP
 70
    46
  9
$DIMATFIT
 70
     3
  9
$DIMFRAC
 70
     0
  9
$DIMLDRBLK
  1

  9
$DIMLUNIT
 70
     2
  9
$DIMLWD
 70
    -2
  9
$DIMLWE
 70
    -2
  9
$DIMTMOVE
 70
     0
  9
$LUNITS
 70
     2
  9
$LUPREC
 70
     4
  9
$SKETCHINC
 40
0.1
  9
$FILLETRAD
 40
0.5
  9
$AUNITS
 70
     0
  9
$AUPREC
 70
     0
  9
$MENU
  1
.
  9
$ELEVATION
 40
0.0
  9
$PELEVATION
 40
0.0
  9
$THICKNESS
 40
0.0
  9
$LIMCHECK
 70
     0
  9
$CHAMFERA
 40
0.5
  9
$CHAMFERB
 40
0.5
  9
$CHAMFERC
 40
1.0
  9
$CHAMFERD
 40
0.0
  9
$SKPOLY
 70
     0
  9
$TDCREATE
 40
2458895.480001481
  9
$TDUCREATE
 40
2458895.396668148
  9
$TDUPDATE
 40
2458895.480001493
  9
$TDUUPDATE
 40
2458895.39666816
  9
$TDINDWG
 40
0.0000000116
  9
$TDUSRTIMER
 40
0.0000000116
  9
$USRTIMER
 70
     1
  9
$ANGBASE
 50
0.0
  9
$ANGDIR
 70
     0
  9
$PDMODE
 70
     0
  9
$PDSIZE
 40
0.0
  9
$PLINEWID
 40
0.0
  9
$SPLFRAME
 70
     0
  9
$SPLINETYPE
 70
     6
  9
$SPLINESEGS
 70
     8
  9
$HANDSEED
  5
196
  9
$SURFTAB1
 70
     6
  9
$SURFTAB2
 70
     6
  9
$SURFTYPE
 70
     6
  9
$SURFU
 70
     6
  9
$SURFV
 70
     6
  9
$UCSBASE
  2

  9
$UCSNAME
  2

  9
$UCSORG
 10
0.0
 20
0.0
 30
0.0
  9
$UCSXDIR
 10
1.0
 20
0.0
 30
0.0
  9
$UCSYDIR
 10
0.0
 20
1.0
 30
0.0
  9
$UCSORTHOREF
  2

  9
$UCSORTHOVIEW
 70
     0
  9
$UCSORGTOP
 10
0.0
 20
0.0
 30
0.0
  9
$UCSORGBOTTOM
 10
0.0
 20
0.0
 30
0.0
  9
$UCSORGLEFT
 10
0.0
 20
0.0
 30
0.0
  9
$UCSORGRIGHT
 10
0.0
 20
0.0
 30
0.0
  9
$UCSORGFRONT
 10
0.0
 20
0.0
 30
0.0
  9
$UCSORGBACK
 10
0.0
 20
0.0
 30
0.0
  9
$PUCSBASE
  2

  9
$PUCSNAME
  2

  9
$PUCSORG
 10
0.0
 20
0.0
 30
0.0
  9
$PUCSXDIR
 10
1.0
 20
0.0
 30
0.0
  9
$PUCSYDIR
 10
0.0
 20
1.0
 30
0.0
  9
$PUCSORTHOREF
  2

  9
$PUCSORTHOVIEW
 70
     0
  9
$PUCSORGTOP
 10
0.0
 20
0.0
 30
0.0
  9
$PUCSORGBOTTOM
 10
0.0
 20
0.0
 30
0.0
  9
$PUCSORGLEFT
 10
0.0
 20
0.0
 30
0.0
  9
$PUCSORGRIGHT
 10
0.0
 20
0.0
 30
0.0
  9
$PUCSORGFRONT
 10
0.0
 20
0.0
 30
0.0
  9
$PUCSORGBACK
 10
0.0
 20
0.0
 30
0.0
  9
$USERI1
 70
     0
  9
$USERI2
 70
     0
  9
$USERI3
 70
     0
  9
$USERI4
 70
     0
  9
$USERI5
 70
     0
  9
$USERR1
 40
0.0
  9
$USERR2
 40
0.0
  9
$USERR3
 40
0.0
  9
$USERR4
 40
0.0
  9
$USERR5
 40
0.0
  9
$WORLDVIEW
 70
     1
  9
$SHADEDGE
 70
     3
  9
$SHADEDIF
 70
    70
  9
$TILEMODE
 70
     1
  9
$MAXACTVP
 70
    64
  9
$PINSBASE
 10
0.0
 20
0.0
 30
0.0
  9
$PLIMCHECK
 70
     0
  9
$PEXTMIN
 10
1.000000000000000E+20
 20
1.000000000000000E+20
 30
1.000000000000000E+20
  9
$PEXTMAX
 10
-1.000000000000000E+20
 20
-1.000000000000000E+20
 30
-1.000000000000000E+20
  9
$PLIMMIN
 10
0.0
 20
0.0
  9
$PLIMMAX
 10
12.0
 20
9.0
  9
$UNITMODE
 70
     0
  9
$VISRETAIN
 70
     1
  9
$PLINEGEN
 70
     0
  9
$PSLTSCALE
 70
     1
  9
$TREEDEPTH
 70
  3020
  9
$CMLSTYLE
  2
Standard
  9
$CMLJUST
 70
     0
  9
$CMLSCALE
 40
1.0
  9
$PROXYGRAPHICS
 70
     1
  9
$MEASUREMENT
 70
     0
  9
$CELWEIGHT
370
    -1
  9
$ENDCAPS
280
     0
  9
$JOINSTYLE
280
     0
  9
$LWDISPLAY
290
     1
  9
$INSUNITS
 70
     1
  9
$HYPERLINKBASE
  1

  9
$STYLESHEET
  1

  9
$XEDIT
290
     1
  9
$CEPSNTYPE
380
     0
  9
$PSTYLEMODE
290
     1
  9
$FINGERPRINTGUID
  2
{47E946DA-5744-4C74-9701-E3A39C6259C9}
  9
$VERSIONGUID
  2
{FAEB1C32-E019-11D5-929B-00C0DF256EC4}
  9
$EXTNAMES
290
     1
  9
$PSVPSCALE
 40
0.0
  9
$OLESTARTUP
290
     0
  9
$SORTENTS
280
   127
  9
$INDEXCTL
280
     0
  9
$HIDETEXT
280
     1
  9
$XCLIPFRAME
290
     0
  9
$HALOGAP
280
     0
  9
$OBSCOLOR
 70
   257
  9
$OBSLTYPE
280
     0
  9
$INTERSECTIONDISPLAY
280
     0
  9
$INTERSECTIONCOLOR
 70
   257
  9
$DIMASSOC
280
     2
  9
$PROJECTNAME
  1

  0
ENDSEC
  0
SECTION
  2
CLASSES
  0
CLASS
  1
ACDBDICTIONARYWDFLT
  2
AcDbDictionaryWithDefault
  3
ObjectDBX Classes
 90
        0
 91
        3
280
     0
281
     0
  0
CLASS
  1
VISUALSTYLE
  2
AcDbVisualStyle
  3
ObjectDBX Classes
 90
     4095
 91
        3
280
     0
281
     0
  0
ENDSEC
  0
SECTION
  2
TABLES
  0
TABLE
  2
VPORT
  5
8
330
0
100
AcDbSymbolTable
 70
     1
  0
VPORT
  5
29
330
8
100
AcDbSymbolTableRecord
100
AcDbViewportTableRecord
  2
*Active
 70
     0
 10
0.0
 20
0.0
 11
1.0
 21
1.0
 12
0.0
 22
0.0
 13
0.0
 23
0.0
 14
0.5
 24
0.5
 15
0.5
 25
0.5
 16
0.0
 26
0.0
 36
1.0
 17
148.4999796178229
 27
-105.0008259828644
 37
0.0
 40
210.0016519657288
 41
1.414274394775308
 42
50.0
 43
0.0
 44
0.0
 50
0.0
 51
0.0
 71
     0
 72
   100
 73
     1
 74
     3
 75
     0
 76
     0
 77
     0
 78
     0
281
     0
 65
     1
110
0.0
120
0.0
130
0.0
111
1.0
121
0.0
131
0.0
112
0.0
122
1.0
132
0.0
 79
     0
146
0.0
  0
ENDTAB
  0
TABLE
  2
LTYPE
  5
5
330
0
100
AcDbSymbolTable
 70
     1
  0
LTYPE
  5
14
330
5
100
AcDbSymbolTableRecord
100
AcDbLinetypeTableRecord
  2
ByBlock
 70
     0
  3

 72
    65
 73
     0
 40
0.0
  0
LTYPE
  5
15
330
5
100
AcDbSymbolTableRecord
100
AcDbLinetypeTableRecord
  2
ByLayer
 70
     0
  3

 72
    65
 73
     0
 40
0.0
  0
LTYPE
  5
16
330
5
100
AcDbSymbolTableRecord
100
AcDbLinetypeTableRecord
  2
Continuous
 70
     0
  3
Solid line
 72
    65
 73
     0
 40
0.0
  0
ENDTAB
  0
TABLE
  2
LAYER
  5
2
330
0
100
AcDbSymbolTable
 70
     2
  0
LAYER
  5
10
330
2
100
AcDbSymbolTableRecord
100
AcDbLayerTableRecord
  2
0
 70
     0
 62
     7
  6
Continuous
370
    -3
390
F
  0
LAYER
  5
3B
330
2
100
AcDbSymbolTableRecord
100
AcDbLayerTableRecord
  2
Layer 1
 70
     0
 62
     7
  6
Continuous
370
    -3
390
F
  0
ENDTAB
  0
TABLE
  2
STYLE
  5
3
330
0
100
AcDbSymbolTable
 70
     1
  0
STYLE
  5
11
330
3
100
AcDbSymbolTableRecord
100
AcDbTextStyleTableRecord
  2
Standard
 70
     0
 40
0.0
 41
1.0
 50
0.0
 71
     0
 42
0.2
  3
txt
  4

  0
ENDTAB
  0
TABLE
  2
VIEW
  5
6
330
0
100
AcDbSymbolTable
 70
     0
  0
ENDTAB
  0
TABLE
  2
UCS
  5
7
330
0
100
AcDbSymbolTable
 70
     0
  0
ENDTAB
  0
TABLE
  2
APPID
  5
9
330
0
100
AcDbSymbolTable
 70
     1
  0
APPID
  5
12
330
9
100
AcDbSymbolTableRecord
100
AcDbRegAppTableRecord
  2
ACAD
 70
     0
  0
ENDTAB
  0
TABLE
  2
DIMSTYLE
  5
A
330
0
100
AcDbSymbolTable
 70
     1
100
AcDbDimStyleTable
  0
DIMSTYLE
105
27
330
A
100
AcDbSymbolTableRecord
100
AcDbDimStyleTableRecord
  2
Standard
 70
     0
340
11
  0
ENDTAB
  0
TABLE
  2
BLOCK_RECORD
  5
1
330
0
100
AcDbSymbolTable
 70
     1
  0
BLOCK_RECORD
  5
1F
330
1
100
AcDbSymbolTableRecord
100
AcDbBlockTableRecord
  2
*Model_Space
340
22
  0
BLOCK_RECORD
  5
1B
330
1
100
AcDbSymbolTableRecord
100
AcDbBlockTableRecord
  2
*Paper_Space
340
1E
  0
BLOCK_RECORD
  5
23
330
1
100
AcDbSymbolTableRecord
100
AcDbBlockTableRecord
  2
*Paper_Space0
340
26
  0
ENDTAB
  0
ENDSEC
  0
SECTION
  2
BLOCKS
  0
BLOCK
  5
20
330
1F
100
AcDbEntity
  8
0
100
AcDbBlockBegin
  2
*Model_Space
 70
     0
 71
     0
 10
0.0
 20
0.0
 30
0.0
  3
*Model_Space
  1

  0
ENDBLK
  5
21
330
1F
100
AcDbEntity
  8
0
100
AcDbBlockEnd
  0
BLOCK
  5
1C
330
1B
100
AcDbEntity
 67
     1
  8
0
100
AcDbBlockBegin
  2
*Paper_Space
 70
     0
 71
     0
 10
0.0
 20
0.0
 30
0.0
  3
*Paper_Space
  1

  0
ENDBLK
  5
1D
330
1B
100
AcDbEntity
 67
     1
  8
0
100
AcDbBlockEnd
  0
BLOCK
  5
24
330
23
100
AcDbEntity
  8
0
100
AcDbBlockBegin
  2
*Paper_Space0
 70
     0
 71
     0
 10
0.0
 20
0.0
 30
0.0
  3
*Paper_Space0
  1

  0
ENDBLK
  5
25
330
23
100
AcDbEntity
  8
0
100
AcDbBlockEnd
  0
ENDSEC
  0
SECTION
  2
ENTITIES
  0
POLYLINE
  5
3C
330
1F
100
AcDbEntity
  8
Layer 1
 62
   250
420
  2301728
370
    40
100
AcDb2dPolyline
 66
     1
 10
0.0
 20
0.0
 30
0.0
  0
VERTEX
  5
3D
330
3C
100
AcDbEntity
  8
Layer 1
 62
   250
420
  2301728
370
    40
100
AcDbVertex
100
AcDb2dVertex
 10
98.91006941971693
 20
-110.4346028369747
 30
0.0
  0
VERTEX
  5
3E
330
3C
100
AcDbEntity
  8
Layer 1
 62
   250
420
  2301728
370
    40
100
AcDbVertex
100
AcDb2dVertex
 10
98.91006941971693
 20
-121.1650417448824
 30
0.0
  0
VERTEX
  5
3F
330
3C
100
AcDbEntity
  8
Layer 1
 62
   250
420
  2301728
370
    40
100
AcDbVertex
100
AcDb2dVertex
 10
95.69097219829948
 20
-121.1650417448824
 30
0.0
  0
VERTEX
  5
40
330
3C
100
AcDbEntity
  8
Layer 1
 62
   250
420
  2301728
370
    40
100
AcDbVertex
100
AcDb2dVertex
 10
95.69097219829948
 20
-110.4346028369747
 30
0.0
  0
VERTEX
  5
41
330
3C
100
AcDbEntity
  8
Layer 1
 62
   250
420
  2301728
370
    40
100
AcDbVertex
100
AcDb2dVertex
 10
86.57008190110054
 20
-110.4346028369747
 30
0.0
  0
VERTEX
  5
42
330
3C
100
AcDbEntity
  8
Layer 1
 62
   250
420
  2301728
370
    40
100
AcDbVertex
100
AcDb2dVertex
 10
86.57008190110054
 20
-196.278114100236
 30
0.0
  0
VERTEX
  5
43
330
3C
100
AcDbEntity
  8
Layer 1
 62
   250
420
  2301728
370
    40
100
AcDbVertex
100
AcDb2dVertex
 10
95.69097219829948
 20
-196.278114100236
 30
0.0
  0
VERTEX
  5
44
330
3C
100
AcDbEntity
  8
Layer 1
 62
   250
420
  2301728
370
    40
100
AcDbVertex
100
AcDb2dVertex
 10
95.69097219829948
 20
-185.5476751923284
 30
0.0
  0
VERTEX
  5
45
330
3C
100
AcDbEntity
  8
Layer 1
 62
   250
420
  2301728
370
    40
100
AcDbVertex
100
AcDb2dVertex
 10
98.91006941971693
 20
-185.5476751923284
 30
0.0
  0
VERTEX
  5
46
330
3C
100
AcDbEntity
  8
Layer 1
 62
   250
420
  2301728
370
    40
100
AcDbVertex
100
AcDb2dVertex
 10
98.91006941971693
 20
-196.278114100236
 30
0.0
  0
VERTEX
  5
47
330
3C
100
AcDbEntity
  8
Layer 1
 62
   250
420
  2301728
370
    40
100
AcDbVertex
100
AcDb2dVertex
 10
108.0307874621416
 20
-196.278114100236
 30
0.0
  0
VERTEX
  5
48
330
3C
100
AcDbEntity
  8
Layer 1
 62
   250
420
  2301728
370
    40
100
AcDbVertex
100
AcDb2dVertex
 10
108.0307874621416
 20
-110.4346028369747
 30
0.0
  0
VERTEX
  5
49
330
3C
100
AcDbEntity
  8
Layer 1
 62
   250
420
  2301728
370
    40
100
AcDbVertex
100
AcDb2dVertex
 10
98.91006941971693
 20
-110.4346028369747
 30
0.0
  0
SEQEND
  5
4A
330
3C
100
AcDbEntity
  8
Layer 1
370
    40
  0
POLYLINE
  5
4B
330
1F
100
AcDbEntity
  8
Layer 1
 62
   250
420
  2301728
370
    40
100
AcDb2dPolyline
 66
     1
 10
0.0
 20
0.0
 30
0.0
  0
VERTEX
  5
4C
330
4B
100
AcDbEntity
  8
Layer 1
 62
   250
420
  2301728
370
    40
100
AcDbVertex
100
AcDb2dVertex
 10
70.63651528182004
 20
-176.4664034932098
 30
0.0
  0
VERTEX
  5
4D
330
4B
100
AcDbEntity
  8
Layer 1
 62
   250
420
  2301728
370
    40
100
AcDbVertex
100
AcDb2dVertex
 10
77.4671061004249
 20
-183.2969943118146
 30
0.0
  0
VERTEX
  5
4E
330
4B
100
AcDbEntity
  8
Layer 1
 62
   250
420
  2301728
370
    40
100
AcDbVertex
100
AcDb2dVertex
 10
77.4671061004249
 20
-123.4663655290292
 30
0.0
  0
VERTEX
  5
4F
330
4B
100
AcDbEntity
  8
Layer 1
 62
   250
420
  2301728
370
    40
100
AcDbVertex
100
AcDb2dVertex
 10
70.63651528182004
 20
-130.2969563476341
 30
0.0
  0
VERTEX
  5
50
330
4B
100
AcDbEntity
  8
Layer 1
 62
   250
420
  2301728
370
    40
100
AcDbVertex
100
AcDb2dVertex
 10
68.36034069471548
 20
-128.020437250981
 30
0.0
  0
VERTEX
  5
51
330
4B
100
AcDbEntity
  8
Layer 1
 62
   250
420
  2301728
370
    40
100
AcDbVertex
100
AcDb2dVertex
 10
75.19093151332032
 20
-121.1898464323762
 30
0.0
  0
VERTEX
  5
52
330
4B
100
AcDbEntity
  8
Layer 1
 62
   250
420
  2301728
370
    40
100
AcDbVertex
100
AcDb2dVertex
 10
15.36030273053493
 20
-121.1898464323762
 30
0.0
  0
VERTEX
  5
53
330
4B
100
AcDbEntity
  8
Layer 1
 62
   250
420
  2301728
370
    40
100
AcDbVertex
100
AcDb2dVertex
 10
22.19037678481699
 20
-128.0200927414325
 30
0.0
  0
VERTEX
  5
54
330
4B
100
AcDbEntity
  8
Layer 1
 62
   250
420
  2301728
370
    40
100
AcDbVertex
100
AcDb2dVertex
 10
19.91402994293816
 20
-130.2966118380856
 30
0.0
  0
VERTEX
  5
55
330
4B
100
AcDbEntity
  8
Layer 1
 62
   250
420
  2301728
370
    40
100
AcDbVertex
100
AcDb2dVertex
 10
13.08378363388183
 20
-123.4660210194807
 30
0.0
  0
VERTEX
  5
56
330
4B
100
AcDbEntity
  8
Layer 1
 62
   250
420
  2301728
370
    40
100
AcDbVertex
100
AcDb2dVertex
 10
13.08378363388183
 20
-183.2973388213632
 30
0.0
  0
VERTEX
  5
57
330
4B
100
AcDbEntity
  8
Layer 1
 62
   250
420
  2301728
370
    40
100
AcDbVertex
100
AcDb2dVertex
 10
19.91402994293816
 20
-176.4664034932098
 30
0.0
  0
VERTEX
  5
58
330
4B
100
AcDbEntity
  8
Layer 1
 62
   250
420
  2301728
370
    40
100
AcDbVertex
100
AcDb2dVertex
 10
22.19037678481699
 20
-178.7432670994114
 30
0.0
  0
VERTEX
  5
59
330
4B
100
AcDbEntity
  8
Layer 1
 62
   250
420
  2301728
370
    40
100
AcDbVertex
100
AcDb2dVertex
 10
15.3599582209864
 20
-185.5731688989192
 30
0.0
  0
VERTEX
  5
5A
330
4B
100
AcDbEntity
  8
Layer 1
 62
   250
420
  2301728
370
    40
100
AcDbVertex
100
AcDb2dVertex
 10
75.19093151332032
 20
-185.5731688989192
 30
0.0
  0
VERTEX
  5
5B
330
4B
100
AcDbEntity
  8
Layer 1
 62
   250
420
  2301728
370
    40
100
AcDbVertex
100
AcDb2dVertex
 10
68.36034069471548
 20
-178.7429225898629
 30
0.0
  0
VERTEX
  5
5C
330
4B
100
AcDbEntity
  8
Layer 1
 62
   250
420
  2301728
370
    40
100
AcDbVertex
100
AcDb2dVertex
 10
70.63651528182004
 20
-176.4664034932098
 30
0.0
  0
SEQEND
  5
5D
330
4B
100
AcDbEntity
  8
Layer 1
370
    40
  0
POLYLINE
  5
5E
330
1F
100
AcDbEntity
  8
Layer 1
 62
   250
420
  2301728
370
    40
100
AcDb2dPolyline
 66
     1
 10
0.0
 20
0.0
 30
0.0
  0
VERTEX
  5
5F
330
5E
100
AcDbEntity
  8
Layer 1
 62
   250
420
  2301728
370
    40
100
AcDbVertex
100
AcDb2dVertex
 10
56.00622828460956
 20
-154.9914007859049
 30
0.0
  0
VERTEX
  5
60
330
5E
100
AcDbEntity
  8
Layer 1
 62
   250
420
  2301728
370
    40
100
AcDbVertex
100
AcDb2dVertex
 10
34.54500595924569
 20
-154.9914007859049
 30
0.0
  0
VERTEX
  5
61
330
5E
100
AcDbEntity
  8
Layer 1
 62
   250
420
  2301728
370
    40
100
AcDbVertex
100
AcDb2dVertex
 10
34.54500595924569
 20
-151.7723035644875
 30
0.0
  0
VERTEX
  5
62
330
5E
100
AcDbEntity
  8
Layer 1
 62
   250
420
  2301728
370
    40
100
AcDbVertex
100
AcDb2dVertex
 10
56.00622828460956
 20
-151.7723035644875
 30
0.0
  0
VERTEX
  5
63
330
5E
100
AcDbEntity
  8
Layer 1
 62
   250
420
  2301728
370
    40
100
AcDbVertex
100
AcDb2dVertex
 10
56.00622828460956
 20
-154.9914007859049
 30
0.0
  0
SEQEND
  5
64
330
5E
100
AcDbEntity
  8
Layer 1
370
    40
  0
POLYLINE
  5
65
330
1F
100
AcDbEntity
  8
Layer 1
 62
   250
420
  2301728
370
    30
100
AcDb2dPolyline
 66
     1
 10
0.0
 20
0.0
 30
0.0
  0
VERTEX
  5
66
330
65
100
AcDbEntity
  8
Layer 1
 62
   250
420
  2301728
370
    30
100
AcDbVertex
100
AcDb2dVertex
 10
89.62226424625763
 20
-168.3749077270035
 30
0.0
  0
VERTEX
  5
67
330
65
100
AcDbEntity
  8
Layer 1
 62
   250
420
  2301728
370
    30
100
AcDbVertex
100
AcDb2dVertex
 10
105.2848741056232
 20
-168.3749077270035
 30
0.0
  0
SEQEND
  5
68
330
65
100
AcDbEntity
  8
Layer 1
370
    30
  0
POLYLINE
  5
69
330
1F
100
AcDbEntity
  8
Layer 1
 62
   250
420
  2301728
370
    30
100
AcDb2dPolyline
 66
     1
 10
0.0
 20
0.0
 30
0.0
  0
VERTEX
  5
6A
330
69
100
AcDbEntity
  8
Layer 1
 62
   250
420
  2301728
370
    30
100
AcDbVertex
100
AcDb2dVertex
 10
89.62226424625763
 20
-163.4232719860539
 30
0.0
  0
VERTEX
  5
6B
330
69
100
AcDbEntity
  8
Layer 1
 62
   250
420
  2301728
370
    30
100
AcDbVertex
100
AcDb2dVertex
 10
105.2848741056232
 20
-163.4232719860539
 30
0.0
  0
SEQEND
  5
6C
330
69
100
AcDbEntity
  8
Layer 1
370
    30
  0
POLYLINE
  5
6D
330
1F
100
AcDbEntity
  8
Layer 1
 62
   250
420
  2301728
370
    30
100
AcDb2dPolyline
 66
     1
 10
0.0
 20
0.0
 30
0.0
  0
VERTEX
  5
6E
330
6D
100
AcDbEntity
  8
Layer 1
 62
   250
420
  2301728
370
    30
100
AcDbVertex
100
AcDb2dVertex
 10
98.70749780518425
 20
-164.6986463346934
 30
0.0
  0
VERTEX
  5
6F
330
6D
100
AcDbEntity
  8
Layer 1
 62
   250
420
  2301728
370
    30
100
AcDbVertex
100
AcDb2dVertex
 10
108.0307874621416
 20
-164.6986463346934
 30
0.0
  0
SEQEND
  5
70
330
6D
100
AcDbEntity
  8
Layer 1
370
    30
  0
POLYLINE
  5
71
330
1F
100
AcDbEntity
  8
Layer 1
 62
   250
420
  2301728
370
    30
100
AcDb2dPolyline
 66
     1
 10
0.0
 20
0.0
 30
0.0
  0
VERTEX
  5
72
330
71
100
AcDbEntity
  8
Layer 1
 62
   250
420
  2301728
370
    30
100
AcDbVertex
100
AcDb2dVertex
 10
86.57008190110054
 20
-164.6986463346934
 30
0.0
  0
VERTEX
  5
73
330
71
100
AcDbEntity
  8
Layer 1
 62
   250
420
  2301728
370
    30
100
AcDbVertex
100
AcDb2dVertex
 10
95.86839461578985
 20
-164.6986463346934
 30
0.0
  0
SEQEND
  5
74
330
71
100
AcDbEntity
  8
Layer 1
370
    30
  0
POLYLINE
  5
75
330
1F
100
AcDbEntity
  8
Layer 1
 62
   250
420
  2301728
370
    30
100
AcDb2dPolyline
 66
     1
 10
0.0
 20
0.0
 30
0.0
  0
VERTEX
  5
76
330
75
100
AcDbEntity
  8
Layer 1
 62
   250
420
  2301728
370
    30
100
AcDbVertex
100
AcDb2dVertex
 10
98.70749780518425
 20
-162.1485866565115
 30
0.0
  0
VERTEX
  5
77
330
75
100
AcDbEntity
  8
Layer 1
 62
   250
420
  2301728
370
    30
100
AcDbVertex
100
AcDb2dVertex
 10
108.0307874621416
 20
-162.1485866565115
 30
0.0
  0
SEQEND
  5
78
330
75
100
AcDbEntity
  8
Layer 1
370
    30
  0
POLYLINE
  5
79
330
1F
100
AcDbEntity
  8
Layer 1
 62
   250
420
  2301728
370
    30
100
AcDb2dPolyline
 66
     1
 10
0.0
 20
0.0
 30
0.0
  0
VERTEX
  5
7A
330
79
100
AcDbEntity
  8
Layer 1
 62
   250
420
  2301728
370
    30
100
AcDbVertex
100
AcDb2dVertex
 10
86.57008190110054
 20
-162.1485866565115
 30
0.0
  0
VERTEX
  5
7B
330
79
100
AcDbEntity
  8
Layer 1
 62
   250
420
  2301728
370
    30
100
AcDbVertex
100
AcDb2dVertex
 10
95.86839461578985
 20
-162.1485866565115
 30
0.0
  0
SEQEND
  5
7C
330
79
100
AcDbEntity
  8
Layer 1
370
    30
  0
POLYLINE
  5
7D
330
1F
100
AcDbEntity
  8
Layer 1
 62
   250
420
  2301728
370
    30
100
AcDb2dPolyline
 66
     1
 10
0.0
 20
0.0
 30
0.0
  0
VERTEX
  5
7E
330
7D
100
AcDbEntity
  8
Layer 1
 62
   250
420
  2301728
370
    30
100
AcDbVertex
100
AcDb2dVertex
 10
89.62226424625763
 20
-165.9733316642358
 30
0.0
  0
VERTEX
  5
7F
330
7D
100
AcDbEntity
  8
Layer 1
 62
   250
420
  2301728
370
    30
100
AcDbVertex
100
AcDb2dVertex
 10
105.2848741056232
 20
-165.9733316642358
 30
0.0
  0
SEQEND
  5
80
330
7D
100
AcDbEntity
  8
Layer 1
370
    30
  0
POLYLINE
  5
81
330
1F
100
AcDbEntity
  8
Layer 1
 62
   250
420
  2301728
370
    30
100
AcDb2dPolyline
 66
     1
 10
0.0
 20
0.0
 30
0.0
  0
VERTEX
  5
82
330
81
100
AcDbEntity
  8
Layer 1
 62
   250
420
  2301728
370
    30
100
AcDbVertex
100
AcDb2dVertex
 10
98.70749780518425
 20
-167.2487060128753
 30
0.0
  0
VERTEX
  5
83
330
81
100
AcDbEntity
  8
Layer 1
 62
   250
420
  2301728
370
    30
100
AcDbVertex
100
AcDb2dVertex
 10
108.0307874621416
 20
-167.2487060128753
 30
0.0
  0
SEQEND
  5
84
330
81
100
AcDbEntity
  8
Layer 1
370
    30
  0
POLYLINE
  5
85
330
1F
100
AcDbEntity
  8
Layer 1
 62
   250
420
  2301728
370
    30
100
AcDb2dPolyline
 66
     1
 10
0.0
 20
0.0
 30
0.0
  0
VERTEX
  5
86
330
85
100
AcDbEntity
  8
Layer 1
 62
   250
420
  2301728
370
    30
100
AcDbVertex
100
AcDb2dVertex
 10
86.57008190110054
 20
-167.2487060128753
 30
0.0
  0
VERTEX
  5
87
330
85
100
AcDbEntity
  8
Layer 1
 62
   250
420
  2301728
370
    30
100
AcDbVertex
100
AcDb2dVertex
 10
95.86839461578985
 20
-167.2487060128753
 30
0.0
  0
SEQEND
  5
88
330
85
100
AcDbEntity
  8
Layer 1
370
    30
  0
POLYLINE
  5
89
330
1F
100
AcDbEntity
  8
Layer 1
 62
   250
420
  2301728
370
    30
100
AcDb2dPolyline
 66
     1
 10
0.0
 20
0.0
 30
0.0
  0
VERTEX
  5
8A
330
89
100
AcDbEntity
  8
Layer 1
 62
   250
420
  2301728
370
    30
100
AcDbVertex
100
AcDb2dVertex
 10
89.62226424625763
 20
-160.8649440787074
 30
0.0
  0
VERTEX
  5
8B
330
89
100
AcDbEntity
  8
Layer 1
 62
   250
420
  2301728
370
    30
100
AcDbVertex
100
AcDb2dVertex
 10
105.2848741056232
 20
-160.8649440787074
 30
0.0
  0
SEQEND
  5
8C
330
89
100
AcDbEntity
  8
Layer 1
370
    30
  0
POLYLINE
  5
8D
330
1F
100
AcDbEntity
  8
Layer 1
 62
   250
420
  2301728
370
    30
100
AcDb2dPolyline
 66
     1
 10
0.0
 20
0.0
 30
0.0
  0
VERTEX
  5
8E
330
8D
100
AcDbEntity
  8
Layer 1
 62
   250
420
  2301728
370
    30
100
AcDbVertex
100
AcDb2dVertex
 10
89.62226424625763
 20
-175.8834933371055
 30
0.0
  0
VERTEX
  5
8F
330
8D
100
AcDbEntity
  8
Layer 1
 62
   250
420
  2301728
370
    30
100
AcDbVertex
100
AcDb2dVertex
 10
105.2848741056232
 20
-175.8834933371055
 30
0.0
  0
SEQEND
  5
90
330
8D
100
AcDbEntity
  8
Layer 1
370
    30
  0
POLYLINE
  5
91
330
1F
100
AcDbEntity
  8
Layer 1
 62
   250
420
  2301728
370
    30
100
AcDb2dPolyline
 66
     1
 10
0.0
 20
0.0
 30
0.0
  0
VERTEX
  5
92
330
91
100
AcDbEntity
  8
Layer 1
 62
   250
420
  2301728
370
    30
100
AcDbVertex
100
AcDb2dVertex
 10
89.62226424625763
 20
-170.9322021057044
 30
0.0
  0
VERTEX
  5
93
330
91
100
AcDbEntity
  8
Layer 1
 62
   250
420
  2301728
370
    30
100
AcDbVertex
100
AcDb2dVertex
 10
105.2848741056232
 20
-170.9322021057044
 30
0.0
  0
SEQEND
  5
94
330
91
100
AcDbEntity
  8
Layer 1
370
    30
  0
POLYLINE
  5
95
330
1F
100
AcDbEntity
  8
Layer 1
 62
   250
420
  2301728
370
    30
100
AcDb2dPolyline
 66
     1
 10
0.0
 20
0.0
 30
0.0
  0
VERTEX
  5
96
330
95
100
AcDbEntity
  8
Layer 1
 62
   250
420
  2301728
370
    30
100
AcDbVertex
100
AcDb2dVertex
 10
98.70749780518425
 20
-172.207576454344
 30
0.0
  0
VERTEX
  5
97
330
95
100
AcDbEntity
  8
Layer 1
 62
   250
420
  2301728
370
    30
100
AcDbVertex
100
AcDb2dVertex
 10
108.0307874621416
 20
-172.207576454344
 30
0.0
  0
SEQEND
  5
98
330
95
100
AcDbEntity
  8
Layer 1
370
    30
  0
POLYLINE
  5
99
330
1F
100
AcDbEntity
  8
Layer 1
 62
   250
420
  2301728
370
    30
100
AcDb2dPolyline
 66
     1
 10
0.0
 20
0.0
 30
0.0
  0
VERTEX
  5
9A
330
99
100
AcDbEntity
  8
Layer 1
 62
   250
420
  2301728
370
    30
100
AcDbVertex
100
AcDb2dVertex
 10
86.57008190110054
 20
-172.207576454344
 30
0.0
  0
VERTEX
  5
9B
330
99
100
AcDbEntity
  8
Layer 1
 62
   250
420
  2301728
370
    30
100
AcDbVertex
100
AcDb2dVertex
 10
95.86839461578985
 20
-172.207576454344
 30
0.0
  0
SEQEND
  5
9C
330
99
100
AcDbEntity
  8
Layer 1
370
    30
  0
POLYLINE
  5
9D
330
1F
100
AcDbEntity
  8
Layer 1
 62
   250
420
  2301728
370
    30
100
AcDb2dPolyline
 66
     1
 10
0.0
 20
0.0
 30
0.0
  0
VERTEX
  5
9E
330
9D
100
AcDbEntity
  8
Layer 1
 62
   250
420
  2301728
370
    30
100
AcDbVertex
100
AcDb2dVertex
 10
98.70749780518425
 20
-169.657516776162
 30
0.0
  0
VERTEX
  5
9F
330
9D
100
AcDbEntity
  8
Layer 1
 62
   250
420
  2301728
370
    30
100
AcDbVertex
100
AcDb2dVertex
 10
108.0307874621416
 20
-169.657516776162
 30
0.0
  0
SEQEND
  5
A0
330
9D
100
AcDbEntity
  8
Layer 1
370
    30
  0
POLYLINE
  5
A1
330
1F
100
AcDbEntity
  8
Layer 1
 62
   250
420
  2301728
370
    30
100
AcDb2dPolyline
 66
     1
 10
0.0
 20
0.0
 30
0.0
  0
VERTEX
  5
A2
330
A1
100
AcDbEntity
  8
Layer 1
 62
   250
420
  2301728
370
    30
100
AcDbVertex
100
AcDb2dVertex
 10
86.57008190110054
 20
-169.657516776162
 30
0.0
  0
VERTEX
  5
A3
330
A1
100
AcDbEntity
  8
Layer 1
 62
   250
420
  2301728
370
    30
100
AcDbVertex
100
AcDb2dVertex
 10
95.86839461578985
 20
-169.657516776162
 30
0.0
  0
SEQEND
  5
A4
330
A1
100
AcDbEntity
  8
Layer 1
370
    30
  0
POLYLINE
  5
A5
330
1F
100
AcDbEntity
  8
Layer 1
 62
   250
420
  2301728
370
    30
100
AcDb2dPolyline
 66
     1
 10
0.0
 20
0.0
 30
0.0
  0
VERTEX
  5
A6
330
A5
100
AcDbEntity
  8
Layer 1
 62
   250
420
  2301728
370
    30
100
AcDbVertex
100
AcDb2dVertex
 10
89.62226424625763
 20
-173.4829508029834
 30
0.0
  0
VERTEX
  5
A7
330
A5
100
AcDbEntity
  8
Layer 1
 62
   250
420
  2301728
370
    30
100
AcDbVertex
100
AcDb2dVertex
 10
105.2848741056232
 20
-173.4829508029834
 30
0.0
  0
SEQEND
  5
A8
330
A5
100
AcDbEntity
  8
Layer 1
370
    30
  0
POLYLINE
  5
A9
330
1F
100
AcDbEntity
  8
Layer 1
 62
   250
420
  2301728
370
    30
100
AcDb2dPolyline
 66
     1
 10
0.0
 20
0.0
 30
0.0
  0
VERTEX
  5
AA
330
A9
100
AcDbEntity
  8
Layer 1
 62
   250
420
  2301728
370
    30
100
AcDbVertex
100
AcDb2dVertex
 10
98.70749780518425
 20
-174.7576361325259
 30
0.0
  0
VERTEX
  5
AB
330
A9
100
AcDbEntity
  8
Layer 1
 62
   250
420
  2301728
370
    30
100
AcDbVertex
100
AcDb2dVertex
 10
108.0307874621416
 20
-174.7576361325259
 30
0.0
  0
SEQEND
  5
AC
330
A9
100
AcDbEntity
  8
Layer 1
370
    30
  0
POLYLINE
  5
AD
330
1F
100
AcDbEntity
  8
Layer 1
 62
   250
420
  2301728
370
    30
100
AcDb2dPolyline
 66
     1
 10
0.0
 20
0.0
 30
0.0
  0
VERTEX
  5
AE
330
AD
100
AcDbEntity
  8
Layer 1
 62
   250
420
  2301728
370
    30
100
AcDbVertex
100
AcDb2dVertex
 10
86.57008190110054
 20
-174.7576361325259
 30
0.0
  0
VERTEX
  5
AF
330
AD
100
AcDbEntity
  8
Layer 1
 62
   250
420
  2301728
370
    30
100
AcDbVertex
100
AcDb2dVertex
 10
95.86839461578985
 20
-174.7576361325259
 30
0.0
  0
SEQEND
  5
B0
330
AD
100
AcDbEntity
  8
Layer 1
370
    30
  0
POLYLINE
  5
B1
330
1F
100
AcDbEntity
  8
Layer 1
 62
   250
420
  2301728
370
    30
100
AcDb2dPolyline
 66
     1
 10
0.0
 20
0.0
 30
0.0
  0
VERTEX
  5
B2
330
B1
100
AcDbEntity
  8
Layer 1
 62
   250
420
  2301728
370
    30
100
AcDbVertex
100
AcDb2dVertex
 10
89.62226424625763
 20
-155.9143418664034
 30
0.0
  0
VERTEX
  5
B3
330
B1
100
AcDbEntity
  8
Layer 1
 62
   250
420
  2301728
370
    30
100
AcDbVertex
100
AcDb2dVertex
 10
105.2848741056232
 20
-155.9143418664034
 30
0.0
  0
SEQEND
  5
B4
330
B1
100
AcDbEntity
  8
Layer 1
370
    30
  0
POLYLINE
  5
B5
330
1F
100
AcDbEntity
  8
Layer 1
 62
   250
420
  2301728
370
    30
100
AcDb2dPolyline
 66
     1
 10
0.0
 20
0.0
 30
0.0
  0
VERTEX
  5
B6
330
B5
100
AcDbEntity
  8
Layer 1
 62
   250
420
  2301728
370
    30
100
AcDbVertex
100
AcDb2dVertex
 10
98.70749780518425
 20
-157.1890271959458
 30
0.0
  0
VERTEX
  5
B7
330
B5
100
AcDbEntity
  8
Layer 1
 62
   250
420
  2301728
370
    30
100
AcDbVertex
100
AcDb2dVertex
 10
108.0307874621416
 20
-157.1890271959458
 30
0.0
  0
SEQEND
  5
B8
330
B5
100
AcDbEntity
  8
Layer 1
370
    30
  0
POLYLINE
  5
B9
330
1F
100
AcDbEntity
  8
Layer 1
 62
   250
420
  2301728
370
    30
100
AcDb2dPolyline
 66
     1
 10
0.0
 20
0.0
 30
0.0
  0
VERTEX
  5
BA
330
B9
100
AcDbEntity
  8
Layer 1
 62
   250
420
  2301728
370
    30
100
AcDbVertex
100
AcDb2dVertex
 10
86.57008190110054
 20
-157.1890271959458
 30
0.0
  0
VERTEX
  5
BB
330
B9
100
AcDbEntity
  8
Layer 1
 62
   250
420
  2301728
370
    30
100
AcDbVertex
100
AcDb2dVertex
 10
95.86839461578985
 20
-157.1890271959458
 30
0.0
  0
SEQEND
  5
BC
330
B9
100
AcDbEntity
  8
Layer 1
370
    30
  0
POLYLINE
  5
BD
330
1F
100
AcDbEntity
  8
Layer 1
 62
   250
420
  2301728
370
    30
100
AcDb2dPolyline
 66
     1
 10
0.0
 20
0.0
 30
0.0
  0
VERTEX
  5
BE
330
BD
100
AcDbEntity
  8
Layer 1
 62
   250
420
  2301728
370
    30
100
AcDbVertex
100
AcDb2dVertex
 10
98.70749780518425
 20
-154.6389675177639
 30
0.0
  0
VERTEX
  5
BF
330
BD
100
AcDbEntity
  8
Layer 1
 62
   250
420
  2301728
370
    30
100
AcDbVertex
100
AcDb2dVertex
 10
108.0307874621416
 20
-154.6389675177639
 30
0.0
  0
SEQEND
  5
C0
330
BD
100
AcDbEntity
  8
Layer 1
370
    30
  0
POLYLINE
  5
C1
330
1F
100
AcDbEntity
  8
Layer 1
 62
   250
420
  2301728
370
    30
100
AcDb2dPolyline
 66
     1
 10
0.0
 20
0.0
 30
0.0
  0
VERTEX
  5
C2
330
C1
100
AcDbEntity
  8
Layer 1
 62
   250
420
  2301728
370
    30
100
AcDbVertex
100
AcDb2dVertex
 10
86.57008190110054
 20
-154.6389675177639
 30
0.0
  0
VERTEX
  5
C3
330
C1
100
AcDbEntity
  8
Layer 1
 62
   250
420
  2301728
370
    30
100
AcDbVertex
100
AcDb2dVertex
 10
95.86839461578985
 20
-154.6389675177639
 30
0.0
  0
SEQEND
  5
C4
330
C1
100
AcDbEntity
  8
Layer 1
370
    30
  0
POLYLINE
  5
C5
330
1F
100
AcDbEntity
  8
Layer 1
 62
   250
420
  2301728
370
    30
100
AcDb2dPolyline
 66
     1
 10
0.0
 20
0.0
 30
0.0
  0
VERTEX
  5
C6
330
C5
100
AcDbEntity
  8
Layer 1
 62
   250
420
  2301728
370
    30
100
AcDbVertex
100
AcDb2dVertex
 10
89.62226424625763
 20
-158.4644015445853
 30
0.0
  0
VERTEX
  5
C7
330
C5
100
AcDbEntity
  8
Layer 1
 62
   250
420
  2301728
370
    30
100
AcDbVertex
100
AcDb2dVertex
 10
105.2848741056232
 20
-158.4644015445853
 30
0.0
  0
SEQEND
  5
C8
330
C5
100
AcDbEntity
  8
Layer 1
370
    30
  0
POLYLINE
  5
C9
330
1F
100
AcDbEntity
  8
Layer 1
 62
   250
420
  2301728
370
    30
100
AcDb2dPolyline
 66
     1
 10
0.0
 20
0.0
 30
0.0
  0
VERTEX
  5
CA
330
C9
100
AcDbEntity
  8
Layer 1
 62
   250
420
  2301728
370
    30
100
AcDbVertex
100
AcDb2dVertex
 10
98.70749780518425
 20
-159.7390868741277
 30
0.0
  0
VERTEX
  5
CB
330
C9
100
AcDbEntity
  8
Layer 1
 62
   250
420
  2301728
370
    30
100
AcDbVertex
100
AcDb2dVertex
 10
108.0307874621416
 20
-159.7390868741277
 30
0.0
  0
SEQEND
  5
CC
330
C9
100
AcDbEntity
  8
Layer 1
370
    30
  0
POLYLINE
  5
CD
330
1F
100
AcDbEntity
  8
Layer 1
 62
   250
420
  2301728
370
    30
100
AcDb2dPolyline
 66
     1
 10
0.0
 20
0.0
 30
0.0
  0
VERTEX
  5
CE
330
CD
100
AcDbEntity
  8
Layer 1
 62
   250
420
  2301728
370
    30
100
AcDbVertex
100
AcDb2dVertex
 10
86.57008190110054
 20
-159.7390868741277
 30
0.0
  0
VERTEX
  5
CF
330
CD
100
AcDbEntity
  8
Layer 1
 62
   250
420
  2301728
370
    30
100
AcDbVertex
100
AcDb2dVertex
 10
95.86839461578985
 20
-159.7390868741277
 30
0.0
  0
SEQEND
  5
D0
330
CD
100
AcDbEntity
  8
Layer 1
370
    30
  0
POLYLINE
  5
D1
330
1F
100
AcDbEntity
  8
Layer 1
 62
   250
420
  2301728
370
    30
100
AcDb2dPolyline
 66
     1
 10
0.0
 20
0.0
 30
0.0
  0
VERTEX
  5
D2
330
D1
100
AcDbEntity
  8
Layer 1
 62
   250
420
  2301728
370
    30
100
AcDbVertex
100
AcDb2dVertex
 10
89.62226424625763
 20
-153.3560139590568
 30
0.0
  0
VERTEX
  5
D3
330
D1
100
AcDbEntity
  8
Layer 1
 62
   250
420
  2301728
370
    30
100
AcDbVertex
100
AcDb2dVertex
 10
105.2848741056232
 20
-153.3560139590568
 30
0.0
  0
SEQEND
  5
D4
330
D1
100
AcDbEntity
  8
Layer 1
370
    30
  0
POLYLINE
  5
D5
330
1F
100
AcDbEntity
  8
Layer 1
 62
   250
420
  2301728
370
    30
100
AcDb2dPolyline
 66
     1
 10
0.0
 20
0.0
 30
0.0
  0
VERTEX
  5
D6
330
D5
100
AcDbEntity
  8
Layer 1
 62
   250
420
  2301728
370
    30
100
AcDbVertex
100
AcDb2dVertex
 10
89.62226424625763
 20
-145.8474283489548
 30
0.0
  0
VERTEX
  5
D7
330
D5
100
AcDbEntity
  8
Layer 1
 62
   250
420
  2301728
370
    30
100
AcDbVertex
100
AcDb2dVertex
 10
105.2848741056232
 20
-145.8474283489548
 30
0.0
  0
SEQEND
  5
D8
330
D5
100
AcDbEntity
  8
Layer 1
370
    30
  0
POLYLINE
  5
D9
330
1F
100
AcDbEntity
  8
Layer 1
 62
   250
420
  2301728
370
    30
100
AcDb2dPolyline
 66
     1
 10
0.0
 20
0.0
 30
0.0
  0
VERTEX
  5
DA
330
D9
100
AcDbEntity
  8
Layer 1
 62
   250
420
  2301728
370
    30
100
AcDbVertex
100
AcDb2dVertex
 10
89.62226424625763
 20
-140.8957926080052
 30
0.0
  0
VERTEX
  5
DB
330
D9
100
AcDbEntity
  8
Layer 1
 62
   250
420
  2301728
370
    30
100
AcDbVertex
100
AcDb2dVertex
 10
105.2848741056232
 20
-140.8957926080052
 30
0.0
  0
SEQEND
  5
DC
330
D9
100
AcDbEntity
  8
Layer 1
370
    30
  0
POLYLINE
  5
DD
330
1F
100
AcDbEntity
  8
Layer 1
 62
   250
420
  2301728
370
    30
100
AcDb2dPolyline
 66
     1
 10
0.0
 20
0.0
 30
0.0
  0
VERTEX
  5
DE
330
DD
100
AcDbEntity
  8
Layer 1
 62
   250
420
  2301728
370
    30
100
AcDbVertex
100
AcDb2dVertex
 10
98.70749780518425
 20
-142.1711669566447
 30
0.0
  0
VERTEX
  5
DF
330
DD
100
AcDbEntity
  8
Layer 1
 62
   250
420
  2301728
370
    30
100
AcDbVertex
100
AcDb2dVertex
 10
108.0307874621416
 20
-142.1711669566447
 30
0.0
  0
SEQEND
  5
E0
330
DD
100
AcDbEntity
  8
Layer 1
370
    30
  0
POLYLINE
  5
E1
330
1F
100
AcDbEntity
  8
Layer 1
 62
   250
420
  2301728
370
    30
100
AcDb2dPolyline
 66
     1
 10
0.0
 20
0.0
 30
0.0
  0
VERTEX
  5
E2
330
E1
100
AcDbEntity
  8
Layer 1
 62
   250
420
  2301728
370
    30
100
AcDbVertex
100
AcDb2dVertex
 10
86.57008190110054
 20
-142.1711669566447
 30
0.0
  0
VERTEX
  5
E3
330
E1
100
AcDbEntity
  8
Layer 1
 62
   250
420
  2301728
370
    30
100
AcDbVertex
100
AcDb2dVertex
 10
95.86839461578985
 20
-142.1711669566447
 30
0.0
  0
SEQEND
  5
E4
330
E1
100
AcDbEntity
  8
Layer 1
370
    30
  0
POLYLINE
  5
E5
330
1F
100
AcDbEntity
  8
Layer 1
 62
   250
420
  2301728
370
    30
100
AcDb2dPolyline
 66
     1
 10
0.0
 20
0.0
 30
0.0
  0
VERTEX
  5
E6
330
E5
100
AcDbEntity
  8
Layer 1
 62
   250
420
  2301728
370
    30
100
AcDbVertex
100
AcDb2dVertex
 10
98.70749780518425
 20
-139.6211072784628
 30
0.0
  0
VERTEX
  5
E7
330
E5
100
AcDbEntity
  8
Layer 1
 62
   250
420
  2301728
370
    30
100
AcDbVertex
100
AcDb2dVertex
 10
108.0307874621416
 20
-139.6211072784628
 30
0.0
  0
SEQEND
  5
E8
330
E5
100
AcDbEntity
  8
Layer 1
370
    30
  0
POLYLINE
  5
E9
330
1F
100
AcDbEntity
  8
Layer 1
 62
   250
420
  2301728
370
    30
100
AcDb2dPolyline
 66
     1
 10
0.0
 20
0.0
 30
0.0
  0
VERTEX
  5
EA
330
E9
100
AcDbEntity
  8
Layer 1
 62
   250
420
  2301728
370
    30
100
AcDbVertex
100
AcDb2dVertex
 10
86.57008190110054
 20
-139.6211072784628
 30
0.0
  0
VERTEX
  5
EB
330
E9
100
AcDbEntity
  8
Layer 1
 62
   250
420
  2301728
370
    30
100
AcDbVertex
100
AcDb2dVertex
 10
95.86839461578985
 20
-139.6211072784628
 30
0.0
  0
SEQEND
  5
EC
330
E9
100
AcDbEntity
  8
Layer 1
370
    30
  0
POLYLINE
  5
ED
330
1F
100
AcDbEntity
  8
Layer 1
 62
   250
420
  2301728
370
    30
100
AcDb2dPolyline
 66
     1
 10
0.0
 20
0.0
 30
0.0
  0
VERTEX
  5
EE
330
ED
100
AcDbEntity
  8
Layer 1
 62
   250
420
  2301728
370
    30
100
AcDbVertex
100
AcDb2dVertex
 10
89.62226424625763
 20
-143.4458522861871
 30
0.0
  0
VERTEX
  5
EF
330
ED
100
AcDbEntity
  8
Layer 1
 62
   250
420
  2301728
370
    30
100
AcDbVertex
100
AcDb2dVertex
 10
105.2848741056232
 20
-143.4458522861871
 30
0.0
  0
SEQEND
  5
F0
330
ED
100
AcDbEntity
  8
Layer 1
370
    30
  0
POLYLINE
  5
F1
330
1F
100
AcDbEntity
  8
Layer 1
 62
   250
420
  2301728
370
    30
100
AcDb2dPolyline
 66
     1
 10
0.0
 20
0.0
 30
0.0
  0
VERTEX
  5
F2
330
F1
100
AcDbEntity
  8
Layer 1
 62
   250
420
  2301728
370
    30
100
AcDbVertex
100
AcDb2dVertex
 10
98.70749780518425
 20
-144.7212266348266
 30
0.0
  0
VERTEX
  5
F3
330
F1
100
AcDbEntity
  8
Layer 1
 62
   250
420
  2301728
370
    30
100
AcDbVertex
100
AcDb2dVertex
 10
108.0307874621416
 20
-144.7212266348266
 30
0.0
  0
SEQEND
  5
F4
330
F1
100
AcDbEntity
  8
Layer 1
370
    30
  0
POLYLINE
  5
F5
330
1F
100
AcDbEntity
  8
Layer 1
 62
   250
420
  2301728
370
    30
100
AcDb2dPolyline
 66
     1
 10
0.0
 20
0.0
 30
0.0
  0
VERTEX
  5
F6
330
F5
100
AcDbEntity
  8
Layer 1
 62
   250
420
  2301728
370
    30
100
AcDbVertex
100
AcDb2dVertex
 10
86.57008190110054
 20
-144.7212266348266
 30
0.0
  0
VERTEX
  5
F7
330
F5
100
AcDbEntity
  8
Layer 1
 62
   250
420
  2301728
370
    30
100
AcDbVertex
100
AcDb2dVertex
 10
95.86839461578985
 20
-144.7212266348266
 30
0.0
  0
SEQEND
  5
F8
330
F5
100
AcDbEntity
  8
Layer 1
370
    30
  0
POLYLINE
  5
F9
330
1F
100
AcDbEntity
  8
Layer 1
 62
   250
420
  2301728
370
    30
100
AcDb2dPolyline
 66
     1
 10
0.0
 20
0.0
 30
0.0
  0
VERTEX
  5
FA
330
F9
100
AcDbEntity
  8
Layer 1
 62
   250
420
  2301728
370
    30
100
AcDbVertex
100
AcDb2dVertex
 10
89.62226424625763
 20
-138.3378092102072
 30
0.0
  0
VERTEX
  5
FB
330
F9
100
AcDbEntity
  8
Layer 1
 62
   250
420
  2301728
370
    30
100
AcDbVertex
100
AcDb2dVertex
 10
105.2848741056232
 20
-138.3378092102072
 30
0.0
  0
SEQEND
  5
FC
330
F9
100
AcDbEntity
  8
Layer 1
370
    30
  0
POLYLINE
  5
FD
330
1F
100
AcDbEntity
  8
Layer 1
 62
   250
420
  2301728
370
    30
100
AcDb2dPolyline
 66
     1
 10
0.0
 20
0.0
 30
0.0
  0
VERTEX
  5
FE
330
FD
100
AcDbEntity
  8
Layer 1
 62
   250
420
  2301728
370
    30
100
AcDbVertex
100
AcDb2dVertex
 10
89.62226424625763
 20
-148.4047227276558
 30
0.0
  0
VERTEX
  5
FF
330
FD
100
AcDbEntity
  8
Layer 1
 62
   250
420
  2301728
370
    30
100
AcDbVertex
100
AcDb2dVertex
 10
105.2848741056232
 20
-148.4047227276558
 30
0.0
  0
SEQEND
  5
100
330
FD
100
AcDbEntity
  8
Layer 1
370
    30
  0
POLYLINE
  5
101
330
1F
100
AcDbEntity
  8
Layer 1
 62
   250
420
  2301728
370
    30
100
AcDb2dPolyline
 66
     1
 10
0.0
 20
0.0
 30
0.0
  0
VERTEX
  5
102
330
101
100
AcDbEntity
  8
Layer 1
 62
   250
420
  2301728
370
    30
100
AcDbVertex
100
AcDb2dVertex
 10
98.70749780518425
 20
-149.6800970762953
 30
0.0
  0
VERTEX
  5
103
330
101
100
AcDbEntity
  8
Layer 1
 62
   250
420
  2301728
370
    30
100
AcDbVertex
100
AcDb2dVertex
 10
108.0307874621416
 20
-149.6800970762953
 30
0.0
  0
SEQEND
  5
104
330
101
100
AcDbEntity
  8
Layer 1
370
    30
  0
POLYLINE
  5
105
330
1F
100
AcDbEntity
  8
Layer 1
 62
   250
420
  2301728
370
    30
100
AcDb2dPolyline
 66
     1
 10
0.0
 20
0.0
 30
0.0
  0
VERTEX
  5
106
330
105
100
AcDbEntity
  8
Layer 1
 62
   250
420
  2301728
370
    30
100
AcDbVertex
100
AcDb2dVertex
 10
86.57008190110054
 20
-149.6800970762953
 30
0.0
  0
VERTEX
  5
107
330
105
100
AcDbEntity
  8
Layer 1
 62
   250
420
  2301728
370
    30
100
AcDbVertex
100
AcDb2dVertex
 10
95.86839461578985
 20
-149.6800970762953
 30
0.0
  0
SEQEND
  5
108
330
105
100
AcDbEntity
  8
Layer 1
370
    30
  0
POLYLINE
  5
109
330
1F
100
AcDbEntity
  8
Layer 1
 62
   250
420
  2301728
370
    30
100
AcDb2dPolyline
 66
     1
 10
0.0
 20
0.0
 30
0.0
  0
VERTEX
  5
10A
330
109
100
AcDbEntity
  8
Layer 1
 62
   250
420
  2301728
370
    30
100
AcDbVertex
100
AcDb2dVertex
 10
98.70749780518425
 20
-147.1300373981133
 30
0.0
  0
VERTEX
  5
10B
330
109
100
AcDbEntity
  8
Layer 1
 62
   250
420
  2301728
370
    30
100
AcDbVertex
100
AcDb2dVertex
 10
108.0307874621416
 20
-147.1300373981133
 30
0.0
  0
SEQEND
  5
10C
330
109
100
AcDbEntity
  8
Layer 1
370
    30
  0
POLYLINE
  5
10D
330
1F
100
AcDbEntity
  8
Layer 1
 62
   250
420
  2301728
370
    30
100
AcDb2dPolyline
 66
     1
 10
0.0
 20
0.0
 30
0.0
  0
VERTEX
  5
10E
330
10D
100
AcDbEntity
  8
Layer 1
 62
   250
420
  2301728
370
    30
100
AcDbVertex
100
AcDb2dVertex
 10
86.57008190110054
 20
-147.1300373981133
 30
0.0
  0
VERTEX
  5
10F
330
10D
100
AcDbEntity
  8
Layer 1
 62
   250
420
  2301728
370
    30
100
AcDbVertex
100
AcDb2dVertex
 10
95.86839461578985
 20
-147.1300373981133
 30
0.0
  0
SEQEND
  5
110
330
10D
100
AcDbEntity
  8
Layer 1
370
    30
  0
POLYLINE
  5
111
330
1F
100
AcDbEntity
  8
Layer 1
 62
   250
420
  2301728
370
    30
100
AcDb2dPolyline
 66
     1
 10
0.0
 20
0.0
 30
0.0
  0
VERTEX
  5
112
330
111
100
AcDbEntity
  8
Layer 1
 62
   250
420
  2301728
370
    30
100
AcDbVertex
100
AcDb2dVertex
 10
89.62226424625763
 20
-150.9554714249348
 30
0.0
  0
VERTEX
  5
113
330
111
100
AcDbEntity
  8
Layer 1
 62
   250
420
  2301728
370
    30
100
AcDbVertex
100
AcDb2dVertex
 10
105.2848741056232
 20
-150.9554714249348
 30
0.0
  0
SEQEND
  5
114
330
111
100
AcDbEntity
  8
Layer 1
370
    30
  0
POLYLINE
  5
115
330
1F
100
AcDbEntity
  8
Layer 1
 62
   250
420
  2301728
370
    30
100
AcDb2dPolyline
 66
     1
 10
0.0
 20
0.0
 30
0.0
  0
VERTEX
  5
116
330
115
100
AcDbEntity
  8
Layer 1
 62
   250
420
  2301728
370
    30
100
AcDbVertex
100
AcDb2dVertex
 10
98.70749780518425
 20
-152.2301567544772
 30
0.0
  0
VERTEX
  5
117
330
115
100
AcDbEntity
  8
Layer 1
 62
   250
420
  2301728
370
    30
100
AcDbVertex
100
AcDb2dVertex
 10
108.0307874621416
 20
-152.2301567544772
 30
0.0
  0
SEQEND
  5
118
330
115
100
AcDbEntity
  8
Layer 1
370
    30
  0
POLYLINE
  5
119
330
1F
100
AcDbEntity
  8
Layer 1
 62
   250
420
  2301728
370
    30
100
AcDb2dPolyline
 66
     1
 10
0.0
 20
0.0
 30
0.0
  0
VERTEX
  5
11A
330
119
100
AcDbEntity
  8
Layer 1
 62
   250
420
  2301728
370
    30
100
AcDbVertex
100
AcDb2dVertex
 10
86.57008190110054
 20
-152.2301567544772
 30
0.0
  0
VERTEX
  5
11B
330
119
100
AcDbEntity
  8
Layer 1
 62
   250
420
  2301728
370
    30
100
AcDbVertex
100
AcDb2dVertex
 10
95.86839461578985
 20
-152.2301567544772
 30
0.0
  0
SEQEND
  5
11C
330
119
100
AcDbEntity
  8
Layer 1
370
    30
  0
POLYLINE
  5
11D
330
1F
100
AcDbEntity
  8
Layer 1
 62
   250
420
  2301728
370
    30
100
AcDb2dPolyline
 66
     1
 10
0.0
 20
0.0
 30
0.0
  0
VERTEX
  5
11E
330
11D
100
AcDbEntity
  8
Layer 1
 62
   250
420
  2301728
370
    30
100
AcDbVertex
100
AcDb2dVertex
 10
89.62226424625763
 20
-133.3868624883547
 30
0.0
  0
VERTEX
  5
11F
330
11D
100
AcDbEntity
  8
Layer 1
 62
   250
420
  2301728
370
    30
100
AcDbVertex
100
AcDb2dVertex
 10
105.2848741056232
 20
-133.3868624883547
 30
0.0
  0
SEQEND
  5
120
330
11D
100
AcDbEntity
  8
Layer 1
370
    30
  0
POLYLINE
  5
121
330
1F
100
AcDbEntity
  8
Layer 1
 62
   250
420
  2301728
370
    30
100
AcDb2dPolyline
 66
     1
 10
0.0
 20
0.0
 30
0.0
  0
VERTEX
  5
122
330
121
100
AcDbEntity
  8
Layer 1
 62
   250
420
  2301728
370
    30
100
AcDbVertex
100
AcDb2dVertex
 10
98.70749780518425
 20
-134.6615478178971
 30
0.0
  0
VERTEX
  5
123
330
121
100
AcDbEntity
  8
Layer 1
 62
   250
420
  2301728
370
    30
100
AcDbVertex
100
AcDb2dVertex
 10
108.0307874621416
 20
-134.6615478178971
 30
0.0
  0
SEQEND
  5
124
330
121
100
AcDbEntity
  8
Layer 1
370
    30
  0
POLYLINE
  5
125
330
1F
100
AcDbEntity
  8
Layer 1
 62
   250
420
  2301728
370
    30
100
AcDb2dPolyline
 66
     1
 10
0.0
 20
0.0
 30
0.0
  0
VERTEX
  5
126
330
125
100
AcDbEntity
  8
Layer 1
 62
   250
420
  2301728
370
    30
100
AcDbVertex
100
AcDb2dVertex
 10
86.57008190110054
 20
-134.6615478178971
 30
0.0
  0
VERTEX
  5
127
330
125
100
AcDbEntity
  8
Layer 1
 62
   250
420
  2301728
370
    30
100
AcDbVertex
100
AcDb2dVertex
 10
95.86839461578985
 20
-134.6615478178971
 30
0.0
  0
SEQEND
  5
128
330
125
100
AcDbEntity
  8
Layer 1
370
    30
  0
POLYLINE
  5
129
330
1F
100
AcDbEntity
  8
Layer 1
 62
   250
420
  2301728
370
    30
100
AcDb2dPolyline
 66
     1
 10
0.0
 20
0.0
 30
0.0
  0
VERTEX
  5
12A
330
129
100
AcDbEntity
  8
Layer 1
 62
   250
420
  2301728
370
    30
100
AcDbVertex
100
AcDb2dVertex
 10
98.70749780518425
 20
-132.1114881397152
 30
0.0
  0
VERTEX
  5
12B
330
129
100
AcDbEntity
  8
Layer 1
 62
   250
420
  2301728
370
    30
100
AcDbVertex
100
AcDb2dVertex
 10
108.0307874621416
 20
-132.1114881397152
 30
0.0
  0
SEQEND
  5
12C
330
129
100
AcDbEntity
  8
Layer 1
370
    30
  0
POLYLINE
  5
12D
330
1F
100
AcDbEntity
  8
Layer 1
 62
   250
420
  2301728
370
    30
100
AcDb2dPolyline
 66
     1
 10
0.0
 20
0.0
 30
0.0
  0
VERTEX
  5
12E
330
12D
100
AcDbEntity
  8
Layer 1
 62
   250
420
  2301728
370
    30
100
AcDbVertex
100
AcDb2dVertex
 10
86.57008190110054
 20
-132.1114881397152
 30
0.0
  0
VERTEX
  5
12F
330
12D
100
AcDbEntity
  8
Layer 1
 62
   250
420
  2301728
370
    30
100
AcDbVertex
100
AcDb2dVertex
 10
95.86839461578985
 20
-132.1114881397152
 30
0.0
  0
SEQEND
  5
130
330
12D
100
AcDbEntity
  8
Layer 1
370
    30
  0
POLYLINE
  5
131
330
1F
100
AcDbEntity
  8
Layer 1
 62
   250
420
  2301728
370
    30
100
AcDb2dPolyline
 66
     1
 10
0.0
 20
0.0
 30
0.0
  0
VERTEX
  5
132
330
131
100
AcDbEntity
  8
Layer 1
 62
   250
420
  2301728
370
    30
100
AcDbVertex
100
AcDb2dVertex
 10
89.62226424625763
 20
-135.9369221665366
 30
0.0
  0
VERTEX
  5
133
330
131
100
AcDbEntity
  8
Layer 1
 62
   250
420
  2301728
370
    30
100
AcDbVertex
100
AcDb2dVertex
 10
105.2848741056232
 20
-135.9369221665366
 30
0.0
  0
SEQEND
  5
134
330
131
100
AcDbEntity
  8
Layer 1
370
    30
  0
POLYLINE
  5
135
330
1F
100
AcDbEntity
  8
Layer 1
 62
   250
420
  2301728
370
    30
100
AcDb2dPolyline
 66
     1
 10
0.0
 20
0.0
 30
0.0
  0
VERTEX
  5
136
330
135
100
AcDbEntity
  8
Layer 1
 62
   250
420
  2301728
370
    30
100
AcDbVertex
100
AcDb2dVertex
 10
98.70749780518425
 20
-137.211607496079
 30
0.0
  0
VERTEX
  5
137
330
135
100
AcDbEntity
  8
Layer 1
 62
   250
420
  2301728
370
    30
100
AcDbVertex
100
AcDb2dVertex
 10
108.0307874621416
 20
-137.211607496079
 30
0.0
  0
SEQEND
  5
138
330
135
100
AcDbEntity
  8
Layer 1
370
    30
  0
POLYLINE
  5
139
330
1F
100
AcDbEntity
  8
Layer 1
 62
   250
420
  2301728
370
    30
100
AcDb2dPolyline
 66
     1
 10
0.0
 20
0.0
 30
0.0
  0
VERTEX
  5
13A
330
139
100
AcDbEntity
  8
Layer 1
 62
   250
420
  2301728
370
    30
100
AcDbVertex
100
AcDb2dVertex
 10
86.57008190110054
 20
-137.211607496079
 30
0.0
  0
VERTEX
  5
13B
330
139
100
AcDbEntity
  8
Layer 1
 62
   250
420
  2301728
370
    30
100
AcDbVertex
100
AcDb2dVertex
 10
95.86839461578985
 20
-137.211607496079
 30
0.0
  0
SEQEND
  5
13C
330
139
100
AcDbEntity
  8
Layer 1
370
    30
  0
POLYLINE
  5
13D
330
1F
100
AcDbEntity
  8
Layer 1
 62
   250
420
  2301728
370
    30
100
AcDb2dPolyline
 66
     1
 10
0.0
 20
0.0
 30
0.0
  0
VERTEX
  5
13E
330
13D
100
AcDbEntity
  8
Layer 1
 62
   250
420
  2301728
370
    30
100
AcDbVertex
100
AcDb2dVertex
 10
89.62226424625763
 20
-130.8292236001052
 30
0.0
  0
VERTEX
  5
13F
330
13D
100
AcDbEntity
  8
Layer 1
 62
   250
420
  2301728
370
    30
100
AcDbVertex
100
AcDb2dVertex
 10
105.2848741056232
 20
-130.8292236001052
 30
0.0
  0
SEQEND
  5
140
330
13D
100
AcDbEntity
  8
Layer 1
370
    30
  0
SPLINE
  5
141
330
1F
100
AcDbEntity
  8
Layer 1
 62
   250
420
  2301728
370
    40
100
AcDbSpline
210
0.0
220
0.0
230
1.0
 70
     8
 71
     3
 72
     8
 73
     4
 74
     0
 42
0.0000000001
 43
0.0000000001
 40
0.0
 40
0.0
 40
0.0
 40
0.0
 40
1.0
 40
1.0
 40
1.0
 40
1.0
 10
16.04053683409751
 20
-155.0630587719981
 30
0.0
 10
30.61036240554186
 20
-156.4655571440433
 30
0.0
 10
42.19983587269657
 20
-168.0620930569428
 30
0.0
 10
43.59682209196538
 20
-182.6372585263893
 30
0.0
  0
SPLINE
  5
142
330
1F
100
AcDbEntity
  8
Layer 1
 62
   250
420
  2301728
370
    40
100
AcDbSpline
210
0.0
220
0.0
230
1.0
 70
     8
 71
     3
 72
     8
 73
     4
 74
     0
 42
0.0000000001
 43
0.0000000001
 40
0.0
 40
0.0
 40
0.0
 40
0.0
 40
1.0
 40
1.0
 40
1.0
 40
1.0
 10
15.81298827729675
 20
-157.41226938339
 30
0.0
 10
29.26057399442097
 20
-158.7069362667469
 30
0.0
 10
39.95759547612172
 20
-169.4101589203211
 30
0.0
 10
41.24692246147647
 20
-182.8622232615761
 30
0.0
  0
SPLINE
  5
143
330
1F
100
AcDbEntity
  8
Layer 1
 62
   250
420
  2301728
370
    40
100
AcDbSpline
210
0.0
220
0.0
230
1.0
 70
     8
 71
     3
 72
     8
 73
     4
 74
     0
 42
0.0000000001
 43
0.0000000001
 40
0.0
 40
0.0
 40
0.0
 40
0.0
 40
1.0
 40
1.0
 40
1.0
 40
1.0
 10
15.585439720496
 20
-159.7621690138789
 30
0.0
 10
27.91113009284861
 20
-160.948659898999
 30
0.0
 10
37.71535507954686
 20
-170.7585692932479
 30
0.0
 10
38.89702283098755
 20
-183.0875325063114
 30
0.0
  0
SPLINE
  5
144
330
1F
100
AcDbEntity
  8
Layer 1
 62
   250
420
  2301728
370
    40
100
AcDbSpline
210
0.0
220
0.0
230
1.0
 70
     8
 71
     3
 72
     8
 73
     4
 74
     0
 42
0.0000000001
 43
0.0000000001
 40
0.0
 40
0.0
 40
0.0
 40
0.0
 40
1.0
 40
1.0
 40
1.0
 40
1.0
 10
15.35789116369525
 20
-162.1117241348193
 30
0.0
 10
26.56151393650199
 20
-163.190383531251
 30
0.0
 10
35.47294242819774
 20
-172.1066351566261
 30
0.0
 10
36.54712320049864
 20
-183.3128417510468
 30
0.0
  0
SPLINE
  5
145
330
1F
100
AcDbEntity
  8
Layer 1
 62
   250
420
  2301728
370
    40
100
AcDbSpline
210
0.0
220
0.0
230
1.0
 70
     8
 71
     3
 72
     8
 73
     4
 74
     0
 42
0.0000000001
 43
0.0000000001
 40
0.0
 40
0.0
 40
0.0
 40
0.0
 40
1.0
 40
1.0
 40
1.0
 40
1.0
 10
15.13085937121729
 20
-164.4612792557597
 30
0.0
 10
25.21207003492962
 20
-165.4321071635031
 30
0.0
 10
33.23087428639715
 20
-173.4547010200044
 30
0.0
 10
34.19705131523546
 20
-183.5378064862336
 30
0.0
  0
SPLINE
  5
146
330
1F
100
AcDbEntity
  8
Layer 1
 62
   250
420
  2301728
370
    40
100
AcDbSpline
210
0.0
220
0.0
230
1.0
 70
     8
 71
     3
 72
     8
 73
     4
 74
     0
 42
0.0000000001
 43
0.0000000001
 40
0.0
 40
0.0
 40
0.0
 40
0.0
 40
1.0
 40
1.0
 40
1.0
 40
1.0
 10
14.90382757873932
 20
-166.8108343767001
 30
0.0
 10
23.86262613335726
 20
-167.6741753053037
 30
0.0
 10
30.98863388982229
 20
-174.8031113929312
 30
0.0
 10
31.84732393952081
 20
-183.763115730969
 30
0.0
  0
SPLINE
  5
147
330
1F
100
AcDbEntity
  8
Layer 1
 62
   250
420
  2301728
370
    40
100
AcDbSpline
210
0.0
220
0.0
230
1.0
 70
     8
 71
     3
 72
     8
 73
     4
 74
     0
 42
0.0000000001
 43
0.0000000001
 40
0.0
 40
0.0
 40
0.0
 40
0.0
 40
1.0
 40
1.0
 40
1.0
 40
1.0
 10
14.67696804103562
 20
-169.160734007189
 30
0.0
 10
22.50267469055489
 20
-169.9145208993617
 30
0.0
 10
28.74725476711874
 20
-176.1615125427652
 30
0.0
 10
29.49725205425763
 20
-183.9880804661558
 30
0.0
  0
SPLINE
  5
148
330
1F
100
AcDbEntity
  8
Layer 1
 62
   250
420
  2301728
370
    40
100
AcDbSpline
210
0.0
220
0.0
230
1.0
 70
     8
 71
     3
 72
     8
 73
     4
 74
     0
 42
0.0000000001
 43
0.0000000001
 40
0.0
 40
0.0
 40
0.0
 40
0.0
 40
1.0
 40
1.0
 40
1.0
 40
1.0
 10
36.07807345018188
 20
-167.1360513905077
 30
0.0
 10
40.25611299991861
 20
-172.3436577260113
 30
0.0
 10
42.55692001974272
 20
-178.8910616957286
 30
0.0
 10
42.55692001974272
 20
-185.5731688989192
 30
0.0
  0
SPLINE
  5
149
330
1F
100
AcDbEntity
  8
Layer 1
 62
   250
420
  2301728
370
    40
100
AcDbSpline
210
0.0
220
0.0
230
1.0
 70
     8
 71
     3
 72
     8
 73
     4
 74
     0
 42
0.0000000001
 43
0.0000000001
 40
0.0
 40
0.0
 40
0.0
 40
0.0
 40
1.0
 40
1.0
 40
1.0
 40
1.0
 10
13.08378363388183
 20
-156.1000325130583
 30
0.0
 10
19.86493733227335
 20
-156.1000325130583
 30
0.0
 10
26.48813340266616
 20
-158.4616454681971
 30
0.0
 10
31.73277451463625
 20
-162.7497558186876
 30
0.0
  0
SPLINE
  5
14A
330
1F
100
AcDbEntity
  8
Layer 1
 62
   250
420
  2301728
370
    40
100
AcDbSpline
210
0.0
220
0.0
230
1.0
 70
     8
 71
     3
 72
     8
 73
     4
 74
     0
 42
0.0000000001
 43
0.0000000001
 40
0.0
 40
0.0
 40
0.0
 40
0.0
 40
1.0
 40
1.0
 40
1.0
 40
1.0
 10
34.23701442286436
 20
-168.6136528441313
 30
0.0
 10
38.07984618188629
 20
-173.4033690972742
 30
0.0
 10
40.195996083701
 20
-179.426774043685
 30
0.0
 10
40.195996083701
 20
-185.5731688989192
 30
0.0
  0
SPLINE
  5
14B
330
1F
100
AcDbEntity
  8
Layer 1
 62
   250
420
  2301728
370
    40
100
AcDbSpline
210
0.0
220
0.0
230
1.0
 70
     8
 71
     3
 72
     8
 73
     4
 74
     0
 42
0.0000000001
 43
0.0000000001
 40
0.0
 40
0.0
 40
0.0
 40
0.0
 40
1.0
 40
1.0
 40
1.0
 40
1.0
 10
13.08378363388183
 20
-158.4609564491001
 30
0.0
 10
19.32181802902371
 20
-158.4609564491001
 30
0.0
 10
25.41429713991379
 20
-160.6330891525501
 30
0.0
 10
30.2386366026834
 20
-164.5773789736126
 30
0.0
  0
SPLINE
  5
14C
330
1F
100
AcDbEntity
  8
Layer 1
 62
   250
420
  2301728
370
    40
100
AcDbSpline
210
0.0
220
0.0
230
1.0
 70
     8
 71
     3
 72
     8
 73
     4
 74
     0
 42
0.0000000001
 43
0.0000000001
 40
0.0
 40
0.0
 40
0.0
 40
0.0
 40
1.0
 40
1.0
 40
1.0
 40
1.0
 10
32.39595539554685
 20
-170.091254297755
 30
0.0
 10
35.90357936385396
 20
-174.463080468537
 30
0.0
 10
37.83524440243355
 20
-179.9614528629957
 30
0.0
 10
37.83524440243355
 20
-185.5731688989192
 30
0.0
  0
SPLINE
  5
14D
330
1F
100
AcDbEntity
  8
Layer 1
 62
   250
420
  2301728
370
    40
100
AcDbSpline
210
0.0
220
0.0
230
1.0
 70
     8
 71
     3
 72
     8
 73
     4
 74
     0
 42
0.0000000001
 43
0.0000000001
 40
0.0
 40
0.0
 40
0.0
 40
0.0
 40
1.0
 40
1.0
 40
1.0
 40
1.0
 10
13.08378363388183
 20
-160.8215358755932
 30
0.0
 10
18.77869872577408
 20
-160.8215358755932
 30
0.0
 10
24.34028862238715
 20
-162.8041883273545
 30
0.0
 10
28.74432643595628
 20
-166.4050021285377
 30
0.0
  0
SPLINE
  5
14E
330
1F
100
AcDbEntity
  8
Layer 1
 62
   250
420
  2301728
370
    40
100
AcDbSpline
210
0.0
220
0.0
230
1.0
 70
     8
 71
     3
 72
     8
 73
     4
 74
     0
 42
0.0000000001
 43
0.0000000001
 40
0.0
 40
0.0
 40
0.0
 40
0.0
 40
1.0
 40
1.0
 40
1.0
 40
1.0
 10
30.55489636822933
 20
-171.5688557513786
 30
0.0
 10
33.72748480059591
 20
-175.5231363493484
 30
0.0
 10
35.47466497594036
 20
-180.4968207014036
 30
0.0
 10
35.47466497594036
 20
-185.5731688989192
 30
0.0
  0
SPLINE
  5
14F
330
1F
100
AcDbEntity
  8
Layer 1
 62
   250
420
  2301728
370
    40
100
AcDbSpline
210
0.0
220
0.0
230
1.0
 70
     8
 71
     3
 72
     8
 73
     4
 74
     0
 42
0.0000000001
 43
0.0000000001
 40
0.0
 40
0.0
 40
0.0
 40
0.0
 40
1.0
 40
1.0
 40
1.0
 40
1.0
 10
13.08378363388183
 20
-163.1821153020864
 30
0.0
 10
18.23557942252444
 20
-163.1821153020864
 30
0.0
 10
23.26662461440904
 20
-164.975976521256
 30
0.0
 10
27.25018852400343
 20
-168.2329697930112
 30
0.0
  0
SPLINE
  5
150
330
1F
100
AcDbEntity
  8
Layer 1
 62
   250
420
  2301728
370
    40
100
AcDbSpline
210
0.0
220
0.0
230
1.0
 70
     8
 71
     3
 72
     8
 73
     4
 74
     0
 42
0.0000000001
 43
0.0000000001
 40
0.0
 40
0.0
 40
0.0
 40
0.0
 40
1.0
 40
1.0
 40
1.0
 40
1.0
 10
28.71383734091182
 20
-173.0464572050023
 30
0.0
 10
31.55121798256359
 20
-176.5828477206112
 30
0.0
 10
33.11374103989865
 20
-181.0318440302629
 30
0.0
 10
33.11374103989865
 20
-185.5731688989192
 30
0.0
  0
SPLINE
  5
151
330
1F
100
AcDbEntity
  8
Layer 1
 62
   250
420
  2301728
370
    40
100
AcDbSpline
210
0.0
220
0.0
230
1.0
 70
     8
 71
     3
 72
     8
 73
     4
 74
     0
 42
0.0000000001
 43
0.0000000001
 40
0.0
 40
0.0
 40
0.0
 40
0.0
 40
1.0
 40
1.0
 40
1.0
 40
1.0
 10
13.08378363388183
 20
-165.5430392381281
 30
0.0
 10
17.6924601192748
 20
-165.5430392381281
 30
0.0
 10
22.19296060643093
 20
-167.147420205609
 30
0.0
 10
25.75605061205057
 20
-170.0605929479362
 30
0.0
  0
SPLINE
  5
152
330
1F
100
AcDbEntity
  8
Layer 1
 62
   250
420
  2301728
370
    40
100
AcDbSpline
210
0.0
220
0.0
230
1.0
 70
     8
 71
     3
 72
     8
 73
     4
 74
     0
 42
0.0000000001
 43
0.0000000001
 40
0.0
 40
0.0
 40
0.0
 40
0.0
 40
1.0
 40
1.0
 40
1.0
 40
1.0
 10
26.87226154927152
 20
-174.5237141490774
 30
0.0
 10
29.374778909757
 20
-177.6429036014226
 30
0.0
 10
30.7529893586312
 20
-181.5668673591222
 30
0.0
 10
30.7529893586312
 20
-185.5731688989192
 30
0.0
  0
SPLINE
  5
153
330
1F
100
AcDbEntity
  8
Layer 1
 62
   250
420
  2301728
370
    40
100
AcDbSpline
210
0.0
220
0.0
230
1.0
 70
     8
 71
     3
 72
     8
 73
     4
 74
     0
 42
0.0000000001
 43
0.0000000001
 40
0.0
 40
0.0
 40
0.0
 40
0.0
 40
1.0
 40
1.0
 40
1.0
 40
1.0
 10
13.08378363388183
 20
-167.9036186646213
 30
0.0
 10
17.14968532557369
 20
-167.9036186646213
 30
0.0
 10
21.11929659845282
 20
-169.3192083995105
 30
0.0
 10
24.26174044532345
 20
-171.8882161028613
 30
0.0
  0
SPLINE
  5
154
330
1F
100
AcDbEntity
  8
Layer 1
 62
   250
420
  2301728
370
    40
100
AcDbSpline
210
0.0
220
0.0
230
1.0
 70
     8
 71
     3
 72
     8
 73
     4
 74
     0
 42
0.0000000001
 43
0.0000000001
 40
0.0
 40
0.0
 40
0.0
 40
0.0
 40
1.0
 40
1.0
 40
1.0
 40
1.0
 10
22.76725802382208
 20
-173.7158392577863
 30
0.0
 10
20.12934841076628
 20
-171.5588649744714
 30
0.0
 10
16.75763345935226
 20
-170.264542600663
 30
0.0
 10
13.08378363388183
 20
-170.264542600663
 30
0.0
  0
SPLINE
  5
155
330
1F
100
AcDbEntity
  8
Layer 1
 62
   250
420
  2301728
370
    40
100
AcDbSpline
210
0.0
220
0.0
230
1.0
 70
     8
 71
     3
 72
     8
 73
     4
 74
     0
 42
0.0000000001
 43
0.0000000001
 40
0.0
 40
0.0
 40
0.0
 40
0.0
 40
1.0
 40
1.0
 40
1.0
 40
1.0
 10
28.39240993213801
 20
-185.5731688989192
 30
0.0
 10
28.39240993213801
 20
-181.950650996179
 30
0.0
 10
27.13426106092477
 20
-178.6223442478791
 30
0.0
 10
25.03103026717974
 20
-176.0009710931525
 30
0.0
  0
SPLINE
  5
156
330
1F
100
AcDbEntity
  8
Layer 1
 62
   250
420
  2301728
370
    40
100
AcDbSpline
210
0.0
220
0.0
230
1.0
 70
     8
 71
     3
 72
     8
 73
     4
 74
     0
 42
0.0000000001
 43
0.0000000001
 40
0.0
 40
0.0
 40
0.0
 40
0.0
 40
1.0
 40
1.0
 40
1.0
 40
1.0
 10
46.95647920918102
 20
-182.6176214821234
 30
0.0
 10
48.35897758122623
 20
-168.0479681654533
 30
0.0
 10
59.95585800367423
 20
-156.4586669530728
 30
0.0
 10
74.53102347312073
 20
-155.060991714707
 30
0.0
  0
SPLINE
  5
157
330
1F
100
AcDbEntity
  8
Layer 1
 62
   250
420
  2301728
370
    40
100
AcDbSpline
210
0.0
220
0.0
230
1.0
 70
     8
 71
     3
 72
     8
 73
     4
 74
     0
 42
0.0000000001
 43
0.0000000001
 40
0.0
 40
0.0
 40
0.0
 40
0.0
 40
1.0
 40
1.0
 40
1.0
 40
1.0
 10
49.30603433012141
 20
-182.8456868032469
 30
0.0
 10
50.60087346825256
 20
-169.3974120670256
 30
0.0
 10
61.30409612182676
 20
-158.7003905853249
 30
0.0
 10
74.7561604630818
 20
-157.4115803642929
 30
0.0
  0
SPLINE
  5
158
330
1F
100
AcDbEntity
  8
Layer 1
 62
   250
420
  2301728
370
    40
100
AcDbSpline
210
0.0
220
0.0
230
1.0
 70
     8
 71
     3
 72
     8
 73
     4
 74
     0
 42
0.0000000001
 43
0.0000000001
 40
0.0
 40
0.0
 40
0.0
 40
0.0
 40
1.0
 40
1.0
 40
1.0
 40
1.0
 10
51.65593396061033
 20
-183.0727185957249
 30
0.0
 10
52.84259710050463
 20
-170.7475449876951
 30
0.0
 10
62.65216198520502
 20
-160.942803236674
 30
0.0
 10
74.98129745304287
 20
-159.7614799947819
 30
0.0
  0
SPLINE
  5
159
330
1F
100
AcDbEntity
  8
Layer 1
 62
   250
420
  2301728
370
    40
100
AcDbSpline
210
0.0
220
0.0
230
1.0
 70
     8
 71
     3
 72
     8
 73
     4
 74
     0
 42
0.0000000001
 43
0.0000000001
 40
0.0
 40
0.0
 40
0.0
 40
0.0
 40
1.0
 40
1.0
 40
1.0
 40
1.0
 10
54.00548908155071
 20
-183.3000948977514
 30
0.0
 10
55.0843207327567
 20
-172.0966443797189
 30
0.0
 10
64.00040010335753
 20
-163.1852158880232
 30
0.0
 10
75.20643444300396
 20
-162.1110351157222
 30
0.0
  0
SPLINE
  5
15A
330
1F
100
AcDbEntity
  8
Layer 1
 62
   250
420
  2301728
370
    40
100
AcDbSpline
210
0.0
220
0.0
230
1.0
 70
     8
 71
     3
 72
     8
 73
     4
 74
     0
 42
0.0000000001
 43
0.0000000001
 40
0.0
 40
0.0
 40
0.0
 40
0.0
 40
1.0
 40
1.0
 40
1.0
 40
1.0
 10
56.35521645726536
 20
-183.5271266902294
 30
0.0
 10
57.32587211023451
 20
-173.4464327908398
 30
0.0
 10
65.34863822151007
 20
-165.4276285393723
 30
0.0
 10
75.43157143296503
 20
-164.4612792557597
 30
0.0
  0
SPLINE
  5
15B
330
1F
100
AcDbEntity
  8
Layer 1
 62
   250
420
  2301728
370
    40
100
AcDbSpline
210
0.0
220
0.0
230
1.0
 70
     8
 71
     3
 72
     8
 73
     4
 74
     0
 42
0.0000000001
 43
0.0000000001
 40
0.0
 40
0.0
 40
0.0
 40
0.0
 40
1.0
 40
1.0
 40
1.0
 40
1.0
 10
58.70477157820575
 20
-183.7545029922558
 30
0.0
 10
59.56759574248657
 20
-174.7955321828636
 30
0.0
 10
66.6968763396626
 20
-167.6696966811729
 30
0.0
 10
75.65688067770037
 20
-166.8108343767001
 30
0.0
  0
SPLINE
  5
15C
330
1F
100
AcDbEntity
  8
Layer 1
 62
   250
420
  2301728
370
    40
100
AcDbSpline
210
0.0
220
0.0
230
1.0
 70
     8
 71
     3
 72
     8
 73
     4
 74
     0
 42
0.0000000001
 43
0.0000000001
 40
0.0
 40
0.0
 40
0.0
 40
0.0
 40
1.0
 40
1.0
 40
1.0
 40
1.0
 10
61.05449895392041
 20
-183.9815347847338
 30
0.0
 10
61.80828584609307
 20
-176.1553113708917
 30
0.0
 10
68.05544974427086
 20
-169.9114203134249
 30
0.0
 10
75.88184541288719
 20
-169.1610785167375
 30
0.0
  0
SPLINE
  5
15D
330
1F
100
AcDbEntity
  8
Layer 1
 62
   250
420
  2301728
370
    40
100
AcDbSpline
210
0.0
220
0.0
230
1.0
 70
     8
 71
     3
 72
     8
 73
     4
 74
     0
 42
0.0000000001
 43
0.0000000001
 40
0.0
 40
0.0
 40
0.0
 40
0.0
 40
1.0
 40
1.0
 40
1.0
 40
1.0
 10
59.02964408246481
 20
-162.5802571208133
 30
0.0
 10
64.23742267274272
 20
-158.4023898258508
 30
0.0
 10
70.78517115200857
 20
-156.1014105512524
 30
0.0
 10
77.4671061004249
 20
-156.1014105512524
 30
0.0
  0
SPLINE
  5
15E
330
1F
100
AcDbEntity
  8
Layer 1
 62
   250
420
  2301728
370
    40
100
AcDbSpline
210
0.0
220
0.0
230
1.0
 70
     8
 71
     3
 72
     8
 73
     4
 74
     0
 42
0.0000000001
 43
0.0000000001
 40
0.0
 40
0.0
 40
0.0
 40
0.0
 40
1.0
 40
1.0
 40
1.0
 40
1.0
 10
47.99379745978975
 20
-185.5742024275648
 30
0.0
 10
47.99379745978975
 20
-178.7932209839475
 30
0.0
 10
50.35523816015425
 20
-172.1703694231032
 30
0.0
 10
54.64352076541898
 20
-166.9255560563589
 30
0.0
  0
SPLINE
  5
15F
330
1F
100
AcDbEntity
  8
Layer 1
 62
   250
420
  2301728
370
    40
100
AcDbSpline
210
0.0
220
0.0
230
1.0
 70
     8
 71
     3
 72
     8
 73
     4
 74
     0
 42
0.0000000001
 43
0.0000000001
 40
0.0
 40
0.0
 40
0.0
 40
0.0
 40
1.0
 40
1.0
 40
1.0
 40
1.0
 10
60.50724553608847
 20
-164.4213161481308
 30
0.0
 10
65.29730629877984
 20
-160.5779676247861
 30
0.0
 10
71.32036673564214
 20
-158.4623344872942
 30
0.0
 10
77.4671061004249
 20
-158.4623344872942
 30
0.0
  0
SPLINE
  5
160
330
1F
100
AcDbEntity
  8
Layer 1
 62
   250
420
  2301728
370
    40
100
AcDbSpline
210
0.0
220
0.0
230
1.0
 70
     8
 71
     3
 72
     8
 73
     4
 74
     0
 42
0.0000000001
 43
0.0000000001
 40
0.0
 40
0.0
 40
0.0
 40
0.0
 40
1.0
 40
1.0
 40
1.0
 40
1.0
 10
50.3545491410572
 20
-185.5742024275648
 30
0.0
 10
50.3545491410572
 20
-179.3365125419714
 30
0.0
 10
52.52668184450722
 20
-173.2442056858556
 30
0.0
 10
56.47131617511828
 20
-168.4200384778603
 30
0.0
  0
SPLINE
  5
161
330
1F
100
AcDbEntity
  8
Layer 1
 62
   250
420
  2301728
370
    40
100
AcDbSpline
210
0.0
220
0.0
230
1.0
 70
     8
 71
     3
 72
     8
 73
     4
 74
     0
 42
0.0000000001
 43
0.0000000001
 40
0.0
 40
0.0
 40
0.0
 40
0.0
 40
1.0
 40
1.0
 40
1.0
 40
1.0
 10
61.98484698971212
 20
-166.2623751754483
 30
0.0
 10
66.35718992481695
 20
-162.7549234619154
 30
0.0
 10
71.85539006450144
 20
-160.8232584233359
 30
0.0
 10
77.4671061004249
 20
-160.8232584233359
 30
0.0
  0
SPLINE
  5
162
330
1F
100
AcDbEntity
  8
Layer 1
 62
   250
420
  2301728
370
    40
100
AcDbSpline
210
0.0
220
0.0
230
1.0
 70
     8
 71
     3
 72
     8
 73
     4
 74
     0
 42
0.0000000001
 43
0.0000000001
 40
0.0
 40
0.0
 40
0.0
 40
0.0
 40
1.0
 40
1.0
 40
1.0
 40
1.0
 10
52.71530082232465
 20
-185.5742024275648
 30
0.0
 10
52.71530082232465
 20
-179.8794595904468
 30
0.0
 10
54.69829778363446
 20
-174.3176974390595
 30
0.0
 10
58.29893933004332
 20
-169.9141763898131
 30
0.0
  0
SPLINE
  5
163
330
1F
100
AcDbEntity
  8
Layer 1
 62
   250
420
  2301728
370
    40
100
AcDbSpline
210
0.0
220
0.0
230
1.0
 70
     8
 71
     3
 72
     8
 73
     4
 74
     0
 42
0.0000000001
 43
0.0000000001
 40
0.0
 40
0.0
 40
0.0
 40
0.0
 40
1.0
 40
1.0
 40
1.0
 40
1.0
 10
63.46244844333578
 20
-168.1034342027658
 30
0.0
 10
67.41707355085407
 20
-164.9308457703992
 30
0.0
 10
72.390585648135
 20
-163.183837849829
 30
0.0
 10
77.4671061004249
 20
-163.183837849829
 30
0.0
  0
SPLINE
  5
164
330
1F
100
AcDbEntity
  8
Layer 1
 62
   250
420
  2301728
370
    40
100
AcDbSpline
210
0.0
220
0.0
230
1.0
 70
     8
 71
     3
 72
     8
 73
     4
 74
     0
 42
0.0000000001
 43
0.0000000001
 40
0.0
 40
0.0
 40
0.0
 40
0.0
 40
1.0
 40
1.0
 40
1.0
 40
1.0
 10
55.0760525035921
 20
-185.5742024275648
 30
0.0
 10
55.0760525035921
 20
-180.4227511484707
 30
0.0
 10
56.86974146798743
 20
-175.3918782113604
 30
0.0
 10
60.12673473974262
 20
-171.408314301766
 30
0.0
  0
SPLINE
  5
165
330
1F
100
AcDbEntity
  8
Layer 1
 62
   250
420
  2301728
370
    40
100
AcDbSpline
210
0.0
220
0.0
230
1.0
 70
     8
 71
     3
 72
     8
 73
     4
 74
     0
 42
0.0000000001
 43
0.0000000001
 40
0.0
 40
0.0
 40
0.0
 40
0.0
 40
1.0
 40
1.0
 40
1.0
 40
1.0
 10
64.94004989695944
 20
-169.9441487205348
 30
0.0
 10
68.47695717689118
 20
-167.1071125884316
 30
0.0
 10
72.92543672222003
 20
-165.5444172763222
 30
0.0
 10
77.4671061004249
 20
-165.5444172763222
 30
0.0
  0
SPLINE
  5
166
330
1F
100
AcDbEntity
  8
Layer 1
 62
   250
420
  2301728
370
    40
100
AcDbSpline
210
0.0
220
0.0
230
1.0
 70
     8
 71
     3
 72
     8
 73
     4
 74
     0
 42
0.0000000001
 43
0.0000000001
 40
0.0
 40
0.0
 40
0.0
 40
0.0
 40
1.0
 40
1.0
 40
1.0
 40
1.0
 10
57.43680418485955
 20
-185.5742024275648
 30
0.0
 10
57.43680418485955
 20
-180.9653536873976
 30
0.0
 10
59.0411851523404
 20
-176.4650254550157
 30
0.0
 10
61.95435789466767
 20
-172.9027967232674
 30
0.0
  0
SPLINE
  5
167
330
1F
100
AcDbEntity
  8
Layer 1
 62
   250
420
  2301728
370
    40
100
AcDbSpline
210
0.0
220
0.0
230
1.0
 70
     8
 71
     3
 72
     8
 73
     4
 74
     0
 42
0.0000000001
 43
0.0000000001
 40
0.0
 40
0.0
 40
0.0
 40
0.0
 40
1.0
 40
1.0
 40
1.0
 40
1.0
 10
66.41730684103456
 20
-171.7858967669494
 30
0.0
 10
69.53666854815403
 20
-169.2833794064639
 30
0.0
 10
73.46097681540212
 20
-167.9053412123639
 30
0.0
 10
77.4671061004249
 20
-167.9053412123639
 30
0.0
  0
SPLINE
  5
168
330
1F
100
AcDbEntity
  8
Layer 1
 62
   250
420
  2301728
370
    40
100
AcDbSpline
210
0.0
220
0.0
230
1.0
 70
     8
 71
     3
 72
     8
 73
     4
 74
     0
 42
0.0000000001
 43
0.0000000001
 40
0.0
 40
0.0
 40
0.0
 40
0.0
 40
1.0
 40
1.0
 40
1.0
 40
1.0
 10
59.79755586612701
 20
-185.5742024275648
 30
0.0
 10
59.79755586612701
 20
-181.5086452454215
 30
0.0
 10
61.21262883669338
 20
-177.5392062273166
 30
0.0
 10
63.7819810495927
 20
-174.3969346352202
 30
0.0
  0
SPLINE
  5
169
330
1F
100
AcDbEntity
  8
Layer 1
 62
   250
420
  2301728
370
    40
100
AcDbSpline
210
0.0
220
0.0
230
1.0
 70
     8
 71
     3
 72
     8
 73
     4
 74
     0
 42
0.0000000001
 43
0.0000000001
 40
0.0
 40
0.0
 40
0.0
 40
0.0
 40
1.0
 40
1.0
 40
1.0
 40
1.0
 10
65.60977645929201
 20
-175.8910725471731
 30
0.0
 10
63.45262992120282
 20
-178.5289821602289
 30
0.0
 10
62.15830754739445
 20
-181.9003526020944
 30
0.0
 10
62.15830754739445
 20
-185.5742024275648
 30
0.0
  0
SPLINE
  5
16A
330
1F
100
AcDbEntity
  8
Layer 1
 62
   250
420
  2301728
370
    40
100
AcDbSpline
210
0.0
220
0.0
230
1.0
 70
     8
 71
     3
 72
     8
 73
     4
 74
     0
 42
0.0000000001
 43
0.0000000001
 40
0.0
 40
0.0
 40
0.0
 40
0.0
 40
1.0
 40
1.0
 40
1.0
 40
1.0
 10
77.4671061004249
 20
-170.2659206388571
 30
0.0
 10
73.84458819768469
 20
-170.2659206388571
 30
0.0
 10
70.51645370415909
 20
-171.5240695100704
 30
0.0
 10
67.8945637851097
 20
-173.6269557942669
 30
0.0
  0
SPLINE
  5
16B
330
1F
100
AcDbEntity
  8
Layer 1
 62
   250
420
  2301728
370
    40
100
AcDbSpline
210
0.0
220
0.0
230
1.0
 70
     8
 71
     3
 72
     8
 73
     4
 74
     0
 42
0.0000000001
 43
0.0000000001
 40
0.0
 40
0.0
 40
0.0
 40
0.0
 40
1.0
 40
1.0
 40
1.0
 40
1.0
 10
74.51018064543496
 20
-151.7016791070399
 30
0.0
 10
59.94052732876487
 20
-150.2991807349946
 30
0.0
 10
48.35105386161015
 20
-138.7023003125466
 30
0.0
 10
46.95406764234134
 20
-124.1267903335516
 30
0.0
  0
SPLINE
  5
16C
330
1F
100
AcDbEntity
  8
Layer 1
 62
   250
420
  2301728
370
    40
100
AcDbSpline
210
0.0
220
0.0
230
1.0
 70
     8
 71
     3
 72
     8
 73
     4
 74
     0
 42
0.0000000001
 43
0.0000000001
 40
0.0
 40
0.0
 40
0.0
 40
0.0
 40
1.0
 40
1.0
 40
1.0
 40
1.0
 10
74.73790145700997
 20
-149.3521239860995
 30
0.0
 10
61.29014348511149
 20
-148.0574571027426
 30
0.0
 10
50.59329425818501
 20
-137.3542344491684
 30
0.0
 10
49.30396727283026
 20
-123.9018255983648
 30
0.0
  0
SPLINE
  5
16D
330
1F
100
AcDbEntity
  8
Layer 1
 62
   250
420
  2301728
370
    40
100
AcDbSpline
210
0.0
220
0.0
230
1.0
 70
     8
 71
     3
 72
     8
 73
     4
 74
     0
 42
0.0000000001
 43
0.0000000001
 40
0.0
 40
0.0
 40
0.0
 40
0.0
 40
1.0
 40
1.0
 40
1.0
 40
1.0
 10
74.96545001381072
 20
-147.0022243556106
 30
0.0
 10
62.63975964145812
 20
-145.8157334704905
 30
0.0
 10
52.83536239998561
 20
-136.0058240762416
 30
0.0
 10
51.65386690331918
 20
-123.676860863178
 30
0.0
  0
SPLINE
  5
16E
330
1F
100
AcDbEntity
  8
Layer 1
 62
   250
420
  2301728
370
    40
100
AcDbSpline
210
0.0
220
0.0
230
1.0
 70
     8
 71
     3
 72
     8
 73
     4
 74
     0
 42
0.0000000001
 43
0.0000000001
 40
0.0
 40
0.0
 40
0.0
 40
0.0
 40
1.0
 40
1.0
 40
1.0
 40
1.0
 10
75.19265406106295
 20
-144.6526692346702
 30
0.0
 10
63.98937579780474
 20
-143.5736653286899
 30
0.0
 10
55.07760279656046
 20
-134.6577582128633
 30
0.0
 10
54.00359427903383
 20
-123.4515516184427
 30
0.0
  0
SPLINE
  5
16F
330
1F
100
AcDbEntity
  8
Layer 1
 62
   250
420
  2301728
370
    40
100
AcDbSpline
210
0.0
220
0.0
230
1.0
 70
     8
 71
     3
 72
     8
 73
     4
 74
     0
 42
0.0000000001
 43
0.0000000001
 40
0.0
 40
0.0
 40
0.0
 40
0.0
 40
1.0
 40
1.0
 40
1.0
 40
1.0
 10
75.42003036308944
 20
-142.3031141137298
 30
0.0
 10
65.3388196993771
 20
-141.3322862059864
 30
0.0
 10
57.32001544790958
 20
-133.3096923494851
 30
0.0
 10
56.35383841907127
 20
-123.2265868832559
 30
0.0
  0
SPLINE
  5
170
330
1F
100
AcDbEntity
  8
Layer 1
 62
   250
420
  2301728
370
    40
100
AcDbSpline
210
0.0
220
0.0
230
1.0
 70
     8
 71
     3
 72
     8
 73
     4
 74
     0
 42
0.0000000001
 43
0.0000000001
 40
0.0
 40
0.0
 40
0.0
 40
0.0
 40
1.0
 40
1.0
 40
1.0
 40
1.0
 10
75.64688990079314
 20
-139.9532144832409
 30
0.0
 10
66.68826360094947
 20
-139.0902180641858
 30
0.0
 10
59.56225584448444
 20
-131.9612819765583
 30
0.0
 10
58.70356579478592
 20
-123.0012776385205
 30
0.0
  0
SPLINE
  5
171
330
1F
100
AcDbEntity
  8
Layer 1
 62
   250
420
  2301728
370
    40
100
AcDbSpline
210
0.0
220
0.0
230
1.0
 70
     8
 71
     3
 72
     8
 73
     4
 74
     0
 42
0.0000000001
 43
0.0000000001
 40
0.0
 40
0.0
 40
0.0
 40
0.0
 40
1.0
 40
1.0
 40
1.0
 40
1.0
 10
75.8739216932711
 20
-137.6036593623005
 30
0.0
 10
68.04804278897758
 20
-136.8498724701278
 30
0.0
 10
61.80363496718798
 20
-130.6025363171757
 30
0.0
 10
61.05363768004909
 20
-122.7763129033337
 30
0.0
  0
SPLINE
  5
172
330
1F
100
AcDbEntity
  8
Layer 1
 62
   250
420
  2301728
370
    40
100
AcDbSpline
210
0.0
220
0.0
230
1.0
 70
     8
 71
     3
 72
     8
 73
     4
 74
     0
 42
0.0000000001
 43
0.0000000001
 40
0.0
 40
0.0
 40
0.0
 40
0.0
 40
1.0
 40
1.0
 40
1.0
 40
1.0
 10
54.47281628412485
 20
-139.6283419789818
 30
0.0
 10
50.29460447961385
 20
-134.4207356434782
 30
0.0
 10
47.99396971456401
 20
-127.8729871642123
 30
0.0
 10
47.99396971456401
 20
-121.1912244705703
 30
0.0
  0
SPLINE
  5
173
330
1F
100
AcDbEntity
  8
Layer 1
 62
   250
420
  2301728
370
    40
100
AcDbSpline
210
0.0
220
0.0
230
1.0
 70
     8
 71
     3
 72
     8
 73
     4
 74
     0
 42
0.0000000001
 43
0.0000000001
 40
0.0
 40
0.0
 40
0.0
 40
0.0
 40
1.0
 40
1.0
 40
1.0
 40
1.0
 10
77.4671061004249
 20
-150.6643608564311
 30
0.0
 10
70.68595240203338
 20
-150.6643608564311
 30
0.0
 10
64.06275633164056
 20
-148.3027479012924
 30
0.0
 10
58.81794296489621
 20
-144.0142930412534
 30
0.0
  0
SPLINE
  5
174
330
1F
100
AcDbEntity
  8
Layer 1
 62
   250
420
  2301728
370
    40
100
AcDbSpline
210
0.0
220
0.0
230
1.0
 70
     8
 71
     3
 72
     8
 73
     4
 74
     0
 42
0.0000000001
 43
0.0000000001
 40
0.0
 40
0.0
 40
0.0
 40
0.0
 40
1.0
 40
1.0
 40
1.0
 40
1.0
 10
56.31387531144237
 20
-138.1507405253581
 30
0.0
 10
52.47104355242043
 20
-133.3606797626668
 30
0.0
 10
50.35472139583146
 20
-127.3376193258045
 30
0.0
 10
50.35472139583146
 20
-121.1912244705703
 30
0.0
  0
SPLINE
  5
175
330
1F
100
AcDbEntity
  8
Layer 1
 62
   250
420
  2301728
370
    40
100
AcDbSpline
210
0.0
220
0.0
230
1.0
 70
     8
 71
     3
 72
     8
 73
     4
 74
     0
 42
0.0000000001
 43
0.0000000001
 40
0.0
 40
0.0
 40
0.0
 40
0.0
 40
1.0
 40
1.0
 40
1.0
 40
1.0
 10
77.4671061004249
 20
-148.3034369203894
 30
0.0
 10
71.22889945050875
 20
-148.3034369203894
 30
0.0
 10
65.13659259439294
 20
-146.1313042169394
 30
0.0
 10
60.31225313162333
 20
-142.1870143958769
 30
0.0
  0
SPLINE
  5
176
330
1F
100
AcDbEntity
  8
Layer 1
 62
   250
420
  2301728
370
    40
100
AcDbSpline
210
0.0
220
0.0
230
1.0
 70
     8
 71
     3
 72
     8
 73
     4
 74
     0
 42
0.0000000001
 43
0.0000000001
 40
0.0
 40
0.0
 40
0.0
 40
0.0
 40
1.0
 40
1.0
 40
1.0
 40
1.0
 10
58.15476208398562
 20
-136.6731390717345
 30
0.0
 10
54.64731037045276
 20
-132.3009683914039
 30
0.0
 10
52.71547307709891
 20
-126.8025959969452
 30
0.0
 10
52.71547307709891
 20
-121.1912244705703
 30
0.0
  0
SPLINE
  5
177
330
1F
100
AcDbEntity
  8
Layer 1
 62
   250
420
  2301728
370
    40
100
AcDbSpline
210
0.0
220
0.0
230
1.0
 70
     8
 71
     3
 72
     8
 73
     4
 74
     0
 42
0.0000000001
 43
0.0000000001
 40
0.0
 40
0.0
 40
0.0
 40
0.0
 40
1.0
 40
1.0
 40
1.0
 40
1.0
 10
77.4671061004249
 20
-145.9428574938962
 30
0.0
 10
71.77219100853264
 20
-145.9428574938962
 30
0.0
 10
66.21025660237105
 20
-143.9598605325864
 30
0.0
 10
61.80639104357618
 20
-140.3593912409518
 30
0.0
  0
SPLINE
  5
178
330
1F
100
AcDbEntity
  8
Layer 1
 62
   250
420
  2301728
370
    40
100
AcDbSpline
210
0.0
220
0.0
230
1.0
 70
     8
 71
     3
 72
     8
 73
     4
 74
     0
 42
0.0000000001
 43
0.0000000001
 40
0.0
 40
0.0
 40
0.0
 40
0.0
 40
1.0
 40
1.0
 40
1.0
 40
1.0
 10
59.99599336607739
 20
-135.1955376181108
 30
0.0
 10
56.82340493371082
 20
-131.2409125105926
 30
0.0
 10
55.07622475836637
 20
-126.2675726680859
 30
0.0
 10
55.07622475836637
 20
-121.1912244705703
 30
0.0
  0
SPLINE
  5
179
330
1F
100
AcDbEntity
  8
Layer 1
 62
   250
420
  2301728
370
    40
100
AcDbSpline
210
0.0
220
0.0
230
1.0
 70
     8
 71
     3
 72
     8
 73
     4
 74
     0
 42
0.0000000001
 43
0.0000000001
 40
0.0
 40
0.0
 40
0.0
 40
0.0
 40
1.0
 40
1.0
 40
1.0
 40
1.0
 10
77.4671061004249
 20
-143.5819335578545
 30
0.0
 10
72.31531031178228
 20
-143.5819335578545
 30
0.0
 10
67.28409286512343
 20
-141.7884168482335
 30
0.0
 10
63.30052895552904
 20
-138.5314235764783
 30
0.0
  0
SPLINE
  5
17A
330
1F
100
AcDbEntity
  8
Layer 1
 62
   250
420
  2301728
370
    40
100
AcDbSpline
210
0.0
220
0.0
230
1.0
 70
     8
 71
     3
 72
     8
 73
     4
 74
     0
 42
0.0000000001
 43
0.0000000001
 40
0.0
 40
0.0
 40
0.0
 40
0.0
 40
1.0
 40
1.0
 40
1.0
 40
1.0
 10
61.83688013862064
 20
-133.7179361644872
 30
0.0
 10
58.99967175174314
 20
-130.1812011393297
 30
0.0
 10
57.43714869440808
 20
-125.7325493392266
 30
0.0
 10
57.43714869440808
 20
-121.1912244705703
 30
0.0
  0
SPLINE
  5
17B
330
1F
100
AcDbEntity
  8
Layer 1
 62
   250
420
  2301728
370
    40
100
AcDbSpline
210
0.0
220
0.0
230
1.0
 70
     8
 71
     3
 72
     8
 73
     4
 74
     0
 42
0.0000000001
 43
0.0000000001
 40
0.0
 40
0.0
 40
0.0
 40
0.0
 40
1.0
 40
1.0
 40
1.0
 40
1.0
 10
77.4671061004249
 20
-141.2213541313613
 30
0.0
 10
72.85825736025767
 20
-141.2213541313613
 30
0.0
 10
68.35775687310154
 20
-139.6169731638805
 30
0.0
 10
64.79483912225615
 20
-136.7041449311018
 30
0.0
  0
SPLINE
  5
17C
330
1F
100
AcDbEntity
  8
Layer 1
 62
   250
420
  2301728
370
    40
100
AcDbSpline
210
0.0
220
0.0
230
1.0
 70
     8
 71
     3
 72
     8
 73
     4
 74
     0
 42
0.0000000001
 43
0.0000000001
 40
0.0
 40
0.0
 40
0.0
 40
0.0
 40
1.0
 40
1.0
 40
1.0
 40
1.0
 10
63.67862818503521
 20
-132.2406792204121
 30
0.0
 10
61.17593856977546
 20
-129.1211452585183
 30
0.0
 10
59.79772812090126
 20
-125.1975260103673
 30
0.0
 10
59.79772812090126
 20
-121.1912244705703
 30
0.0
  0
SPLINE
  5
17D
330
1F
100
AcDbEntity
  8
Layer 1
 62
   250
420
  2301728
370
    40
100
AcDbSpline
210
0.0
220
0.0
230
1.0
 70
     8
 71
     3
 72
     8
 73
     4
 74
     0
 42
0.0000000001
 43
0.0000000001
 40
0.0
 40
0.0
 40
0.0
 40
0.0
 40
1.0
 40
1.0
 40
1.0
 40
1.0
 10
77.4671061004249
 20
-138.8607747048681
 30
0.0
 10
73.40103215395877
 20
-138.8607747048681
 30
0.0
 10
69.43142088107965
 20
-137.445184969979
 30
0.0
 10
66.28914928898327
 20
-134.8761772666282
 30
0.0
  0
SPLINE
  5
17E
330
1F
100
AcDbEntity
  8
Layer 1
 62
   250
420
  2301728
370
    40
100
AcDbSpline
210
0.0
220
0.0
230
1.0
 70
     8
 71
     3
 72
     8
 73
     4
 74
     0
 42
0.0000000001
 43
0.0000000001
 40
0.0
 40
0.0
 40
0.0
 40
0.0
 40
1.0
 40
1.0
 40
1.0
 40
1.0
 10
67.78363171048466
 20
-133.0485541117031
 30
0.0
 10
70.42154132354045
 20
-135.2055283950181
 30
0.0
 10
73.79325627495447
 20
-136.4998507688264
 30
0.0
 10
77.4671061004249
 20
-136.4998507688264
 30
0.0
  0
SPLINE
  5
17F
330
1F
100
AcDbEntity
  8
Layer 1
 62
   250
420
  2301728
370
    40
100
AcDbSpline
210
0.0
220
0.0
230
1.0
 70
     8
 71
     3
 72
     8
 73
     4
 74
     0
 42
0.0000000001
 43
0.0000000001
 40
0.0
 40
0.0
 40
0.0
 40
0.0
 40
1.0
 40
1.0
 40
1.0
 40
1.0
 10
62.15847980216871
 20
-121.1912244705703
 30
0.0
 10
62.15847980216871
 20
-124.8137423733105
 30
0.0
 10
63.41645641860769
 20
-128.1417046120618
 30
0.0
 10
65.51985946712698
 20
-130.7634222763369
 30
0.0
  0
SPLINE
  5
180
330
1F
100
AcDbEntity
  8
Layer 1
 62
   250
420
  2301728
370
    40
100
AcDbSpline
210
0.0
220
0.0
230
1.0
 70
     8
 71
     3
 72
     8
 73
     4
 74
     0
 42
0.0000000001
 43
0.0000000001
 40
0.0
 40
0.0
 40
0.0
 40
0.0
 40
1.0
 40
1.0
 40
1.0
 40
1.0
 10
43.5944105251257
 20
-124.1467718873661
 30
0.0
 10
42.19173989830623
 20
-138.7164252040362
 30
0.0
 10
30.59503173063249
 20
-150.3057264164166
 30
0.0
 10
16.01986626118601
 20
-151.703057145234
 30
0.0
  0
SPLINE
  5
181
330
1F
100
AcDbEntity
  8
Layer 1
 62
   250
420
  2301728
370
    40
100
AcDbSpline
210
0.0
220
0.0
230
1.0
 70
     8
 71
     3
 72
     8
 73
     4
 74
     0
 42
0.0000000001
 43
0.0000000001
 40
0.0
 40
0.0
 40
0.0
 40
0.0
 40
1.0
 40
1.0
 40
1.0
 40
1.0
 10
41.24451089463679
 20
-123.9187065662425
 30
0.0
 10
39.95001626605416
 20
-137.3666367929153
 30
0.0
 10
29.24679361247997
 20
-148.063658274616
 30
0.0
 10
15.79472927122493
 20
-149.3528130051965
 30
0.0
  0
SPLINE
  5
182
330
1F
100
AcDbEntity
  8
Layer 1
 62
   250
420
  2301728
370
    40
100
AcDbSpline
210
0.0
220
0.0
230
1.0
 70
     8
 71
     3
 72
     8
 73
     4
 74
     0
 42
0.0000000001
 43
0.0000000001
 40
0.0
 40
0.0
 40
0.0
 40
0.0
 40
1.0
 40
1.0
 40
1.0
 40
1.0
 10
38.8949557736964
 20
-123.6916747737646
 30
0.0
 10
37.7082926338021
 20
-136.0168483817944
 30
0.0
 10
27.89855549432745
 20
-145.8215901328154
 30
0.0
 10
15.56959228126385
 20
-147.0029133747076
 30
0.0
  0
SPLINE
  5
183
330
1F
100
AcDbEntity
  8
Layer 1
 62
   250
420
  2301728
370
    40
100
AcDbSpline
210
0.0
220
0.0
230
1.0
 70
     8
 71
     3
 72
     8
 73
     4
 74
     0
 42
0.0000000001
 43
0.0000000001
 40
0.0
 40
0.0
 40
0.0
 40
0.0
 40
1.0
 40
1.0
 40
1.0
 40
1.0
 10
36.54522839798175
 20
-123.4642984717381
 30
0.0
 10
35.46656900155003
 20
-134.6677489897706
 30
0.0
 10
26.55048963094918
 20
-143.5791774814663
 30
0.0
 10
15.34428303652851
 20
-144.6533582537672
 30
0.0
  0
SPLINE
  5
184
330
1F
100
AcDbEntity
  8
Layer 1
 62
   250
420
  2301728
370
    40
100
AcDbSpline
210
0.0
220
0.0
230
1.0
 70
     8
 71
     3
 72
     8
 73
     4
 74
     0
 42
0.0000000001
 43
0.0000000001
 40
0.0
 40
0.0
 40
0.0
 40
0.0
 40
1.0
 40
1.0
 40
1.0
 40
1.0
 10
34.19567327704136
 20
-123.2369221697116
 30
0.0
 10
33.22484536929796
 20
-133.3179605786497
 30
0.0
 10
25.2020792580224
 20
-141.3364203205687
 30
0.0
 10
15.11914604656744
 20
-142.3031141137298
 30
0.0
  0
SPLINE
  5
185
330
1F
100
AcDbEntity
  8
Layer 1
 62
   250
420
  2301728
370
    40
100
AcDbSpline
210
0.0
220
0.0
230
1.0
 70
     8
 71
     3
 72
     8
 73
     4
 74
     0
 42
0.0000000001
 43
0.0000000001
 40
0.0
 40
0.0
 40
0.0
 40
0.0
 40
1.0
 40
1.0
 40
1.0
 40
1.0
 10
31.84611815610097
 20
-123.0098903772336
 30
0.0
 10
30.98329399182015
 20
-131.9685166770773
 30
0.0
 10
23.85384113986987
 20
-139.0946966883166
 30
0.0
 10
14.89400905660636
 20
-139.9532144832409
 30
0.0
  0
SPLINE
  5
186
330
1F
100
AcDbEntity
  8
Layer 1
 62
   250
420
  2301728
370
    40
100
AcDbSpline
210
0.0
220
0.0
230
1.0
 70
     8
 71
     3
 72
     8
 73
     4
 74
     0
 42
0.0000000001
 43
0.0000000001
 40
0.0
 40
0.0
 40
0.0
 40
0.0
 40
1.0
 40
1.0
 40
1.0
 40
1.0
 10
29.49621852561206
 20
-122.7828585847557
 30
0.0
 10
28.74260388821365
 20
-130.6090819985977
 30
0.0
 10
22.49543999003586
 20
-136.8529730560645
 30
0.0
 10
14.66887206664528
 20
-137.603314852752
 30
0.0
  0
SPLINE
  5
187
330
1F
100
AcDbEntity
  8
Layer 1
 62
   250
420
  2301728
370
    40
100
AcDbSpline
210
0.0
220
0.0
230
1.0
 70
     8
 71
     3
 72
     8
 73
     4
 74
     0
 42
0.0000000001
 43
0.0000000001
 40
0.0
 40
0.0
 40
0.0
 40
0.0
 40
1.0
 40
1.0
 40
1.0
 40
1.0
 10
31.52090114229339
 20
-144.1837917391277
 30
0.0
 10
26.31346706156399
 20
-148.3616590340901
 30
0.0
 10
19.76571858229816
 20
-150.662982818237
 30
0.0
 10
13.08378363388183
 20
-150.662982818237
 30
0.0
  0
SPLINE
  5
188
330
1F
100
AcDbEntity
  8
Layer 1
 62
   250
420
  2301728
370
    40
100
AcDbSpline
210
0.0
220
0.0
230
1.0
 70
     8
 71
     3
 72
     8
 73
     4
 74
     0
 42
0.0000000001
 43
0.0000000001
 40
0.0
 40
0.0
 40
0.0
 40
0.0
 40
1.0
 40
1.0
 40
1.0
 40
1.0
 10
42.55709227451698
 20
-121.1898464323762
 30
0.0
 10
42.55709227451698
 20
-127.9708278759934
 30
0.0
 10
40.19547931937822
 20
-134.5943684559348
 30
0.0
 10
35.90719671411348
 20
-139.8388373131306
 30
0.0
  0
SPLINE
  5
189
330
1F
100
AcDbEntity
  8
Layer 1
 62
   250
420
  2301728
370
    40
100
AcDbSpline
210
0.0
220
0.0
230
1.0
 70
     8
 71
     3
 72
     8
 73
     4
 74
     0
 42
0.0000000001
 43
0.0000000001
 40
0.0
 40
0.0
 40
0.0
 40
0.0
 40
1.0
 40
1.0
 40
1.0
 40
1.0
 10
30.04347194344399
 20
-142.3427327118102
 30
0.0
 10
25.25358343552688
 20
-146.1860812351549
 30
0.0
 10
19.23052299866459
 20
-148.3020588821953
 30
0.0
 10
13.08378363388183
 20
-148.3020588821953
 30
0.0
  0
SPLINE
  5
18A
330
1F
100
AcDbEntity
  8
Layer 1
 62
   250
420
  2301728
370
    40
100
AcDbSpline
210
0.0
220
0.0
230
1.0
 70
     8
 71
     3
 72
     8
 73
     4
 74
     0
 42
0.0000000001
 43
0.0000000001
 40
0.0
 40
0.0
 40
0.0
 40
0.0
 40
1.0
 40
1.0
 40
1.0
 40
1.0
 10
40.19616833847527
 20
-121.1898464323762
 30
0.0
 10
40.19616833847527
 20
-127.427880827518
 30
0.0
 10
38.02403563502524
 20
-133.5201876836338
 30
0.0
 10
34.07957355918844
 20
-138.3443548916292
 30
0.0
  0
SPLINE
  5
18B
330
1F
100
AcDbEntity
  8
Layer 1
 62
   250
420
  2301728
370
    40
100
AcDbSpline
210
0.0
220
0.0
230
1.0
 70
     8
 71
     3
 72
     8
 73
     4
 74
     0
 42
0.0000000001
 43
0.0000000001
 40
0.0
 40
0.0
 40
0.0
 40
0.0
 40
1.0
 40
1.0
 40
1.0
 40
1.0
 10
28.56587048982034
 20
-140.5016736844926
 30
0.0
 10
24.19369980948977
 20
-144.009469907574
 30
0.0
 10
18.69549966980529
 20
-145.9414794557021
 30
0.0
 10
13.08378363388183
 20
-145.9414794557021
 30
0.0
  0
SPLINE
  5
18C
330
1F
100
AcDbEntity
  8
Layer 1
 62
   250
420
  2301728
370
    40
100
AcDbSpline
210
0.0
220
0.0
230
1.0
 70
     8
 71
     3
 72
     8
 73
     4
 74
     0
 42
0.0000000001
 43
0.0000000001
 40
0.0
 40
0.0
 40
0.0
 40
0.0
 40
1.0
 40
1.0
 40
1.0
 40
1.0
 10
37.83541665720782
 20
-121.1898464323762
 30
0.0
 10
37.83541665720782
 20
-126.8845892694941
 30
0.0
 10
35.85259195067227
 20
-132.44669593043
 30
0.0
 10
32.2519504042634
 20
-136.8502169796763
 30
0.0
  0
SPLINE
  5
18D
330
1F
100
AcDbEntity
  8
Layer 1
 62
   250
420
  2301728
370
    40
100
AcDbSpline
210
0.0
220
0.0
230
1.0
 70
     8
 71
     3
 72
     8
 73
     4
 74
     0
 42
0.0000000001
 43
0.0000000001
 40
0.0
 40
0.0
 40
0.0
 40
0.0
 40
1.0
 40
1.0
 40
1.0
 40
1.0
 10
27.08826903619669
 20
-138.6606146571751
 30
0.0
 10
23.13381618345266
 20
-141.8335475990902
 30
0.0
 10
18.16013183139747
 20
-143.5805555196604
 30
0.0
 10
13.08378363388183
 20
-143.5805555196604
 30
0.0
  0
SPLINE
  5
18E
330
1F
100
AcDbEntity
  8
Layer 1
 62
   250
420
  2301728
370
    40
100
AcDbSpline
210
0.0
220
0.0
230
1.0
 70
     8
 71
     3
 72
     8
 73
     4
 74
     0
 42
0.0000000001
 43
0.0000000001
 40
0.0
 40
0.0
 40
0.0
 40
0.0
 40
1.0
 40
1.0
 40
1.0
 40
1.0
 10
35.47483723071463
 20
-121.1898464323762
 30
0.0
 10
35.47483723071463
 20
-126.3416422210188
 30
0.0
 10
33.68097601154503
 20
-131.3728596676776
 30
0.0
 10
30.4241549945641
 20
-135.355734558175
 30
0.0
  0
SPLINE
  5
18F
330
1F
100
AcDbEntity
  8
Layer 1
 62
   250
420
  2301728
370
    40
100
AcDbSpline
210
0.0
220
0.0
230
1.0
 70
     8
 71
     3
 72
     8
 73
     4
 74
     0
 42
0.0000000001
 43
0.0000000001
 40
0.0
 40
0.0
 40
0.0
 40
0.0
 40
1.0
 40
1.0
 40
1.0
 40
1.0
 10
25.61066758257303
 20
-136.8199001394061
 30
0.0
 10
22.07393255741555
 20
-139.6569362715094
 30
0.0
 10
17.62528075731243
 20
-141.2196315836187
 30
0.0
 10
13.08378363388183
 20
-141.2196315836187
 30
0.0
  0
SPLINE
  5
190
330
1F
100
AcDbEntity
  8
Layer 1
 62
   250
420
  2301728
370
    40
100
AcDbSpline
210
0.0
220
0.0
230
1.0
 70
     8
 71
     3
 72
     8
 73
     4
 74
     0
 42
0.0000000001
 43
0.0000000001
 40
0.0
 40
0.0
 40
0.0
 40
0.0
 40
1.0
 40
1.0
 40
1.0
 40
1.0
 10
33.11391329467291
 20
-121.1898464323762
 30
0.0
 10
33.11391329467291
 20
-125.7990396820919
 30
0.0
 10
31.50953232719206
 20
-130.2993679144738
 30
0.0
 10
28.59653183963906
 20
-133.8615966462221
 30
0.0
  0
SPLINE
  5
191
330
1F
100
AcDbEntity
  8
Layer 1
 62
   250
420
  2301728
370
    40
100
AcDbSpline
210
0.0
220
0.0
230
1.0
 70
     8
 71
     3
 72
     8
 73
     4
 74
     0
 42
0.0000000001
 43
0.0000000001
 40
0.0
 40
0.0
 40
0.0
 40
0.0
 40
1.0
 40
1.0
 40
1.0
 40
1.0
 10
24.1334106384979
 20
-134.9781520929916
 30
0.0
 10
21.01404893137843
 20
-137.4810139630256
 30
0.0
 10
17.08991291890461
 20
-138.858707647577
 30
0.0
 10
13.08378363388183
 20
-138.858707647577
 30
0.0
  0
SPLINE
  5
192
330
1F
100
AcDbEntity
  8
Layer 1
 62
   250
420
  2301728
370
    40
100
AcDbSpline
210
0.0
220
0.0
230
1.0
 70
     8
 71
     3
 72
     8
 73
     4
 74
     0
 42
0.0000000001
 43
0.0000000001
 40
0.0
 40
0.0
 40
0.0
 40
0.0
 40
1.0
 40
1.0
 40
1.0
 40
1.0
 10
30.75316161340546
 20
-121.1898464323762
 30
0.0
 10
30.75316161340546
 20
-125.255748124068
 30
0.0
 10
29.33808864283909
 20
-129.2251871421729
 30
0.0
 10
26.76873642993976
 20
-132.3674587342693
 30
0.0
  0
SPLINE
  5
193
330
1F
100
AcDbEntity
  8
Layer 1
 62
   250
420
  2301728
370
    40
100
AcDbSpline
210
0.0
220
0.0
230
1.0
 70
     8
 71
     3
 72
     8
 73
     4
 74
     0
 42
0.0000000001
 43
0.0000000001
 40
0.0
 40
0.0
 40
0.0
 40
0.0
 40
1.0
 40
1.0
 40
1.0
 40
1.0
 10
24.94111327501472
 20
-130.8729763127679
 30
0.0
 10
27.09808755832965
 20
-128.2354112092606
 30
0.0
 10
28.39258218691227
 20
-124.8636962578466
 30
0.0
 10
28.39258218691227
 20
-121.1898464323762
 30
0.0
  0
SPLINE
  5
194
330
1F
100
AcDbEntity
  8
Layer 1
 62
   250
420
  2301728
370
    40
100
AcDbSpline
210
0.0
220
0.0
230
1.0
 70
     8
 71
     3
 72
     8
 73
     4
 74
     0
 42
0.0000000001
 43
0.0000000001
 40
0.0
 40
0.0
 40
0.0
 40
0.0
 40
1.0
 40
1.0
 40
1.0
 40
1.0
 10
13.08378363388183
 20
-136.4984727306323
 30
0.0
 10
16.70630153662204
 20
-136.4984727306323
 30
0.0
 10
20.03443603014764
 20
-135.2403238594191
 30
0.0
 10
22.65615369442277
 20
-133.1370930656741
 30
0.0
  0
ENDSEC
  0
SECTION
  2
OBJECTS
  0
DICTIONARY
  5
C
330
0
100
AcDbDictionary
281
     1
  3
ACAD_GROUP
350
D
  3
ACAD_LAYOUT
350
1A
  3
ACAD_MLINESTYLE
350
17
  3
ACAD_PLOTSETTINGS
350
19
  3
ACAD_PLOTSTYLENAME
350
E
  3
ACAD_TABLESTYLE
350
195
  3
ACAD_VISUALSTYLE
350
2A
  0
DICTIONARY
  5
D
102
{ACAD_REACTORS
330
C
102
}
330
C
100
AcDbDictionary
281
     1
  0
DICTIONARY
  5
1A
102
{ACAD_REACTORS
330
C
102
}
330
C
100
AcDbDictionary
281
     1
  3
Layout1
350
1E
  3
Layout2
350
26
  3
Model
350
22
  0
DICTIONARY
  5
17
102
{ACAD_REACTORS
330
C
102
}
330
C
100
AcDbDictionary
281
     1
  3
Standard
350
18
  0
DICTIONARY
  5
19
102
{ACAD_REACTORS
330
C
102
}
330
C
100
AcDbDictionary
281
     1
  0
ACDBDICTIONARYWDFLT
  5
E
102
{ACAD_REACTORS
330
C
102
}
330
C
100
AcDbDictionary
281
     1
  3
Normal
350
F
100
AcDbDictionaryWithDefault
340
F
  0
DICTIONARY
  5
195
102
{ACAD_REACTORS
330
C
102
}
330
C
100
AcDbDictionary
281
     1
  0
DICTIONARY
  5
2A
102
{ACAD_REACTORS
330
C
102
}
330
C
100
AcDbDictionary
281
     1
  3
2dWireframe
350
2F
  3
3D Hidden
350
31
  3
3dWireframe
350
30
  3
Basic
350
32
  3
Brighten
350
36
  3
ColorChange
350
3A
  3
Conceptual
350
34
  3
Dim
350
35
  3
Facepattern
350
39
  3
Flat
350
2B
  3
FlatWithEdges
350
2C
  3
Gouraud
350
2D
  3
GouraudWithEdges
350
2E
  3
Linepattern
350
38
  3
Realistic
350
33
  3
Thicken
350
37
  0
LAYOUT
  5
1E
102
{ACAD_REACTORS
330
1A
102
}
330
1A
100
AcDbPlotSettings
  1

  2
none_device
  4

  6

 40
0.0
 41
0.0
 42
0.0
 43
0.0
 44
0.0
 45
0.0
 46
0.0
 47
0.0
 48
0.0
 49
0.0
140
0.0
141
0.0
142
1.0
143
1.0
 70
   688
 72
     0
 73
     0
 74
     5
  7

 75
    16
 76
     0
 77
     2
 78
   300
147
1.0
148
0.0
149
0.0
100
AcDbLayout
  1
Layout1
 70
     1
 71
     1
 10
0.0
 20
0.0
 11
12.0
 21
9.0
 12
0.0
 22
0.0
 32
0.0
 14
1.000000000000000E+20
 24
1.000000000000000E+20
 34
1.000000000000000E+20
 15
-1.000000000000000E+20
 25
-1.000000000000000E+20
 35
-1.000000000000000E+20
146
0.0
 13
0.0
 23
0.0
 33
0.0
 16
1.0
 26
0.0
 36
0.0
 17
0.0
 27
1.0
 37
0.0
 76
     0
330
1B
  0
LAYOUT
  5
26
102
{ACAD_REACTORS
330
1A
102
}
330
1A
100
AcDbPlotSettings
  1

  2
none_device
  4

  6

 40
0.0
 41
0.0
 42
0.0
 43
0.0
 44
0.0
 45
0.0
 46
0.0
 47
0.0
 48
0.0
 49
0.0
140
0.0
141
0.0
142
1.0
143
1.0
 70
   688
 72
     0
 73
     0
 74
     5
  7

 75
    16
 76
     0
 77
     2
 78
   300
147
1.0
148
0.0
149
0.0
100
AcDbLayout
  1
Layout2
 70
     1
 71
     2
 10
0.0
 20
0.0
 11
0.0
 21
0.0
 12
0.0
 22
0.0
 32
0.0
 14
0.0
 24
0.0
 34
0.0
 15
0.0
 25
0.0
 35
0.0
146
0.0
 13
0.0
 23
0.0
 33
0.0
 16
1.0
 26
0.0
 36
0.0
 17
0.0
 27
1.0
 37
0.0
 76
     0
330
23
  0
LAYOUT
  5
22
102
{ACAD_REACTORS
330
1A
102
}
330
1A
100
AcDbPlotSettings
  1

  2
none_device
  4

  6

 40
0.0
 41
0.0
 42
0.0
 43
0.0
 44
0.0
 45
0.0
 46
0.0
 47
0.0
 48
0.0
 49
0.0
140
0.0
141
0.0
142
1.0
143
1.0
 70
  1712
 72
     0
 73
     0
 74
     0
  7

 75
     0
 76
     0
 77
     2
 78
   300
147
1.0
148
0.0
149
0.0
100
AcDbLayout
  1
Model
 70
     1
 71
     0
 10
0.0
 20
0.0
 11
12.0
 21
9.0
 12
0.0
 22
0.0
 32
0.0
 14
1.000000000000000E+20
 24
1.000000000000000E+20
 34
1.000000000000000E+20
 15
-1.000000000000000E+20
 25
-1.000000000000000E+20
 35
-1.000000000000000E+20
146
0.0
 13
0.0
 23
0.0
 33
0.0
 16
1.0
 26
0.0
 36
0.0
 17
0.0
 27
1.0
 37
0.0
 76
     0
330
1F
331
29
  0
MLINESTYLE
  5
18
102
{ACAD_REACTORS
330
17
102
}
330
17
100
AcDbMlineStyle
  2
Standard
 70
     0
  3

 62
   256
 51
90.0
 52
90.0
 71
     2
 49
0.5
 62
   256
  6
BYLAYER
 49
-0.5
 62
   256
  6
BYLAYER
  0
ACDBPLACEHOLDER
  5
F
102
{ACAD_REACTORS
330
E
102
}
330
E
  0
VISUALSTYLE
  5
2F
102
{ACAD_REACTORS
330
2A
102
}
330
2A
100
AcDbVisualStyle
  2
2dWireframe
 70
     4
 71
     0
 72
     2
 73
     0
 90
        0
 40
-0.6
 41
-30.0
 62
     5
 63
     7
421
 16777215
 74
     1
 91
        4
 64
     7
 65
   257
 75
     1
175
     1
 42
1.0
 92
        0
 66
   257
 43
1.0
 76
     1
 77
     6
 78
     2
 67
     7
 79
     5
170
     0
171
     0
290
     0
174
     0
 93
        1
 44
0.0
173
     0
291
     0
 45
0.0
1001
ACAD
1000
AcDbSavedByObjectVersion
1070
     0
  0
VISUALSTYLE
  5
31
102
{ACAD_REACTORS
330
2A
102
}
330
2A
100
AcDbVisualStyle
  2
3D Hidden
 70
     6
 71
     1
 72
     2
 73
     2
 90
        0
 40
-0.6
 41
-30.0
 62
     5
 63
     7
421
 16777215
 74
     2
 91
        2
 64
     7
 65
   257
 75
     2
175
     1
 42
40.0
 92
        0
 66
   257
 43
1.0
 76
     1
 77
     6
 78
     2
 67
     7
 79
     3
170
     0
171
     0
290
     0
174
     0
 93
        1
 44
0.0
173
     0
291
     0
 45
0.0
1001
ACAD
1000
AcDbSavedByObjectVersion
1070
     0
  0
VISUALSTYLE
  5
30
102
{ACAD_REACTORS
330
2A
102
}
330
2A
100
AcDbVisualStyle
  2
3dWireframe
 70
     5
 71
     0
 72
     2
 73
     0
 90
        0
 40
-0.6
 41
-30.0
 62
     5
 63
     7
421
 16777215
 74
     1
 91
        4
 64
     7
 65
   257
 75
     1
175
     1
 42
1.0
 92
        0
 66
   257
 43
1.0
 76
     1
 77
     6
 78
     2
 67
     7
 79
     5
170
     0
171
     0
290
     0
174
     0
 93
        1
 44
0.0
173
     0
291
     0
 45
0.0
1001
ACAD
1000
AcDbSavedByObjectVersion
1070
     0
  0
VISUALSTYLE
  5
32
102
{ACAD_REACTORS
330
2A
102
}
330
2A
100
AcDbVisualStyle
  2
Basic
 70
     7
 71
     1
 72
     0
 73
     1
 90
        0
 40
-0.6
 41
-30.0
 62
     5
 63
     7
421
 16777215
 74
     0
 91
        4
 64
     7
 65
   257
 75
     1
175
     1
 42
1.0
 92
        8
 66
     7
 43
1.0
 76
     1
 77
     6
 78
     2
 67
     7
 79
     5
170
     0
171
     0
290
     0
174
     0
 93
        1
 44
0.0
173
     0
291
     1
 45
0.0
1001
ACAD
1000
AcDbSavedByObjectVersion
1070
     0
  0
VISUALSTYLE
  5
36
102
{ACAD_REACTORS
330
2A
102
}
330
2A
100
AcDbVisualStyle
  2
Brighten
 70
    12
 71
     2
 72
     2
 73
     0
 90
        0
 40
-0.6
 41
-30.0
 62
     5
 63
     7
421
 16777215
 74
     1
 91
        4
 64
     7
 65
   257
 75
     1
175
     1
 42
1.0
 92
        8
 66
     7
 43
1.0
 76
     1
 77
     6
 78
     2
 67
     7
 79
     5
170
     0
171
     0
290
     0
174
     0
 93
        1
 44
50.0
173
     0
291
     1
 45
0.0
1001
ACAD
1000
AcDbSavedByObjectVersion
1070
     0
  0
VISUALSTYLE
  5
3A
102
{ACAD_REACTORS
330
2A
102
}
330
2A
100
AcDbVisualStyle
  2
ColorChange
 70
    16
 71
     2
 72
     2
 73
     3
 90
        0
 40
-0.6
 41
-30.0
 62
     5
 63
     8
421
  8421504
 74
     1
 91
        4
 64
     7
 65
   257
 75
     1
175
     1
 42
1.0
 92
        8
 66
     8
424
  8421504
 43
1.0
 76
     1
 77
     6
 78
     2
 67
     7
 79
     5
170
     0
171
     0
290
     0
174
     0
 93
        1
 44
0.0
173
     0
291
     1
 45
0.0
1001
ACAD
1000
AcDbSavedByObjectVersion
1070
     0
  0
VISUALSTYLE
  5
34
102
{ACAD_REACTORS
330
2A
102
}
330
2A
100
AcDbVisualStyle
  2
Conceptual
 70
     9
 71
     3
 72
     2
 73
     0
 90
        0
 40
-0.6
 41
-30.0
 62
     5
 63
     7
421
 16777215
 74
     2
 91
        2
 64
     7
 65
   257
 75
     1
175
     1
 42
40.0
 92
        8
 66
     7
 43
1.0
 76
     1
 77
     6
 78
     2
 67
     7
 79
     3
170
     0
171
     0
290
     0
174
     0
 93
        1
 44
0.0
173
     0
291
     0
 45
0.0
1001
ACAD
1000
AcDbSavedByObjectVersion
1070
     0
  0
VISUALSTYLE
  5
35
102
{ACAD_REACTORS
330
2A
102
}
330
2A
100
AcDbVisualStyle
  2
Dim
 70
    11
 71
     2
 72
     2
 73
     0
 90
        0
 40
-0.6
 41
-30.0
 62
     5
 63
     7
421
 16777215
 74
     1
 91
        4
 64
     7
 65
   257
 75
     1
175
     1
 42
1.0
 92
        8
 66
     7
 43
1.0
 76
     1
 77
     6
 78
     2
 67
     7
 79
     5
170
     0
171
     0
290
     0
174
     0
 93
        1
 44
-50.0
173
     0
291
     1
 45
0.0
1001
ACAD
1000
AcDbSavedByObjectVersion
1070
     0
  0
VISUALSTYLE
  5
39
102
{ACAD_REACTORS
330
2A
102
}
330
2A
100
AcDbVisualStyle
  2
Facepattern
 70
    15
 71
     2
 72
     2
 73
     0
 90
        0
 40
-0.6
 41
-30.0
 62
     5
 63
     7
421
 16777215
 74
     1
 91
        4
 64
     7
 65
   257
 75
     1
175
     1
 42
1.0
 92
        8
 66
     7
 43
1.0
 76
     1
 77
     6
 78
     2
 67
     7
 79
     5
170
     0
171
     0
290
     0
174
     0
 93
        1
 44
0.0
173
     0
291
     1
 45
0.0
1001
ACAD
1000
AcDbSavedByObjectVersion
1070
     0
  0
VISUALSTYLE
  5
2B
102
{ACAD_REACTORS
330
2A
102
}
330
2A
100
AcDbVisualStyle
  2
Flat
 70
     0
 71
     2
 72
     1
 73
     1
 90
        2
 40
-0.6
 41
30.0
 62
     5
 63
     7
421
 16777215
 74
     0
 91
        4
 64
     7
 65
   257
 75
     1
175
     1
 42
1.0
 92
        8
 66
     7
 43
1.0
 76
     1
 77
     6
 78
     2
 67
     7
 79
     5
170
     0
171
     0
290
     0
174
     0
 93
       13
 44
0.0
173
     0
291
     1
 45
0.0
1001
ACAD
1000
AcDbSavedByObjectVersion
1070
     0
  0
VISUALSTYLE
  5
2C
102
{ACAD_REACTORS
330
2A
102
}
330
2A
100
AcDbVisualStyle
  2
FlatWithEdges
 70
     1
 71
     2
 72
     1
 73
     1
 90
        2
 40
-0.6
 41
30.0
 62
     5
 63
     7
421
 16777215
 74
     1
 91
        4
 64
     7
 65
   257
 75
     1
175
     1
 42
1.0
 92
        0
 66
   257
 43
1.0
 76
     1
 77
     6
 78
     2
 67
     7
 79
     5
170
     0
171
     0
290
     0
174
     0
 93
       13
 44
0.0
173
     0
291
     1
 45
0.0
1001
ACAD
1000
AcDbSavedByObjectVersion
1070
     0
  0
VISUALSTYLE
  5
2D
102
{ACAD_REACTORS
330
2A
102
}
330
2A
100
AcDbVisualStyle
  2
Gouraud
 70
     2
 71
     2
 72
     2
 73
     1
 90
        2
 40
-0.6
 41
30.0
 62
     5
 63
     7
421
 16777215
 74
     0
 91
        4
 64
     7
 65
   257
 75
     1
175
     1
 42
1.0
 92
        0
 66
     7
 43
1.0
 76
     1
 77
     6
 78
     2
 67
     7
 79
     5
170
     0
171
     0
290
     0
174
     0
 93
       13
 44
0.0
173
     0
291
     1
 45
0.0
1001
ACAD
1000
AcDbSavedByObjectVersion
1070
     0
  0
VISUALSTYLE
  5
2E
102
{ACAD_REACTORS
330
2A
102
}
330
2A
100
AcDbVisualStyle
  2
GouraudWithEdges
 70
     3
 71
     2
 72
     2
 73
     1
 90
        2
 40
-0.6
 41
30.0
 62
     5
 63
     7
421
 16777215
 74
     1
 91
        4
 64
     7
 65
   257
 75
     1
175
     1
 42
1.0
 92
        0
 66
   257
 43
1.0
 76
     1
 77
     6
 78
     2
 67
     7
 79
     5
170
     0
171
     0
290
     0
174
     0
 93
       13
 44
0.0
173
     0
291
     1
 45
0.0
1001
ACAD
1000
AcDbSavedByObjectVersion
1070
     0
  0
VISUALSTYLE
  5
38
102
{ACAD_REACTORS
330
2A
102
}
330
2A
100
AcDbVisualStyle
  2
Linepattern
 70
    14
 71
     2
 72
     2
 73
     0
 90
        0
 40
-0.6
 41
-30.0
 62
     5
 63
     7
421
 16777215
 74
     1
 91
        4
 64
     7
 65
   257
 75
     7
175
     7
 42
1.0
 92
        8
 66
     7
 43
1.0
 76
     1
 77
     6
 78
     2
 67
     7
 79
     5
170
     0
171
     0
290
     0
174
     0
 93
        1
 44
0.0
173
     0
291
     1
 45
0.0
1001
ACAD
1000
AcDbSavedByObjectVersion
1070
     0
  0
VISUALSTYLE
  5
33
102
{ACAD_REACTORS
330
2A
102
}
330
2A
100
AcDbVisualStyle
  2
Realistic
 70
     8
 71
     2
 72
     2
 73
     0
 90
        0
 40
-0.6
 41
-30.0
 62
     5
 63
     7
421
 16777215
 74
     1
 91
        0
 64
     7
 65
   257
 75
     1
175
     1
 42
1.0
 92
        8
 66
     8
424
  7895160
 43
1.0
 76
     1
 77
     6
 78
     2
 67
     7
 79
     5
170
     0
171
     0
290
     0
174
     0
 93
       13
 44
0.0
173
     0
291
     0
 45
0.0
1001
ACAD
1000
AcDbSavedByObjectVersion
1070
     0
  0
VISUALSTYLE
  5
37
102
{ACAD_REACTORS
330
2A
102
}
330
2A
100
AcDbVisualStyle
  2
Thicken
 70
    13
 71
     2
 72
     2
 73
     0
 90
        0
 40
-0.6
 41
-30.0
 62
     5
 63
     7
421
 16777215
 74
     1
 91
        4
 64
     7
 65
   257
 75
     1
175
     1
 42
1.0
 92
       12
 66
     7
 43
1.0
 76
     1
 77
     6
 78
     2
 67
     7
 79
     5
170
     0
171
     0
290
     0
174
     0
 93
        1
 44
0.0
173
     0
291
     1
 45
0.0
1001
ACAD
1000
AcDbSavedByObjectVersion
1070
     0
  0
ENDSEC
  0
EOF
