0
SECTION
2
HEADER
9
$INSUNITS
70
4
9
$ACADVER
1
AC1014
9
$HANDSEED
5
FFFF
0
ENDSEC
0
SECTION
2
TABLES
0
TABLE
2
VPORT
5
8
100
AcDbSymbolTable
0
ENDTAB
0
TABLE
2
LTYPE
5
5
100
AcDbSymbolTable
0
LTYPE
5
14
100
AcDbSymbolTableRecord
100
AcDbLinetypeTableRecord
2
BYBLOCK
70
0
0
LTYPE
5
15
100
AcDbSymbolTableRecord
100
AcDbLinetypeTableRecord
2
BYLAYER
70
0
0
ENDTAB
0
TABLE
2
LAYER
5
2
100
AcDbSymbolTable
70
2
0
LAYER
5
50
100
AcDbSymbolTableRecord
100
AcDbLayerTableRecord
2
0
70
0
6
CONTINUOUS
0
ENDTAB
0
TABLE
2
STYLE
5
3
100
AcDbSymbolTable
70
1
0
STYLE
5
11
100
AcDbSymbolTableRecord
100
AcDbTextStyleTableRecord
2
STANDARD
70
0
0
ENDTAB
0
TABLE
2
VIEW
5
6
100
AcDbSymbolTable
70
0
0
ENDTAB
0
TABLE
2
UCS
5
7
100
AcDbSymbolTable
70
0
0
ENDTAB
0
TABLE
2
APPID
5
9
100
AcDbSymbolTable
70
2
0
APPID
5
12
100
AcDbSymbolTableRecord
100
AcDbRegAppTableRecord
2
ACAD
70
0
0
ENDTAB
0
TABLE
2
DIMSTYLE
5
A
100
AcDbSymbolTable
70
1
0
ENDTAB
0
TABLE
2
BLOCK_RECORD
5
1
100
AcDbSymbolTable
70
1
0
BLOCK_RECORD
5
1F
100
AcDbSymbolTableRecord
100
AcDbBlockTableRecord
2
*MODEL_SPACE
0
BLOCK_RECORD
5
1B
100
AcDbSymbolTableRecord
100
AcDbBlockTableRecord
2
*PAPER_SPACE
0
ENDTAB
0
ENDSEC
0
SECTION
2
BLOCKS
0
BLOCK
5
20
100
AcDbEntity
100
AcDbBlockBegin
2
*MODEL_SPACE
0
ENDBLK
5
21
100
AcDbEntity
100
AcDbBlockEnd
0
BLOCK
5
1C
100
AcDbEntity
100
AcDbBlockBegin
2
*PAPER_SPACE
0
ENDBLK
5
1D
100
AcDbEntity
100
AcDbBlockEnd
0
ENDSEC
0
SECTION
2
ENTITIES
0
ARC
5
100
100
AcDbEntity
8
0
100
AcDbCircle
10
-7.8786796564403963
20
-75.45465367689296
30
0
40
2.9999999999999982
210
0
220
-0
230
1
100
AcDbArc
50
44.999999999999389
51
224.99999999999937
0
LINE
5
101
100
AcDbEntity
8
0
100
AcDbLine
10
-5.7573593128807339
20
-73.333333333333343
30
0
11
0
21
-73.333333333333357
31
0
0
LINE
5
102
100
AcDbEntity
8
0
100
AcDbLine
10
0
20
-73.333333333333357
30
0
11
0
21
-31.666666666666679
31
0
0
LINE
5
103
100
AcDbEntity
8
0
100
AcDbLine
10
0
20
-31.666666666666679
30
0
11
-5.7573593128807676
21
-31.666666666666696
31
0
0
ARC
5
104
100
AcDbEntity
8
0
100
AcDbCircle
10
-7.8786796564403971
20
-29.54534632310704
30
0
40
3.0000000000000004
210
0
220
0
230
1
100
AcDbArc
50
134.99999999999898
51
314.99999999999966
0
LINE
5
105
100
AcDbEntity
8
0
100
AcDbLine
10
-10
20
-27.424025979547359
30
0
11
-10
21
37.424025979547324
31
0
0
ARC
5
106
100
AcDbEntity
8
0
100
AcDbCircle
10
-7.8786796564403989
20
39.545346323107005
30
0
40
3.0000000000000018
210
0
220
-0
230
1
100
AcDbArc
50
44.999999999999872
51
225.00000000000108
0
LINE
5
107
100
AcDbEntity
8
0
100
AcDbLine
10
-5.7573593128807508
20
41.666666666666643
30
0
11
0
21
41.66666666666665
31
0
0
LINE
5
108
100
AcDbEntity
8
0
100
AcDbLine
10
0
20
41.66666666666665
30
0
11
0
21
83.333333333333314
31
0
0
LINE
5
109
100
AcDbEntity
8
0
100
AcDbLine
10
0
20
83.333333333333314
30
0
11
-5.7573593128807499
21
83.333333333333314
31
0
0
ARC
5
110
100
AcDbEntity
8
0
100
AcDbCircle
10
-7.8786796564403954
20
85.454653676892974
30
0
40
2.9999999999999858
210
0
220
0
230
1
100
AcDbArc
50
134.99999999999932
51
314.99999999999977
0
LINE
5
111
100
AcDbEntity
8
0
100
AcDbLine
10
-10.000000000000004
20
87.575974020452634
30
0
11
-10
21
124.99999999999999
31
0
0
LINE
5
112
100
AcDbEntity
8
0
100
AcDbLine
10
-10
20
124.99999999999999
30
0
11
-510
21
124.99999999999999
31
0
0
LINE
5
113
100
AcDbEntity
8
0
100
AcDbLine
10
-510
20
124.99999999999999
30
0
11
-510
21
87.575974020452634
31
0
0
ARC
5
114
100
AcDbEntity
8
0
100
AcDbCircle
10
-512.12132034355955
20
85.454653676892946
30
0
40
2.9999999999999938
210
0
220
0
230
1
100
AcDbArc
50
-135.0000000000023
51
45.000000000001918
0
LINE
5
115
100
AcDbEntity
8
0
100
AcDbLine
10
-514.24264068711932
20
83.333333333333343
30
0
11
-520
21
83.333333333333314
31
0
0
LINE
5
116
100
AcDbEntity
8
0
100
AcDbLine
10
-520
20
83.333333333333314
30
0
11
-520
21
41.66666666666665
31
0
0
LINE
5
117
100
AcDbEntity
8
0
100
AcDbLine
10
-520
20
41.66666666666665
30
0
11
-514.24264068711932
21
41.666666666666643
31
0
0
ARC
5
118
100
AcDbEntity
8
0
100
AcDbCircle
10
-512.12132034355955
20
39.545346323107026
30
0
40
3.0000000000000098
210
-0
220
0
230
1
100
AcDbArc
50
-45.000000000002089
51
135.0000000000021
0
LINE
5
119
100
AcDbEntity
8
0
100
AcDbLine
10
-510
20
37.424025979547324
30
0
11
-510
21
-27.424025979547359
31
0
0
ARC
5
120
100
AcDbEntity
8
0
100
AcDbCircle
10
-512.12132034355955
20
-29.545346323107033
30
0
40
2.9999999999999973
210
0
220
0
230
1
100
AcDbArc
50
-134.99999999999977
51
45.00000000000172
0
LINE
5
121
100
AcDbEntity
8
0
100
AcDbLine
10
-514.24264068711921
20
-31.66666666666671
30
0
11
-520
21
-31.666666666666682
31
0
0
LINE
5
122
100
AcDbEntity
8
0
100
AcDbLine
10
-520
20
-31.666666666666682
30
0
11
-520
21
-73.333333333333357
31
0
0
LINE
5
123
100
AcDbEntity
8
0
100
AcDbLine
10
-520
20
-73.333333333333357
30
0
11
-514.24264068711932
21
-73.333333333333343
31
0
0
ARC
5
124
100
AcDbEntity
8
0
100
AcDbCircle
10
-512.12132034355955
20
-75.454653676892946
30
0
40
3.0000000000000067
210
-0
220
0
230
1
100
AcDbArc
50
-45.00000000000194
51
135.0000000000023
0
LINE
5
125
100
AcDbEntity
8
0
100
AcDbLine
10
-510
20
-77.575974020452634
30
0
11
-510
21
-115.00000000000001
31
0
0
LINE
5
126
100
AcDbEntity
8
0
100
AcDbLine
10
-510
20
-115.00000000000001
30
0
11
-10
21
-115.00000000000001
31
0
0
LINE
5
127
100
AcDbEntity
8
0
100
AcDbLine
10
-10
20
-115.00000000000001
30
0
11
-10.000000000000057
21
-77.575974020452577
31
0
0
ENDSEC
0
SECTION
2
OBJECTS
0
DICTIONARY
5
C
100
AcDbDictionary
3
ACAD_GROUP
350
D
3
ACAD_MLINESTYLE
350
17
0
DICTIONARY
5
D
100
AcDbDictionary
0
DICTIONARY
5
1A
330
C
100
AcDbDictionary
0
DICTIONARY
5
17
100
AcDbDictionary
0
ENDSEC
0
EOF
