0
SECTION
2
HEADER
9
$INSUNITS
70
4
9
$ACADVER
1
AC1014
9
$HANDSEED
5
FFFF
0
ENDSEC
0
SECTION
2
TABLES
0
TABLE
2
VPORT
5
8
100
AcDbSymbolTable
0
ENDTAB
0
TABLE
2
LTYPE
5
5
100
AcDbSymbolTable
0
LTYPE
5
14
100
AcDbSymbolTableRecord
100
AcDbLinetypeTableRecord
2
BYBLOCK
70
0
0
LTYPE
5
15
100
AcDbSymbolTableRecord
100
AcDbLinetypeTableRecord
2
BYLAYER
70
0
0
ENDTAB
0
TABLE
2
LAYER
5
2
100
AcDbSymbolTable
70
2
0
LAYER
5
50
100
AcDbSymbolTableRecord
100
AcDbLayerTableRecord
2
0
70
0
6
CONTINUOUS
0
ENDTAB
0
TABLE
2
STYLE
5
3
100
AcDbSymbolTable
70
1
0
STYLE
5
11
100
AcDbSymbolTableRecord
100
AcDbTextStyleTableRecord
2
STANDARD
70
0
0
ENDTAB
0
TABLE
2
VIEW
5
6
100
AcDbSymbolTable
70
0
0
ENDTAB
0
TABLE
2
UCS
5
7
100
AcDbSymbolTable
70
0
0
ENDTAB
0
TABLE
2
APPID
5
9
100
AcDbSymbolTable
70
2
0
APPID
5
12
100
AcDbSymbolTableRecord
100
AcDbRegAppTableRecord
2
ACAD
70
0
0
ENDTAB
0
TABLE
2
DIMSTYLE
5
A
100
AcDbSymbolTable
70
1
0
ENDTAB
0
TABLE
2
BLOCK_RECORD
5
1
100
AcDbSymbolTable
70
1
0
BLOCK_RECORD
5
1F
100
AcDbSymbolTableRecord
100
AcDbBlockTableRecord
2
*MODEL_SPACE
0
BLOCK_RECORD
5
1B
100
AcDbSymbolTableRecord
100
AcDbBlockTableRecord
2
*PAPER_SPACE
0
ENDTAB
0
ENDSEC
0
SECTION
2
BLOCKS
0
BLOCK
5
20
100
AcDbEntity
100
AcDbBlockBegin
2
*MODEL_SPACE
0
ENDBLK
5
21
100
AcDbEntity
100
AcDbBlockEnd
0
BLOCK
5
1C
100
AcDbEntity
100
AcDbBlockBegin
2
*PAPER_SPACE
0
ENDBLK
5
1D
100
AcDbEntity
100
AcDbBlockEnd
0
ENDSEC
0
SECTION
2
ENTITIES
0
ARC
5
100
100
AcDbEntity
8
0
100
AcDbCircle
10
-445.37867965643903
20
-122.87867965644027
30
0
40
3.0000000000000067
210
0
220
0
230
1
100
AcDbArc
50
135.00000000000307
51
315.0000000000021
0
LINE
5
101
100
AcDbEntity
8
0
100
AcDbLine
10
-447.49999999999881
20
-120.75735931288072
30
0
11
-447.49999999999881
21
-119.24264068711899
31
0
0
ARC
5
102
100
AcDbEntity
8
0
100
AcDbCircle
10
-445.37867965643903
20
-117.12132034355945
30
0
40
2.9999999999999813
210
0
220
-0
230
1
100
AcDbArc
50
44.99999999999482
51
224.99999999999693
0
LINE
5
103
100
AcDbEntity
8
0
100
AcDbLine
10
-443.2573593128792
20
-115
30
0
11
-368.40930735378487
21
-115
31
0
0
ARC
5
104
100
AcDbEntity
8
0
100
AcDbCircle
10
-366.28798701022504
20
-117.12132034355945
30
0
40
3.0000000000000067
210
-0
220
0
230
1
100
AcDbArc
50
-45.000000000001165
51
135.0000000000052
0
LINE
5
105
100
AcDbEntity
8
0
100
AcDbLine
10
-364.16666666666544
20
-119.24264068711913
30
0
11
-364.16666666666544
21
-120.75735931288058
31
0
0
ARC
5
106
100
AcDbEntity
8
0
100
AcDbCircle
10
-366.28798701022498
20
-122.87867965644027
30
0
40
3.000000000000032
210
0
220
0
230
1
100
AcDbArc
50
-134.99999999999827
51
45.000000000001918
0
LINE
5
107
100
AcDbEntity
8
0
100
AcDbLine
10
-368.40930735378458
20
-125
30
0
11
-443.25735931287932
21
-124.99999999999983
31
0
0
LWPOLYLINE
5
108
100
AcDbEntity
8
0
100
AcDbPolyline
90
8
70
1
43
0.0
10
-515.75735931288068
20
-41.666666666666714
42
-0.99999999999999989
10
-520
20
-37.424025979547352
10
-520.00000000000011
20
37.424025979547565
42
-0.99999999999999989
10
-515.75735931288068
20
41.66666666666665
10
-514.24264068711921
20
41.666666666666821
42
-0.99999999999999989
10
-510
20
37.424025979547459
10
-509.99999999999989
20
-37.424025979547544
42
-0.99999999999999989
10
-514.24264068711932
20
-41.666666666666671
0
LWPOLYLINE
5
109
100
AcDbEntity
8
0
100
AcDbPolyline
90
8
70
1
43
0.0
10
-151.5906926462138
20
-124.99999999999979
42
-0.99999999999999989
10
-155.83333333333329
20
-120.75735931288072
10
-155.83333333333337
20
-119.24264068711892
42
-0.99999999999999989
10
-151.59069264621371
20
-115
10
-76.742640687119192
20
-114.99999999999974
42
-0.99999999999999989
10
-72.499999999999986
20
-119.24264068711913
10
-72.500000000000057
20
-120.75735931288054
42
-0.99999999999999989
10
-76.742640687119149
20
-125
0
LWPOLYLINE
5
110
100
AcDbEntity
8
0
100
AcDbPolyline
90
8
70
1
43
0.0
10
-5.7573593128807943
20
-41.666666666666721
42
-0.99999999999999989
10
-10
20
-37.424025979547359
10
-10.00000000000011
20
37.424025979547537
42
-0.99999999999999989
10
-5.7573593128806788
20
41.666666666666679
10
-4.2426406871192102
20
41.666666666666828
42
-0.99999999999999989
10
0
20
37.424025979547466
10
1.251776460264864e-13
20
-37.424025979547551
42
-0.99999999999999989
10
-4.2426406871193301
20
-41.666666666666671
0
LWPOLYLINE
5
111
100
AcDbEntity
8
0
100
AcDbPolyline
90
4
70
1
43
0.0
10
-541
20
125
10
25
20
125
10
25
20
-150
10
-541
20
-150
0
ENDSEC
0
SECTION
2
OBJECTS
0
DICTIONARY
5
C
100
AcDbDictionary
3
ACAD_GROUP
350
D
3
ACAD_MLINESTYLE
350
17
0
DICTIONARY
5
D
100
AcDbDictionary
0
DICTIONARY
5
1A
330
C
100
AcDbDictionary
0
DICTIONARY
5
17
100
AcDbDictionary
0
ENDSEC
0
EOF
