0
SECTION
2
HEADER
9
$INSUNITS
70
4
9
$ACADVER
1
AC1014
9
$HANDSEED
5
FFFF
0
ENDSEC
0
SECTION
2
TABLES
0
TABLE
2
VPORT
5
8
100
AcDbSymbolTable
0
ENDTAB
0
TABLE
2
LTYPE
5
5
100
AcDbSymbolTable
0
LTYPE
5
14
100
AcDbSymbolTableRecord
100
AcDbLinetypeTableRecord
2
BYBLOCK
70
0
0
LTYPE
5
15
100
AcDbSymbolTableRecord
100
AcDbLinetypeTableRecord
2
BYLAYER
70
0
0
ENDTAB
0
TABLE
2
LAYER
5
2
100
AcDbSymbolTable
70
2
0
LAYER
5
50
100
AcDbSymbolTableRecord
100
AcDbLayerTableRecord
2
0
70
0
6
CONTINUOUS
0
ENDTAB
0
TABLE
2
STYLE
5
3
100
AcDbSymbolTable
70
1
0
STYLE
5
11
100
AcDbSymbolTableRecord
100
AcDbTextStyleTableRecord
2
STANDARD
70
0
0
ENDTAB
0
TABLE
2
VIEW
5
6
100
AcDbSymbolTable
70
0
0
ENDTAB
0
TABLE
2
UCS
5
7
100
AcDbSymbolTable
70
0
0
ENDTAB
0
TABLE
2
APPID
5
9
100
AcDbSymbolTable
70
2
0
APPID
5
12
100
AcDbSymbolTableRecord
100
AcDbRegAppTableRecord
2
ACAD
70
0
0
ENDTAB
0
TABLE
2
DIMSTYLE
5
A
100
AcDbSymbolTable
70
1
0
ENDTAB
0
TABLE
2
BLOCK_RECORD
5
1
100
AcDbSymbolTable
70
1
0
BLOCK_RECORD
5
1F
100
AcDbSymbolTableRecord
100
AcDbBlockTableRecord
2
*MODEL_SPACE
0
BLOCK_RECORD
5
1B
100
AcDbSymbolTableRecord
100
AcDbBlockTableRecord
2
*PAPER_SPACE
0
ENDTAB
0
ENDSEC
0
SECTION
2
BLOCKS
0
BLOCK
5
20
100
AcDbEntity
100
AcDbBlockBegin
2
*MODEL_SPACE
0
ENDBLK
5
21
100
AcDbEntity
100
AcDbBlockEnd
0
BLOCK
5
1C
100
AcDbEntity
100
AcDbBlockBegin
2
*PAPER_SPACE
0
ENDBLK
5
1D
100
AcDbEntity
100
AcDbBlockEnd
0
ENDSEC
0
SECTION
2
ENTITIES
0
LWPOLYLINE
5
100
100
AcDbEntity
8
0
100
AcDbPolyline
90
8
70
1
43
0.0
10
-520.00000000000011
20
-154.24264068711923
42
-0.99999999999999989
10
-515.75735931288068
20
-150.00000000000003
10
-514.24264068711921
20
-149.99999999999991
42
-0.99999999999999989
10
-510
20
-154.24264068711929
10
-509.99999999999994
20
-208.25735931288077
42
-0.99999999999999989
10
-514.24264068711932
20
-212.49999999999997
10
-515.75735931288079
20
-212.50000000000006
42
-0.99999999999999989
10
-520
20
-208.25735931288065
0
ARC
5
101
100
AcDbEntity
8
0
100
AcDbCircle
10
-153.71201298977365
20
-117.12132034355963
30
0
40
2.9999999999999813
210
0
220
-0
230
1
100
AcDbArc
50
45.000000000000384
51
225.00000000000023
0
LINE
5
102
100
AcDbEntity
8
0
100
AcDbLine
10
-151.59069264621405
20
-115
30
0
11
-76.742640687119248
21
-115
31
0
0
ARC
5
103
100
AcDbEntity
8
0
100
AcDbCircle
10
-74.621320343559617
20
-117.12132034355966
30
0
40
2.9999999999999938
210
-0
220
0
230
1
100
AcDbArc
50
-45.000000000000355
51
134.9999999999996
0
LINE
5
104
100
AcDbEntity
8
0
100
AcDbLine
10
-72.499999999999986
20
-119.24264068711932
30
0
11
-72.5
21
-120.75735931288068
31
0
0
ARC
5
105
100
AcDbEntity
8
0
100
AcDbCircle
10
-74.621320343559617
20
-122.87867965644034
30
0
40
3.0000000000000067
210
0
220
0
230
1
100
AcDbArc
50
-134.9999999999996
51
45.000000000000568
0
LINE
5
106
100
AcDbEntity
8
0
100
AcDbLine
10
-76.742640687119248
20
-125
30
0
11
-151.59069264621405
21
-125
31
0
0
ARC
5
107
100
AcDbEntity
8
0
100
AcDbCircle
10
-153.71201298977368
20
-122.87867965644034
30
0
40
2.9999999999999813
210
0
220
0
230
1
100
AcDbArc
50
134.99999999999923
51
314.99999999999966
0
LINE
5
108
100
AcDbEntity
8
0
100
AcDbLine
10
-155.83333333333329
20
-120.75735931288068
30
0
11
-155.83333333333329
21
-119.24264068711928
31
0
0
ARC
5
109
100
AcDbEntity
8
0
100
AcDbCircle
10
-7.8786796564403927
20
110.37867965644034
30
0
40
3.0000000000000098
210
0
220
-0
230
1
100
AcDbArc
50
45.000000000000227
51
225.00000000000023
0
LINE
5
110
100
AcDbEntity
8
0
100
AcDbLine
10
-5.7573593128807499
20
112.5
30
0
11
-4.2426406871192492
21
112.5
31
0
0
ARC
5
111
100
AcDbEntity
8
0
100
AcDbCircle
10
-2.1213203435596069
20
110.37867965644034
30
0
40
2.9999999999999871
210
-0
220
0
230
1
100
AcDbArc
50
-45.000000000000661
51
134.99999999999977
0
LINE
5
112
100
AcDbEntity
8
0
100
AcDbLine
10
3.8857805861880479e-15
20
108.25735931288068
30
0
11
0
21
54.242640687119319
31
0
0
ARC
5
113
100
AcDbEntity
8
0
100
AcDbCircle
10
-2.1213203435596055
20
52.121320343559638
30
0
40
2.9999999999999978
210
0
220
0
230
1
100
AcDbArc
50
-134.99999999999966
51
45.000000000001023
0
LINE
5
114
100
AcDbEntity
8
0
100
AcDbLine
10
-4.2426406871192315
20
49.999999999999986
30
0
11
-5.7573593128807676
21
49.999999999999986
31
0
0
ARC
5
115
100
AcDbEntity
8
0
100
AcDbCircle
10
-7.8786796564403954
20
52.121320343559638
30
0
40
3.0000000000000018
210
0
220
0
230
1
100
AcDbArc
50
134.99999999999898
51
314.99999999999966
0
LINE
5
116
100
AcDbEntity
8
0
100
AcDbLine
10
-10
20
54.242640687119319
30
0
11
-10.000000000000036
21
108.25735931288068
31
0
0
LWPOLYLINE
5
117
100
AcDbEntity
8
0
100
AcDbPolyline
90
4
70
1
43
0.0
10
25
20
-275
10
-545
20
-275.00000000000006
10
-545
20
125.00000000000007
10
25
20
125.00000000000007
0
ARC
5
118
100
AcDbEntity
8
0
100
AcDbCircle
10
-7.8786796564403918
20
-152.12132034355963
30
0
40
2.9999999999999982
210
0
220
-0
230
1
100
AcDbArc
50
45.000000000000696
51
225.00000000000108
0
LINE
5
119
100
AcDbEntity
8
0
100
AcDbLine
10
-5.7573593128807836
20
-149.99999999999997
30
0
11
-4.2426406871192306
21
-149.99999999999997
31
0
0
ARC
5
120
100
AcDbEntity
8
0
100
AcDbCircle
10
-2.121320343559602
20
-152.1213203435596
30
0
40
3.000000000000008
210
-0
220
0
230
1
100
AcDbArc
50
-45.000000000001123
51
134.99999999999997
0
LINE
5
121
100
AcDbEntity
8
0
100
AcDbLine
10
3.3306690738754696e-15
20
-154.24264068711929
30
0
11
0
21
-208.25735931288062
31
0
0
ARC
5
122
100
AcDbEntity
8
0
100
AcDbCircle
10
-2.1213203435595993
20
-210.37867965644028
30
0
40
3.0000000000000036
210
0
220
0
230
1
100
AcDbArc
50
-134.99999999999818
51
45.000000000000817
0
LINE
5
123
100
AcDbEntity
8
0
100
AcDbLine
10
-4.24264068711918
20
-212.5
30
0
11
-5.7573593128808209
21
-212.5
31
0
0
ARC
5
124
100
AcDbEntity
8
0
100
AcDbCircle
10
-7.8786796564404042
20
-210.37867965644028
30
0
40
2.9999999999999929
210
0
220
0
230
1
100
AcDbArc
50
134.99999999999918
51
314.99999999999818
0
LINE
5
125
100
AcDbEntity
8
0
100
AcDbLine
10
-10.000000000000004
20
-208.25735931288062
30
0
11
-10
21
-154.24264068711932
31
0
0
LWPOLYLINE
5
126
100
AcDbEntity
8
0
100
AcDbPolyline
90
8
70
1
43
0.0
10
-447.49999999999909
20
-119.24264068711922
42
-0.99999999999999989
10
-443.25735931287971
20
-115.00000000000001
10
-368.40930735378464
20
-114.99999999999999
42
-0.99999999999999989
10
-364.16666666666544
20
-119.24264068711929
10
-364.16666666666538
20
-120.75735931288078
42
-0.99999999999999989
10
-368.4093073537847
20
-124.99999999999999
10
-443.25735931287977
20
-125.00000000000001
42
-0.99999999999999989
10
-447.49999999999898
20
-120.75735931288071
0
LWPOLYLINE
5
127
100
AcDbEntity
8
0
100
AcDbPolyline
90
8
70
1
43
0.0
10
-520.00000000000011
20
108.25735931288074
42
-0.99999999999999989
10
-515.75735931288068
20
112.49999999999999
10
-514.24264068711921
20
112.50000000000007
42
-0.99999999999999989
10
-510
20
108.25735931288068
10
-510.00000000000011
20
54.242640687119291
42
-0.99999999999999989
10
-514.24264068711921
20
49.999999999999943
10
-515.75735931288079
20
49.999999999999936
42
-0.99999999999999989
10
-520
20
54.242640687119305
0
ENDSEC
0
SECTION
2
OBJECTS
0
DICTIONARY
5
C
100
AcDbDictionary
3
ACAD_GROUP
350
D
3
ACAD_MLINESTYLE
350
17
0
DICTIONARY
5
D
100
AcDbDictionary
0
DICTIONARY
5
1A
330
C
100
AcDbDictionary
0
DICTIONARY
5
17
100
AcDbDictionary
0
ENDSEC
0
EOF
