0
SECTION
2
HEADER
9
$INSUNITS
70
4
9
$ACADVER
1
AC1014
9
$HANDSEED
5
FFFF
0
ENDSEC
0
SECTION
2
TABLES
0
TABLE
2
VPORT
5
8
100
AcDbSymbolTable
0
ENDTAB
0
TABLE
2
LTYPE
5
5
100
AcDbSymbolTable
0
LTYPE
5
14
100
AcDbSymbolTableRecord
100
AcDbLinetypeTableRecord
2
BYBLOCK
70
0
0
LTYPE
5
15
100
AcDbSymbolTableRecord
100
AcDbLinetypeTableRecord
2
BYLAYER
70
0
0
ENDTAB
0
TABLE
2
LAYER
5
2
100
AcDbSymbolTable
70
2
0
LAYER
5
50
100
AcDbSymbolTableRecord
100
AcDbLayerTableRecord
2
0
70
0
6
CONTINUOUS
0
ENDTAB
0
TABLE
2
STYLE
5
3
100
AcDbSymbolTable
70
1
0
STYLE
5
11
100
AcDbSymbolTableRecord
100
AcDbTextStyleTableRecord
2
STANDARD
70
0
0
ENDTAB
0
TABLE
2
VIEW
5
6
100
AcDbSymbolTable
70
0
0
ENDTAB
0
TABLE
2
UCS
5
7
100
AcDbSymbolTable
70
0
0
ENDTAB
0
TABLE
2
APPID
5
9
100
AcDbSymbolTable
70
2
0
APPID
5
12
100
AcDbSymbolTableRecord
100
AcDbRegAppTableRecord
2
ACAD
70
0
0
ENDTAB
0
TABLE
2
DIMSTYLE
5
A
100
AcDbSymbolTable
70
1
0
ENDTAB
0
TABLE
2
BLOCK_RECORD
5
1
100
AcDbSymbolTable
70
1
0
BLOCK_RECORD
5
1F
100
AcDbSymbolTableRecord
100
AcDbBlockTableRecord
2
*MODEL_SPACE
0
BLOCK_RECORD
5
1B
100
AcDbSymbolTableRecord
100
AcDbBlockTableRecord
2
*PAPER_SPACE
0
ENDTAB
0
ENDSEC
0
SECTION
2
BLOCKS
0
BLOCK
5
20
100
AcDbEntity
100
AcDbBlockBegin
2
*MODEL_SPACE
0
ENDBLK
5
21
100
AcDbEntity
100
AcDbBlockEnd
0
BLOCK
5
1C
100
AcDbEntity
100
AcDbBlockBegin
2
*PAPER_SPACE
0
ENDBLK
5
1D
100
AcDbEntity
100
AcDbBlockEnd
0
ENDSEC
0
SECTION
2
ENTITIES
0
ARC
5
100
100
AcDbEntity
8
0
100
AcDbCircle
10
449.62132034355875
20
902.12132034355955
30
0
40
2.9999999999999942
210
0
220
0
230
1
100
AcDbArc
50
135.00000000000387
51
315.0000000000054
0
LINE
5
101
100
AcDbEntity
8
0
100
AcDbLine
10
447.49999999999892
20
904.24264068711909
30
0
11
447.49999999999881
21
910
31
0
0
LINE
5
102
100
AcDbEntity
8
0
100
AcDbLine
10
447.49999999999881
20
910
30
0
11
364.16666666666544
21
910
31
0
0
LINE
5
103
100
AcDbEntity
8
0
100
AcDbLine
10
364.16666666666544
20
910
30
0
11
364.16666666666544
21
904.24264068711875
31
0
0
ARC
5
104
100
AcDbEntity
8
0
100
AcDbCircle
10
362.04534632310526
20
902.12132034355977
30
0
40
3.0000000000001448
210
0
220
0
230
1
100
AcDbArc
50
-135
51
44.999999999983871
0
LINE
5
105
100
AcDbEntity
8
0
100
AcDbLine
10
359.92402597954549
20
900
30
0
11
160.07597402045241
21
900
31
0
0
ARC
5
106
100
AcDbEntity
8
0
100
AcDbCircle
10
157.95465367689272
20
902.12132034355955
30
0
40
2.9999999999999938
210
0
220
0
230
1
100
AcDbArc
50
134.99999999999196
51
315.00000000000193
0
LINE
5
107
100
AcDbEntity
8
0
100
AcDbLine
10
155.83333333333331
20
904.24264068711955
30
0
11
155.83333333333329
21
910
31
0
0
LINE
5
108
100
AcDbEntity
8
0
100
AcDbLine
10
155.83333333333329
20
910
30
0
11
72.5
21
910
31
0
0
LINE
5
109
100
AcDbEntity
8
0
100
AcDbLine
10
72.5
20
910
30
0
11
72.5
21
904.24264068711932
31
0
0
ARC
5
110
100
AcDbEntity
8
0
100
AcDbCircle
10
70.378679656440397
20
902.12132034355955
30
0
40
2.9999999999999938
210
0
220
0
230
1
100
AcDbArc
50
-135.00000000000173
51
45.000000000002302
0
LINE
5
111
100
AcDbEntity
8
0
100
AcDbLine
10
68.257359312880723
20
900
30
0
11
10
21
900
31
0
0
LINE
5
112
100
AcDbEntity
8
0
100
AcDbLine
10
10
20
900
30
0
11
10
21
0
31
0
0
LINE
5
113
100
AcDbEntity
8
0
100
AcDbLine
10
10
20
0
30
0
11
68.25735931288078
21
0
31
0
0
ARC
5
114
100
AcDbEntity
8
0
100
AcDbCircle
10
70.378679656440397
20
-2.1213203435596761
30
0
40
2.9999999999999987
210
-0
220
0
230
1
100
AcDbArc
50
-45.000000000001066
51
134.9999999999992
0
LINE
5
115
100
AcDbEntity
8
0
100
AcDbLine
10
72.5
20
-4.2426406871193567
30
0
11
72.5
21
-10
31
0
0
LINE
5
116
100
AcDbEntity
8
0
100
AcDbLine
10
72.5
20
-10
30
0
11
155.83333333333329
21
-10
31
0
0
LINE
5
117
100
AcDbEntity
8
0
100
AcDbLine
10
155.83333333333329
20
-10
30
0
11
155.83333333333329
21
-4.2426406871194988
31
0
0
ARC
5
118
100
AcDbEntity
8
0
100
AcDbCircle
10
157.95465367689275
20
-2.1213203435596775
30
0
40
3
210
0
220
-0
230
1
100
AcDbArc
50
45.00000000000108
51
225.00000000000483
0
LINE
5
119
100
AcDbEntity
8
0
100
AcDbLine
10
160.07597402045235
20
4.9960036108132044e-15
30
0
11
359.92402597954566
21
0
31
0
0
ARC
5
120
100
AcDbEntity
8
0
100
AcDbCircle
10
362.04534632310521
20
-2.1213203435596788
30
0
40
3.000000000000048
210
0
220
0
230
1
100
AcDbArc
50
-44.999999999984887
51
134.99999999999821
0
LINE
5
121
100
AcDbEntity
8
0
100
AcDbLine
10
364.16666666666544
20
-4.2426406871187901
30
0
11
364.16666666666544
21
-10
31
0
0
LINE
5
122
100
AcDbEntity
8
0
100
AcDbLine
10
364.16666666666544
20
-10
30
0
11
447.49999999999881
21
-10
31
0
0
LINE
5
123
100
AcDbEntity
8
0
100
AcDbLine
10
447.49999999999881
20
-10
30
0
11
447.49999999999892
21
-4.2426406871191471
31
0
0
ARC
5
124
100
AcDbEntity
8
0
100
AcDbCircle
10
449.62132034355875
20
-2.1213203435596615
30
0
40
2.9999999999999889
210
0
220
-0
230
1
100
AcDbArc
50
45.00000000000086
51
224.99999999999534
0
LINE
5
125
100
AcDbEntity
8
0
100
AcDbLine
10
451.74264068711835
20
5.2735593669694936e-15
30
0
11
510
21
0
31
0
0
LINE
5
126
100
AcDbEntity
8
0
100
AcDbLine
10
510
20
0
30
0
11
510
21
900
31
0
0
LINE
5
127
100
AcDbEntity
8
0
100
AcDbLine
10
510
20
900
30
0
11
451.74264068711858
21
900.00000000000011
31
0
0
ENDSEC
0
SECTION
2
OBJECTS
0
DICTIONARY
5
C
100
AcDbDictionary
3
ACAD_GROUP
350
D
3
ACAD_MLINESTYLE
350
17
0
DICTIONARY
5
D
100
AcDbDictionary
0
DICTIONARY
5
1A
330
C
100
AcDbDictionary
0
DICTIONARY
5
17
100
AcDbDictionary
0
ENDSEC
0
EOF
