  0
SECTION
  2
HEADER
  9
$ACADVER
  1
AC1009
  9
$EXTMIN
 10
0.0
 20
0.0
 30
0.0
  9
$EXTMAX
 10
1000.0
 20
1000.0
 30
0.0
  9
$FILLMODE
 70
 0
  9
$SPLFRAME
 70
 1
  0
ENDSEC
  0
SECTION
  2
TABLES
  0
TABLE
  2
LAYER
 70
1
  0
LAYER
  2
0
 70
     0
 62
     7
  6
CONTINUOUS
  0
ENDTAB
  0
ENDSEC
  0
SECTION
  2
ENTITIES
  0
POLYLINE
  8
0
 62
     0
 66
     1
 10
0
 20
0
 30
0.0
 70
     1
 40
72
 41
72
  0
VERTEX
  8
0
 10
20.4
 20
122.18
 30
0.0
 40
1
 41
1
  0
VERTEX
  8
0
 10
0.5
 20
122.18
 30
0.0
 40
1
 41
1
  0
VERTEX
  8
0
 10
0.5
 20
139.781
 30
0.0
 40
1
 41
1
  0
VERTEX
  8
0
 10
34.05
 20
139.781
 30
0.0
 40
1
 41
1
  0
VERTEX
  8
0
 10
34.05
 20
124.88
 30
0.0
 40
1
 41
1
  0
VERTEX
  8
0
 10
36.95
 20
124.88
 30
0.0
 40
1
 41
1
  0
VERTEX
  8
0
 10
36.95
 20
139.781
 30
0.0
 40
1
 41
1
  0
VERTEX
  8
0
 10
70.5
 20
139.781
 30
0.0
 40
1
 41
1
  0
VERTEX
  8
0
 10
70.5
 20
121.094
 30
0.0
 40
1
 41
1
  0
VERTEX
  8
0
 10
50.6
 20
121.094
 30
0.0
 40
1
 41
1
  0
VERTEX
  8
0
 10
50.6
 20
118.194
 30
0.0
 40
1
 41
1
  0
VERTEX
  8
0
 10
70.5
 20
118.194
 30
0.0
 40
1
 41
1
  0
VERTEX
  8
0
 10
70.5
 20
99.78
 30
0.0
 40
1
 41
1
  0
VERTEX
  8
0
 10
36.95
 20
99.78
 30
0.0
 40
1
 41
1
  0
VERTEX
  8
0
 10
36.95
 20
114.68
 30
0.0
 40
1
 41
1
  0
VERTEX
  8
0
 10
34.05
 20
114.68
 30
0.0
 40
1
 41
1
  0
VERTEX
  8
0
 10
34.05
 20
99.78
 30
0.0
 40
1
 41
1
  0
VERTEX
  8
0
 10
0.5
 20
99.78
 30
0.0
 40
1
 41
1
  0
VERTEX
  8
0
 10
0.5
 20
119.28
 30
0.0
 40
1
 41
1
  0
VERTEX
  8
0
 10
20.4
 20
119.28
 30
0.0
 40
1
 41
1
  0
VERTEX
  8
0
 10
20.4
 20
122.18
 30
0.0
 40
1
 41
1
  0
SEQEND
 8
0
  0
POLYLINE
  8
0
 62
     0
 66
     1
 10
0
 20
0
 30
0.0
 70
     1
 40
72
 41
72
  0
VERTEX
  8
0
 10
50.6
 20
76.6674
 30
0.0
 40
1
 41
1
  0
VERTEX
  8
0
 10
70.5
 20
76.6674
 30
0.0
 40
1
 41
1
  0
VERTEX
  8
0
 10
70.5
 20
59.0674
 30
0.0
 40
1
 41
1
  0
VERTEX
  8
0
 10
36.95
 20
59.0674
 30
0.0
 40
1
 41
1
  0
VERTEX
  8
0
 10
36.95
 20
73.9674
 30
0.0
 40
1
 41
1
  0
VERTEX
  8
0
 10
34.05
 20
73.9674
 30
0.0
 40
1
 41
1
  0
VERTEX
  8
0
 10
34.05
 20
59.0674
 30
0.0
 40
1
 41
1
  0
VERTEX
  8
0
 10
0.5
 20
59.0674
 30
0.0
 40
1
 41
1
  0
VERTEX
  8
0
 10
0.5
 20
77.7531
 30
0.0
 40
1
 41
1
  0
VERTEX
  8
0
 10
20.4
 20
77.7531
 30
0.0
 40
1
 41
1
  0
VERTEX
  8
0
 10
20.4
 20
80.6531
 30
0.0
 40
1
 41
1
  0
VERTEX
  8
0
 10
0.5
 20
80.6531
 30
0.0
 40
1
 41
1
  0
VERTEX
  8
0
 10
0.5
 20
99.0674
 30
0.0
 40
1
 41
1
  0
VERTEX
  8
0
 10
34.05
 20
99.0674
 30
0.0
 40
1
 41
1
  0
VERTEX
  8
0
 10
34.05
 20
84.1674
 30
0.0
 40
1
 41
1
  0
VERTEX
  8
0
 10
36.95
 20
84.1674
 30
0.0
 40
1
 41
1
  0
VERTEX
  8
0
 10
36.95
 20
99.0674
 30
0.0
 40
1
 41
1
  0
VERTEX
  8
0
 10
70.5
 20
99.0674
 30
0.0
 40
1
 41
1
  0
VERTEX
  8
0
 10
70.5
 20
79.5674
 30
0.0
 40
1
 41
1
  0
VERTEX
  8
0
 10
50.6
 20
79.5674
 30
0.0
 40
1
 41
1
  0
VERTEX
  8
0
 10
50.6
 20
76.6674
 30
0.0
 40
1
 41
1
  0
SEQEND
 8
0
  0
POLYLINE
  8
0
 62
     0
 66
     1
 10
0
 20
0
 30
0.0
 70
     1
 40
72
 41
72
  0
VERTEX
  8
0
 10
20.4
 20
40.7547
 30
0.0
 40
1
 41
1
  0
VERTEX
  8
0
 10
0.5
 20
40.7547
 30
0.0
 40
1
 41
1
  0
VERTEX
  8
0
 10
0.5
 20
58.3547
 30
0.0
 40
1
 41
1
  0
VERTEX
  8
0
 10
34.05
 20
58.3547
 30
0.0
 40
1
 41
1
  0
VERTEX
  8
0
 10
34.05
 20
43.4546
 30
0.0
 40
1
 41
1
  0
VERTEX
  8
0
 10
36.95
 20
43.4546
 30
0.0
 40
1
 41
1
  0
VERTEX
  8
0
 10
36.95
 20
58.3547
 30
0.0
 40
1
 41
1
  0
VERTEX
  8
0
 10
70.5
 20
58.3547
 30
0.0
 40
1
 41
1
  0
VERTEX
  8
0
 10
70.5
 20
39.6689
 30
0.0
 40
1
 41
1
  0
VERTEX
  8
0
 10
50.6
 20
39.6689
 30
0.0
 40
1
 41
1
  0
VERTEX
  8
0
 10
50.6
 20
36.7689
 30
0.0
 40
1
 41
1
  0
VERTEX
  8
0
 10
70.5
 20
36.7689
 30
0.0
 40
1
 41
1
  0
VERTEX
  8
0
 10
70.5
 20
18.3547
 30
0.0
 40
1
 41
1
  0
VERTEX
  8
0
 10
36.95
 20
18.3547
 30
0.0
 40
1
 41
1
  0
VERTEX
  8
0
 10
36.95
 20
33.2547
 30
0.0
 40
1
 41
1
  0
VERTEX
  8
0
 10
34.05
 20
33.2547
 30
0.0
 40
1
 41
1
  0
VERTEX
  8
0
 10
34.05
 20
18.3547
 30
0.0
 40
1
 41
1
  0
VERTEX
  8
0
 10
0.5
 20
18.3547
 30
0.0
 40
1
 41
1
  0
VERTEX
  8
0
 10
0.5
 20
37.8547
 30
0.0
 40
1
 41
1
  0
VERTEX
  8
0
 10
20.4
 20
37.8547
 30
0.0
 40
1
 41
1
  0
VERTEX
  8
0
 10
20.4
 20
40.7547
 30
0.0
 40
1
 41
1
  0
SEQEND
 8
0
  0
POLYLINE
  8
0
 62
     0
 66
     1
 10
0
 20
0
 30
0.0
 70
     1
 40
72
 41
72
  0
VERTEX
  8
0
 10
89.2769
 20
74.8038
 30
0.0
 40
1
 41
1
  0
VERTEX
  8
0
 10
89.2769
 20
54.9038
 30
0.0
 40
1
 41
1
  0
VERTEX
  8
0
 10
71.6769
 20
54.9038
 30
0.0
 40
1
 41
1
  0
VERTEX
  8
0
 10
71.6769
 20
88.4536
 30
0.0
 40
1
 41
1
  0
VERTEX
  8
0
 10
86.5769
 20
88.4536
 30
0.0
 40
1
 41
1
  0
VERTEX
  8
0
 10
86.5769
 20
91.3536
 30
0.0
 40
1
 41
1
  0
VERTEX
  8
0
 10
71.6769
 20
91.3536
 30
0.0
 40
1
 41
1
  0
VERTEX
  8
0
 10
71.6769
 20
124.904
 30
0.0
 40
1
 41
1
  0
VERTEX
  8
0
 10
90.3626
 20
124.904
 30
0.0
 40
1
 41
1
  0
VERTEX
  8
0
 10
90.3626
 20
105.004
 30
0.0
 40
1
 41
1
  0
VERTEX
  8
0
 10
93.2626
 20
105.004
 30
0.0
 40
1
 41
1
  0
VERTEX
  8
0
 10
93.2626
 20
124.904
 30
0.0
 40
1
 41
1
  0
VERTEX
  8
0
 10
111.677
 20
124.904
 30
0.0
 40
1
 41
1
  0
VERTEX
  8
0
 10
111.677
 20
91.3536
 30
0.0
 40
1
 41
1
  0
VERTEX
  8
0
 10
96.7769
 20
91.3536
 30
0.0
 40
1
 41
1
  0
VERTEX
  8
0
 10
96.7769
 20
88.4536
 30
0.0
 40
1
 41
1
  0
VERTEX
  8
0
 10
111.677
 20
88.4536
 30
0.0
 40
1
 41
1
  0
VERTEX
  8
0
 10
111.677
 20
54.9038
 30
0.0
 40
1
 41
1
  0
VERTEX
  8
0
 10
92.1769
 20
54.9038
 30
0.0
 40
1
 41
1
  0
VERTEX
  8
0
 10
92.1769
 20
74.8038
 30
0.0
 40
1
 41
1
  0
VERTEX
  8
0
 10
89.2769
 20
74.8038
 30
0.0
 40
1
 41
1
  0
SEQEND
 8
0
  0
POLYLINE
  8
0
 62
     0
 66
     1
 10
0
 20
0
 30
0.0
 70
     1
 40
72
 41
72
  0
VERTEX
  8
0
 10
91.0261
 20
36.1635
 30
0.0
 40
1
 41
1
  0
VERTEX
  8
0
 10
71.1261
 20
36.1635
 30
0.0
 40
1
 41
1
  0
VERTEX
  8
0
 10
71.1261
 20
53.7635
 30
0.0
 40
1
 41
1
  0
VERTEX
  8
0
 10
104.676
 20
53.7635
 30
0.0
 40
1
 41
1
  0
VERTEX
  8
0
 10
104.676
 20
38.8635
 30
0.0
 40
1
 41
1
  0
VERTEX
  8
0
 10
107.576
 20
38.8635
 30
0.0
 40
1
 41
1
  0
VERTEX
  8
0
 10
107.576
 20
53.7635
 30
0.0
 40
1
 41
1
  0
VERTEX
  8
0
 10
141.126
 20
53.7635
 30
0.0
 40
1
 41
1
  0
VERTEX
  8
0
 10
141.126
 20
35.0778
 30
0.0
 40
1
 41
1
  0
VERTEX
  8
0
 10
121.226
 20
35.0778
 30
0.0
 40
1
 41
1
  0
VERTEX
  8
0
 10
121.226
 20
32.1778
 30
0.0
 40
1
 41
1
  0
VERTEX
  8
0
 10
141.126
 20
32.1778
 30
0.0
 40
1
 41
1
  0
VERTEX
  8
0
 10
141.126
 20
13.7635
 30
0.0
 40
1
 41
1
  0
VERTEX
  8
0
 10
107.576
 20
13.7635
 30
0.0
 40
1
 41
1
  0
VERTEX
  8
0
 10
107.576
 20
28.6635
 30
0.0
 40
1
 41
1
  0
VERTEX
  8
0
 10
104.676
 20
28.6635
 30
0.0
 40
1
 41
1
  0
VERTEX
  8
0
 10
104.676
 20
13.7635
 30
0.0
 40
1
 41
1
  0
VERTEX
  8
0
 10
71.1261
 20
13.7635
 30
0.0
 40
1
 41
1
  0
VERTEX
  8
0
 10
71.1261
 20
33.2635
 30
0.0
 40
1
 41
1
  0
VERTEX
  8
0
 10
91.0261
 20
33.2635
 30
0.0
 40
1
 41
1
  0
VERTEX
  8
0
 10
91.0261
 20
36.1635
 30
0.0
 40
1
 41
1
  0
SEQEND
 8
0
  0
POLYLINE
  8
0
 62
     0
 66
     1
 10
0
 20
0
 30
0.0
 70
     1
 40
72
 41
72
  0
VERTEX
  8
0
 10
132.56
 20
122.18
 30
0.0
 40
1
 41
1
  0
VERTEX
  8
0
 10
112.66
 20
122.18
 30
0.0
 40
1
 41
1
  0
VERTEX
  8
0
 10
112.66
 20
139.781
 30
0.0
 40
1
 41
1
  0
VERTEX
  8
0
 10
146.21
 20
139.781
 30
0.0
 40
1
 41
1
  0
VERTEX
  8
0
 10
146.21
 20
124.88
 30
0.0
 40
1
 41
1
  0
VERTEX
  8
0
 10
149.11
 20
124.88
 30
0.0
 40
1
 41
1
  0
VERTEX
  8
0
 10
149.11
 20
139.781
 30
0.0
 40
1
 41
1
  0
VERTEX
  8
0
 10
182.66
 20
139.781
 30
0.0
 40
1
 41
1
  0
VERTEX
  8
0
 10
182.66
 20
121.094
 30
0.0
 40
1
 41
1
  0
VERTEX
  8
0
 10
162.76
 20
121.094
 30
0.0
 40
1
 41
1
  0
VERTEX
  8
0
 10
162.76
 20
118.194
 30
0.0
 40
1
 41
1
  0
VERTEX
  8
0
 10
182.66
 20
118.194
 30
0.0
 40
1
 41
1
  0
VERTEX
  8
0
 10
182.66
 20
99.78
 30
0.0
 40
1
 41
1
  0
VERTEX
  8
0
 10
149.11
 20
99.78
 30
0.0
 40
1
 41
1
  0
VERTEX
  8
0
 10
149.11
 20
114.68
 30
0.0
 40
1
 41
1
  0
VERTEX
  8
0
 10
146.21
 20
114.68
 30
0.0
 40
1
 41
1
  0
VERTEX
  8
0
 10
146.21
 20
99.78
 30
0.0
 40
1
 41
1
  0
VERTEX
  8
0
 10
112.66
 20
99.78
 30
0.0
 40
1
 41
1
  0
VERTEX
  8
0
 10
112.66
 20
119.28
 30
0.0
 40
1
 41
1
  0
VERTEX
  8
0
 10
132.56
 20
119.28
 30
0.0
 40
1
 41
1
  0
VERTEX
  8
0
 10
132.56
 20
122.18
 30
0.0
 40
1
 41
1
  0
SEQEND
 8
0
  0
POLYLINE
  8
0
 62
     0
 66
     1
 10
0
 20
0
 30
0.0
 70
     1
 40
72
 41
72
  0
VERTEX
  8
0
 10
211.846
 20
49.3644
 30
0.0
 40
1
 41
1
  0
VERTEX
  8
0
 10
211.846
 20
29.3644
 30
0.0
 40
1
 41
1
  0
VERTEX
  8
0
 10
141.846
 20
29.3644
 30
0.0
 40
1
 41
1
  0
VERTEX
  8
0
 10
141.846
 20
99.3644
 30
0.0
 40
1
 41
1
  0
VERTEX
  8
0
 10
161.846
 20
99.3644
 30
0.0
 40
1
 41
1
  0
VERTEX
  8
0
 10
161.846
 20
84.3644
 30
0.0
 40
1
 41
1
  0
VERTEX
  8
0
 10
146.946
 20
84.3644
 30
0.0
 40
1
 41
1
  0
VERTEX
  8
0
 10
146.946
 20
81.4644
 30
0.0
 40
1
 41
1
  0
VERTEX
  8
0
 10
161.846
 20
81.4644
 30
0.0
 40
1
 41
1
  0
VERTEX
  8
0
 10
161.846
 20
49.3644
 30
0.0
 40
1
 41
1
  0
VERTEX
  8
0
 10
193.946
 20
49.3644
 30
0.0
 40
1
 41
1
  0
VERTEX
  8
0
 10
193.946
 20
34.4644
 30
0.0
 40
1
 41
1
  0
VERTEX
  8
0
 10
196.846
 20
34.4644
 30
0.0
 40
1
 41
1
  0
VERTEX
  8
0
 10
196.846
 20
49.3644
 30
0.0
 40
1
 41
1
  0
VERTEX
  8
0
 10
211.846
 20
49.3644
 30
0.0
 40
1
 41
1
  0
SEQEND
 8
0
  0
POLYLINE
  8
0
 62
     0
 66
     1
 10
0
 20
0
 30
0.0
 40
72
 41
72
  0
VERTEX
  8
0
 10
232.268
 20
70.5
 30
0.0
 40
1
 41
1
  0
VERTEX
  8
0
 10
232.268
 20
140.5
 30
0.0
 40
1
 41
1
  0
VERTEX
  8
0
 10
212.268
 20
140.5
 30
0.0
 40
1
 41
1
  0
VERTEX
  8
0
 10
212.268
 20
125.5
 30
0.0
 40
1
 41
1
  0
VERTEX
  8
0
 10
227.168
 20
125.5
 30
0.0
 40
1
 41
1
  0
VERTEX
  8
0
 10
227.168
 20
122.6
 30
0.0
 40
1
 41
1
  0
VERTEX
  8
0
 10
212.268
 20
122.6
 30
0.0
 40
1
 41
1
  0
VERTEX
  8
0
 10
212.268
 20
90.5
 30
0.0
 40
1
 41
1
  0
VERTEX
  8
0
 10
180.168
 20
90.5
 30
0.0
 40
1
 41
1
  0
VERTEX
  8
0
 10
180.168
 20
75.6
 30
0.0
 40
1
 41
1
  0
VERTEX
  8
0
 10
177.268
 20
75.6
 30
0.0
 40
1
 41
1
  0
VERTEX
  8
0
 10
177.268
 20
90.5
 30
0.0
 40
1
 41
1
  0
VERTEX
  8
0
 10
162.268
 20
90.5
 30
0.0
 40
1
 41
1
  0
VERTEX
  8
0
 10
162.268
 20
70.5
 30
0.0
 40
1
 41
1
  0
VERTEX
  8
0
 10
232.56
 20
70.5
 30
0.0
 40
1
 41
1
  0
SEQEND
 8
0
  0
POLYLINE
  8
0
 62
     0
 66
     1
 10
0
 20
0
 30
0.0
 40
72
 41
72
  0
VERTEX
  8
0
 10
232.268
 20
140.5
 30
0.0
 40
1
 41
1
  0
VERTEX
  8
0
 10
302.268
 20
140.5
 30
0.0
 40
1
 41
1
  0
VERTEX
  8
0
 10
302.268
 20
120.5
 30
0.0
 40
1
 41
1
  0
VERTEX
  8
0
 10
287.268
 20
120.5
 30
0.0
 40
1
 41
1
  0
VERTEX
  8
0
 10
287.268
 20
135.4
 30
0.0
 40
1
 41
1
  0
VERTEX
  8
0
 10
284.368
 20
135.4
 30
0.0
 40
1
 41
1
  0
VERTEX
  8
0
 10
284.368
 20
120.5
 30
0.0
 40
1
 41
1
  0
VERTEX
  8
0
 10
252.268
 20
120.5
 30
0.0
 40
1
 41
1
  0
VERTEX
  8
0
 10
252.268
 20
88.4
 30
0.0
 40
1
 41
1
  0
VERTEX
  8
0
 10
237.368
 20
88.4
 30
0.0
 40
1
 41
1
  0
VERTEX
  8
0
 10
237.368
 20
85.5
 30
0.0
 40
1
 41
1
  0
VERTEX
  8
0
 10
252.268
 20
85.5
 30
0.0
 40
1
 41
1
  0
VERTEX
  8
0
 10
252.268
 20
70.5
 30
0.0
 40
1
 41
1
  0
SEQEND
 8
0
  0
POLYLINE
  8
0
 62
     0
 66
     1
 10
0
 20
0
 30
0.0
 40
72
 41
72
  0
VERTEX
  8
0
 10
232.268
 20
70.5
 30
0.0
 40
1
 41
1
  0
VERTEX
  8
0
 10
239.151
 20
70.5
 30
0.0
 40
1
 41
1
  0
SEQEND
 8
0
  0
POLYLINE
  8
0
 62
     0
 66
     1
 10
0
 20
0
 30
0.0
 70
     1
 40
72
 41
72
  0
VERTEX
  8
0
 10
252.987
 20
99.78
 30
0.0
 40
1
 41
1
  0
VERTEX
  8
0
 10
252.987
 20
119.78
 30
0.0
 40
1
 41
1
  0
VERTEX
  8
0
 10
322.987
 20
119.78
 30
0.0
 40
1
 41
1
  0
VERTEX
  8
0
 10
322.987
 20
49.78
 30
0.0
 40
1
 41
1
  0
VERTEX
  8
0
 10
302.987
 20
49.78
 30
0.0
 40
1
 41
1
  0
VERTEX
  8
0
 10
302.987
 20
64.78
 30
0.0
 40
1
 41
1
  0
VERTEX
  8
0
 10
317.888
 20
64.78
 30
0.0
 40
1
 41
1
  0
VERTEX
  8
0
 10
317.888
 20
67.68
 30
0.0
 40
1
 41
1
  0
VERTEX
  8
0
 10
302.987
 20
67.68
 30
0.0
 40
1
 41
1
  0
VERTEX
  8
0
 10
302.987
 20
99.78
 30
0.0
 40
1
 41
1
  0
VERTEX
  8
0
 10
270.888
 20
99.78
 30
0.0
 40
1
 41
1
  0
VERTEX
  8
0
 10
270.888
 20
114.68
 30
0.0
 40
1
 41
1
  0
VERTEX
  8
0
 10
267.987
 20
114.68
 30
0.0
 40
1
 41
1
  0
VERTEX
  8
0
 10
267.987
 20
99.78
 30
0.0
 40
1
 41
1
  0
VERTEX
  8
0
 10
252.987
 20
99.78
 30
0.0
 40
1
 41
1
  0
SEQEND
 8
0
  0
POLYLINE
  8
0
 62
     0
 66
     1
 10
0
 20
0
 30
0.0
 40
72
 41
72
  0
VERTEX
  8
0
 10
162.56
 20
70.5
 30
0.0
 40
1
 41
1
  0
VERTEX
  8
0
 10
162.56
 20
50.5
 30
0.0
 40
1
 41
1
  0
VERTEX
  8
0
 10
177.56
 20
50.5
 30
0.0
 40
1
 41
1
  0
VERTEX
  8
0
 10
177.56
 20
65.4
 30
0.0
 40
1
 41
1
  0
VERTEX
  8
0
 10
180.46
 20
65.4
 30
0.0
 40
1
 41
1
  0
VERTEX
  8
0
 10
180.46
 20
50.5
 30
0.0
 40
1
 41
1
  0
VERTEX
  8
0
 10
212.56
 20
50.5
 30
0.0
 40
1
 41
1
  0
VERTEX
  8
0
 10
212.56
 20
18.4
 30
0.0
 40
1
 41
1
  0
VERTEX
  8
0
 10
227.46
 20
18.4
 30
0.0
 40
1
 41
1
  0
VERTEX
  8
0
 10
227.46
 20
15.5
 30
0.0
 40
1
 41
1
  0
VERTEX
  8
0
 10
212.56
 20
15.5
 30
0.0
 40
1
 41
1
  0
VERTEX
  8
0
 10
212.56
 20
0.5
 30
0.0
 40
1
 41
1
  0
VERTEX
  8
0
 10
232.56
 20
0.5
 30
0.0
 40
1
 41
1
  0
VERTEX
  8
0
 10
232.56
 20
70.5
 30
0.0
 40
1
 41
1
  0
VERTEX
  8
0
 10
302.56
 20
70.5
 30
0.0
 40
1
 41
1
  0
VERTEX
  8
0
 10
302.56
 20
50.5
 30
0.0
 40
1
 41
1
  0
VERTEX
  8
0
 10
287.56
 20
50.5
 30
0.0
 40
1
 41
1
  0
VERTEX
  8
0
 10
287.56
 20
65.4
 30
0.0
 40
1
 41
1
  0
VERTEX
  8
0
 10
284.66
 20
65.4
 30
0.0
 40
1
 41
1
  0
VERTEX
  8
0
 10
284.66
 20
50.5
 30
0.0
 40
1
 41
1
  0
VERTEX
  8
0
 10
252.56
 20
50.5
 30
0.0
 40
1
 41
1
  0
VERTEX
  8
0
 10
252.56
 20
18.4
 30
0.0
 40
1
 41
1
  0
VERTEX
  8
0
 10
237.66
 20
18.4
 30
0.0
 40
1
 41
1
  0
VERTEX
  8
0
 10
237.66
 20
15.5
 30
0.0
 40
1
 41
1
  0
VERTEX
  8
0
 10
252.56
 20
15.5
 30
0.0
 40
1
 41
1
  0
VERTEX
  8
0
 10
252.56
 20
0.5
 30
0.0
 40
1
 41
1
  0
VERTEX
  8
0
 10
232.56
 20
0.5
 30
0.0
 40
1
 41
1
  0
SEQEND
 8
0
  0
POLYLINE
  8
0
 62
     0
 66
     1
 10
0
 20
0
 30
0.0
 70
     1
 40
72
 41
72
  0
VERTEX
  8
0
 10
308.281
 20
1.22
 30
0.0
 40
1
 41
1
  0
VERTEX
  8
0
 10
315.322
 20
1.22
 30
0.0
 40
1
 41
1
  0
VERTEX
  8
0
 10
315.322
 20
16.12
 30
0.0
 40
1
 41
1
  0
VERTEX
  8
0
 10
318.222
 20
16.12
 30
0.0
 40
1
 41
1
  0
VERTEX
  8
0
 10
318.222
 20
1.22
 30
0.0
 40
1
 41
1
  0
VERTEX
  8
0
 10
323.281
 20
1.22
 30
0.0
 40
1
 41
1
  0
VERTEX
  8
0
 10
323.281
 20
19.6343
 30
0.0
 40
1
 41
1
  0
VERTEX
  8
0
 10
303.381
 20
19.6343
 30
0.0
 40
1
 41
1
  0
VERTEX
  8
0
 10
303.381
 20
22.5343
 30
0.0
 40
1
 41
1
  0
VERTEX
  8
0
 10
323.281
 20
22.5343
 30
0.0
 40
1
 41
1
  0
VERTEX
  8
0
 10
323.281
 20
41.22
 30
0.0
 40
1
 41
1
  0
VERTEX
  8
0
 10
317.638
 20
41.22
 30
0.0
 40
1
 41
1
  0
VERTEX
  8
0
 10
317.638
 20
26.32
 30
0.0
 40
1
 41
1
  0
VERTEX
  8
0
 10
314.737
 20
26.32
 30
0.0
 40
1
 41
1
  0
VERTEX
  8
0
 10
314.737
 20
41.22
 30
0.0
 40
1
 41
1
  0
VERTEX
  8
0
 10
308.281
 20
41.22
 30
0.0
 40
1
 41
1
  0
VERTEX
  8
0
 10
308.281
 20
31.22
 30
0.0
 40
1
 41
1
  0
VERTEX
  8
0
 10
268.281
 20
31.22
 30
0.0
 40
1
 41
1
  0
VERTEX
  8
0
 10
268.281
 20
41.22
 30
0.0
 40
1
 41
1
  0
VERTEX
  8
0
 10
261.281
 20
41.22
 30
0.0
 40
1
 41
1
  0
VERTEX
  8
0
 10
261.281
 20
26.32
 30
0.0
 40
1
 41
1
  0
VERTEX
  8
0
 10
258.381
 20
26.32
 30
0.0
 40
1
 41
1
  0
VERTEX
  8
0
 10
258.381
 20
41.22
 30
0.0
 40
1
 41
1
  0
VERTEX
  8
0
 10
253.281
 20
41.22
 30
0.0
 40
1
 41
1
  0
VERTEX
  8
0
 10
253.281
 20
23.0771
 30
0.0
 40
1
 41
1
  0
VERTEX
  8
0
 10
273.181
 20
23.0771
 30
0.0
 40
1
 41
1
  0
VERTEX
  8
0
 10
273.181
 20
20.1771
 30
0.0
 40
1
 41
1
  0
VERTEX
  8
0
 10
253.281
 20
20.1771
 30
0.0
 40
1
 41
1
  0
VERTEX
  8
0
 10
253.281
 20
1.22
 30
0.0
 40
1
 41
1
  0
VERTEX
  8
0
 10
259.465
 20
1.22
 30
0.0
 40
1
 41
1
  0
VERTEX
  8
0
 10
259.465
 20
16.12
 30
0.0
 40
1
 41
1
  0
VERTEX
  8
0
 10
262.365
 20
16.12
 30
0.0
 40
1
 41
1
  0
VERTEX
  8
0
 10
262.365
 20
1.22
 30
0.0
 40
1
 41
1
  0
VERTEX
  8
0
 10
268.281
 20
1.22
 30
0.0
 40
1
 41
1
  0
VERTEX
  8
0
 10
268.281
 20
11.22
 30
0.0
 40
1
 41
1
  0
VERTEX
  8
0
 10
308.281
 20
11.22
 30
0.0
 40
1
 41
1
  0
VERTEX
  8
0
 10
308.281
 20
1.22
 30
0.0
 40
1
 41
1
  0
SEQEND
 8
0
  0
POLYLINE
  8
0
 62
     0
 66
     1
 10
0
 20
0
 30
0.0
 70
     1
 40
72
 41
72
  0
VERTEX
  8
0
 10
363.708
 20
96.9451
 30
0.0
 40
1
 41
1
  0
VERTEX
  8
0
 10
363.708
 20
103.988
 30
0.0
 40
1
 41
1
  0
VERTEX
  8
0
 10
348.808
 20
103.988
 30
0.0
 40
1
 41
1
  0
VERTEX
  8
0
 10
348.808
 20
106.888
 30
0.0
 40
1
 41
1
  0
VERTEX
  8
0
 10
363.708
 20
106.888
 30
0.0
 40
1
 41
1
  0
VERTEX
  8
0
 10
363.708
 20
111.945
 30
0.0
 40
1
 41
1
  0
VERTEX
  8
0
 10
345.293
 20
111.945
 30
0.0
 40
1
 41
1
  0
VERTEX
  8
0
 10
345.293
 20
92.0451
 30
0.0
 40
1
 41
1
  0
VERTEX
  8
0
 10
342.393
 20
92.0451
 30
0.0
 40
1
 41
1
  0
VERTEX
  8
0
 10
342.393
 20
111.945
 30
0.0
 40
1
 41
1
  0
VERTEX
  8
0
 10
323.708
 20
111.945
 30
0.0
 40
1
 41
1
  0
VERTEX
  8
0
 10
323.708
 20
106.302
 30
0.0
 40
1
 41
1
  0
VERTEX
  8
0
 10
338.608
 20
106.302
 30
0.0
 40
1
 41
1
  0
VERTEX
  8
0
 10
338.608
 20
103.402
 30
0.0
 40
1
 41
1
  0
VERTEX
  8
0
 10
323.708
 20
103.402
 30
0.0
 40
1
 41
1
  0
VERTEX
  8
0
 10
323.708
 20
96.9451
 30
0.0
 40
1
 41
1
  0
VERTEX
  8
0
 10
333.708
 20
96.9451
 30
0.0
 40
1
 41
1
  0
VERTEX
  8
0
 10
333.708
 20
56.9451
 30
0.0
 40
1
 41
1
  0
VERTEX
  8
0
 10
323.708
 20
56.9451
 30
0.0
 40
1
 41
1
  0
VERTEX
  8
0
 10
323.708
 20
49.9451
 30
0.0
 40
1
 41
1
  0
VERTEX
  8
0
 10
338.608
 20
49.9451
 30
0.0
 40
1
 41
1
  0
VERTEX
  8
0
 10
338.608
 20
47.0451
 30
0.0
 40
1
 41
1
  0
VERTEX
  8
0
 10
323.708
 20
47.0451
 30
0.0
 40
1
 41
1
  0
VERTEX
  8
0
 10
323.708
 20
41.9451
 30
0.0
 40
1
 41
1
  0
VERTEX
  8
0
 10
341.851
 20
41.9451
 30
0.0
 40
1
 41
1
  0
VERTEX
  8
0
 10
341.851
 20
61.8451
 30
0.0
 40
1
 41
1
  0
VERTEX
  8
0
 10
344.75
 20
61.8451
 30
0.0
 40
1
 41
1
  0
VERTEX
  8
0
 10
344.75
 20
41.9451
 30
0.0
 40
1
 41
1
  0
VERTEX
  8
0
 10
363.708
 20
41.9451
 30
0.0
 40
1
 41
1
  0
VERTEX
  8
0
 10
363.708
 20
48.1308
 30
0.0
 40
1
 41
1
  0
VERTEX
  8
0
 10
348.808
 20
48.1308
 30
0.0
 40
1
 41
1
  0
VERTEX
  8
0
 10
348.808
 20
51.0308
 30
0.0
 40
1
 41
1
  0
VERTEX
  8
0
 10
363.708
 20
51.0308
 30
0.0
 40
1
 41
1
  0
VERTEX
  8
0
 10
363.708
 20
56.9451
 30
0.0
 40
1
 41
1
  0
VERTEX
  8
0
 10
353.708
 20
56.9451
 30
0.0
 40
1
 41
1
  0
VERTEX
  8
0
 10
353.708
 20
96.9451
 30
0.0
 40
1
 41
1
  0
VERTEX
  8
0
 10
363.708
 20
96.9451
 30
0.0
 40
1
 41
1
  0
SEQEND
 8
0
  0
POLYLINE
  8
0
 62
     0
 66
     1
 10
0
 20
0
 30
0.0
 70
     1
 40
72
 41
72
  0
VERTEX
  8
0
 10
338.982
 20
40.9424
 30
0.0
 40
1
 41
1
  0
VERTEX
  8
0
 10
331.939
 20
40.9424
 30
0.0
 40
1
 41
1
  0
VERTEX
  8
0
 10
331.939
 20
26.0424
 30
0.0
 40
1
 41
1
  0
VERTEX
  8
0
 10
329.039
 20
26.0424
 30
0.0
 40
1
 41
1
  0
VERTEX
  8
0
 10
329.039
 20
40.9424
 30
0.0
 40
1
 41
1
  0
VERTEX
  8
0
 10
323.982
 20
40.9424
 30
0.0
 40
1
 41
1
  0
VERTEX
  8
0
 10
323.982
 20
22.5281
 30
0.0
 40
1
 41
1
  0
VERTEX
  8
0
 10
343.882
 20
22.5281
 30
0.0
 40
1
 41
1
  0
VERTEX
  8
0
 10
343.882
 20
19.6281
 30
0.0
 40
1
 41
1
  0
VERTEX
  8
0
 10
323.982
 20
19.6281
 30
0.0
 40
1
 41
1
  0
VERTEX
  8
0
 10
323.982
 20
0.942329
 30
0.0
 40
1
 41
1
  0
VERTEX
  8
0
 10
329.625
 20
0.942329
 30
0.0
 40
1
 41
1
  0
VERTEX
  8
0
 10
329.625
 20
15.8424
 30
0.0
 40
1
 41
1
  0
VERTEX
  8
0
 10
332.525
 20
15.8424
 30
0.0
 40
1
 41
1
  0
VERTEX
  8
0
 10
332.525
 20
0.942329
 30
0.0
 40
1
 41
1
  0
VERTEX
  8
0
 10
338.982
 20
0.942329
 30
0.0
 40
1
 41
1
  0
VERTEX
  8
0
 10
338.982
 20
10.9423
 30
0.0
 40
1
 41
1
  0
VERTEX
  8
0
 10
378.982
 20
10.9423
 30
0.0
 40
1
 41
1
  0
VERTEX
  8
0
 10
378.982
 20
0.942329
 30
0.0
 40
1
 41
1
  0
VERTEX
  8
0
 10
385.982
 20
0.942329
 30
0.0
 40
1
 41
1
  0
VERTEX
  8
0
 10
385.982
 20
15.8424
 30
0.0
 40
1
 41
1
  0
VERTEX
  8
0
 10
388.882
 20
15.8424
 30
0.0
 40
1
 41
1
  0
VERTEX
  8
0
 10
388.882
 20
0.942329
 30
0.0
 40
1
 41
1
  0
VERTEX
  8
0
 10
393.982
 20
0.942329
 30
0.0
 40
1
 41
1
  0
VERTEX
  8
0
 10
393.982
 20
19.0853
 30
0.0
 40
1
 41
1
  0
VERTEX
  8
0
 10
374.082
 20
19.0853
 30
0.0
 40
1
 41
1
  0
VERTEX
  8
0
 10
374.082
 20
21.9851
 30
0.0
 40
1
 41
1
  0
VERTEX
  8
0
 10
393.982
 20
21.9851
 30
0.0
 40
1
 41
1
  0
VERTEX
  8
0
 10
393.982
 20
40.9424
 30
0.0
 40
1
 41
1
  0
VERTEX
  8
0
 10
387.797
 20
40.9424
 30
0.0
 40
1
 41
1
  0
VERTEX
  8
0
 10
387.797
 20
26.0424
 30
0.0
 40
1
 41
1
  0
VERTEX
  8
0
 10
384.897
 20
26.0424
 30
0.0
 40
1
 41
1
  0
VERTEX
  8
0
 10
384.897
 20
40.9424
 30
0.0
 40
1
 41
1
  0
VERTEX
  8
0
 10
378.982
 20
40.9424
 30
0.0
 40
1
 41
1
  0
VERTEX
  8
0
 10
378.982
 20
30.9424
 30
0.0
 40
1
 41
1
  0
VERTEX
  8
0
 10
338.982
 20
30.9424
 30
0.0
 40
1
 41
1
  0
VERTEX
  8
0
 10
338.982
 20
40.9424
 30
0.0
 40
1
 41
1
  0
SEQEND
 8
0
  0
POLYLINE
  8
0
 62
     0
 66
     1
 10
0
 20
0
 30
0.0
 70
     1
 40
72
 41
72
  0
VERTEX
  8
0
 10
354.428
 20
72.1093
 30
0.0
 40
1
 41
1
  0
VERTEX
  8
0
 10
354.428
 20
65.0664
 30
0.0
 40
1
 41
1
  0
VERTEX
  8
0
 10
369.328
 20
65.0664
 30
0.0
 40
1
 41
1
  0
VERTEX
  8
0
 10
369.328
 20
62.1664
 30
0.0
 40
1
 41
1
  0
VERTEX
  8
0
 10
354.428
 20
62.1664
 30
0.0
 40
1
 41
1
  0
VERTEX
  8
0
 10
354.428
 20
57.1093
 30
0.0
 40
1
 41
1
  0
VERTEX
  8
0
 10
372.842
 20
57.1093
 30
0.0
 40
1
 41
1
  0
VERTEX
  8
0
 10
372.842
 20
77.0093
 30
0.0
 40
1
 41
1
  0
VERTEX
  8
0
 10
375.742
 20
77.0093
 30
0.0
 40
1
 41
1
  0
VERTEX
  8
0
 10
375.742
 20
57.1093
 30
0.0
 40
1
 41
1
  0
VERTEX
  8
0
 10
394.428
 20
57.1093
 30
0.0
 40
1
 41
1
  0
VERTEX
  8
0
 10
394.428
 20
62.7521
 30
0.0
 40
1
 41
1
  0
VERTEX
  8
0
 10
379.528
 20
62.7521
 30
0.0
 40
1
 41
1
  0
VERTEX
  8
0
 10
379.528
 20
65.6521
 30
0.0
 40
1
 41
1
  0
VERTEX
  8
0
 10
394.428
 20
65.6521
 30
0.0
 40
1
 41
1
  0
VERTEX
  8
0
 10
394.428
 20
72.1093
 30
0.0
 40
1
 41
1
  0
VERTEX
  8
0
 10
384.428
 20
72.1093
 30
0.0
 40
1
 41
1
  0
VERTEX
  8
0
 10
384.428
 20
112.109
 30
0.0
 40
1
 41
1
  0
VERTEX
  8
0
 10
394.428
 20
112.109
 30
0.0
 40
1
 41
1
  0
VERTEX
  8
0
 10
394.428
 20
119.109
 30
0.0
 40
1
 41
1
  0
VERTEX
  8
0
 10
379.528
 20
119.109
 30
0.0
 40
1
 41
1
  0
VERTEX
  8
0
 10
379.528
 20
122.009
 30
0.0
 40
1
 41
1
  0
VERTEX
  8
0
 10
394.428
 20
122.009
 30
0.0
 40
1
 41
1
  0
VERTEX
  8
0
 10
394.428
 20
127.109
 30
0.0
 40
1
 41
1
  0
VERTEX
  8
0
 10
376.285
 20
127.109
 30
0.0
 40
1
 41
1
  0
VERTEX
  8
0
 10
376.285
 20
107.209
 30
0.0
 40
1
 41
1
  0
VERTEX
  8
0
 10
373.385
 20
107.209
 30
0.0
 40
1
 41
1
  0
VERTEX
  8
0
 10
373.385
 20
127.109
 30
0.0
 40
1
 41
1
  0
VERTEX
  8
0
 10
354.428
 20
127.109
 30
0.0
 40
1
 41
1
  0
VERTEX
  8
0
 10
354.428
 20
120.924
 30
0.0
 40
1
 41
1
  0
VERTEX
  8
0
 10
369.328
 20
120.924
 30
0.0
 40
1
 41
1
  0
VERTEX
  8
0
 10
369.328
 20
118.024
 30
0.0
 40
1
 41
1
  0
VERTEX
  8
0
 10
354.428
 20
118.024
 30
0.0
 40
1
 41
1
  0
VERTEX
  8
0
 10
354.428
 20
112.109
 30
0.0
 40
1
 41
1
  0
VERTEX
  8
0
 10
364.428
 20
112.109
 30
0.0
 40
1
 41
1
  0
VERTEX
  8
0
 10
364.428
 20
72.1093
 30
0.0
 40
1
 41
1
  0
VERTEX
  8
0
 10
354.428
 20
72.1093
 30
0.0
 40
1
 41
1
  0
SEQEND
 8
0
  0
ENDSEC
  0
EOF
