  0
SECTION
  2
HEADER
  9
$ACADVER
  1
AC1014
  9
$HANDSEED
  5
FFFF
  9
$MEASUREMENT
 70
     1
  0
ENDSEC
  0
SECTION
  2
TABLES
  0
TABLE
  2
VPORT
  5
8
330
0
100
AcDbSymbolTable
 70
     4
  0
VPORT
  5
2E
330
8
100
AcDbSymbolTableRecord
100
AcDbViewportTableRecord
  2
*ACTIVE
 70
     0
 10
0.0
 20
0.0
 11
1.0
 21
1.0
 12
210.0
 22
148.5
 13
0.0
 23
0.0
 14
10.0
 24
10.0
 15
10.0
 25
10.0
 16
0.0
 26
0.0
 36
1.0
 17
0.0
 27
0.0
 37
0.0
 40
341.0
 41
1.24
 42
50.0
 43
0.0
 44
0.0
 50
0.0
 51
0.0
 71
     0
 72
   100
 73
     1
 74
     3
 75
     0
 76
     0
 77
     0
 78
     0
  0
ENDTAB
  0
TABLE
  2
LTYPE
  5
5
330
0
100
AcDbSymbolTable
 70
     1
  0
LTYPE
  5
14
330
5
100
AcDbSymbolTableRecord
100
AcDbLinetypeTableRecord
  2
BYBLOCK
 70
     0
  3

 72
    65
 73
     0
 40
0.0
  0
LTYPE
  5
15
330
5
100
AcDbSymbolTableRecord
100
AcDbLinetypeTableRecord
  2
BYLAYER
 70
     0
  3

 72
    65
 73
     0
 40
0.0
  0
LTYPE
  5
16
330
5
100
AcDbSymbolTableRecord
100
AcDbLinetypeTableRecord
  2
CONTINUOUS
 70
     0
  3
Solid line
 72
    65
 73
     0
 40
0.0
  0
ENDTAB
  0
TABLE
  2
LAYER
  5
2
100
AcDbSymbolTable
 70
1
  0
LAYER
  5
50
100
AcDbSymbolTableRecord
100
AcDbLayerTableRecord
  2
0
 70
0
  6
CONTINUOUS
  0
ENDTAB
  0
TABLE
  2
STYLE
  5
3
330
0
100
AcDbSymbolTable
 70
     1
  0
STYLE
  5
11
330
3
100
AcDbSymbolTableRecord
100
AcDbTextStyleTableRecord
  2
STANDARD
 70
     0
 40
0.0
 41
1.0
 50
0.0
 71
     0
 42
2.5
  3
txt
  4

  0
ENDTAB
  0
TABLE
  2
VIEW
  5
6
330
0
100
AcDbSymbolTable
 70
     0
  0
ENDTAB
  0
TABLE
  2
UCS
  5
7
330
0
100
AcDbSymbolTable
 70
     0
  0
ENDTAB
  0
TABLE
  2
APPID
  5
9
330
0
100
AcDbSymbolTable
 70
     2
  0
APPID
  5
12
330
9
100
AcDbSymbolTableRecord
100
AcDbRegAppTableRecord
  2
ACAD
 70
     0
  0
ENDTAB
  0
TABLE
  2
DIMSTYLE
  5
A
330
0
100
AcDbSymbolTable
 70
     1
  0
DIMSTYLE
105
27
330
A
100
AcDbSymbolTableRecord
100
AcDbDimStyleTableRecord
  2
ISO-25
 70
     0
  3

  4

  5

  6

  7

 40
1.0
 41
2.5
 42
0.625
 43
3.75
 44
1.25
 45
0.0
 46
0.0
 47
0.0
 48
0.0
140
2.5
141
2.5
142
0.0
143
0.03937007874016
144
1.0
145
0.0
146
1.0
147
0.625
 71
     0
 72
     0
 73
     0
 74
     0
 75
     0
 76
     0
 77
     1
 78
     8
170
     0
171
     3
172
     1
173
     0
174
     0
175
     0
176
     0
177
     0
178
     0
270
     2
271
     2
272
     2
273
     2
274
     3
340
11
275
     0
280
     0
281
     0
282
     0
283
     0
284
     8
285
     0
286
     0
287
     3
288
     0
  0
ENDTAB
  0
TABLE
  2
BLOCK_RECORD
  5
1
330
0
100
AcDbSymbolTable
 70
     1
  0
BLOCK_RECORD
  5
1F
330
1
100
AcDbSymbolTableRecord
100
AcDbBlockTableRecord
  2
*MODEL_SPACE
  0
BLOCK_RECORD
  5
1B
330
1
100
AcDbSymbolTableRecord
100
AcDbBlockTableRecord
  2
*PAPER_SPACE
  0
ENDTAB
  0
ENDSEC
  0
SECTION
  2
BLOCKS
  0
BLOCK
  5
20
330
1F
100
AcDbEntity
  8
0
100
AcDbBlockBegin
  2
*MODEL_SPACE
 70
     0
 10
0.0
 20
0.0
 30
0.0
  3
*MODEL_SPACE
  1

  0
ENDBLK
  5
21
330
1F
100
AcDbEntity
  8
0
100
AcDbBlockEnd
  0
BLOCK
  5
1C
330
1B
100
AcDbEntity
 67
     1
  8
0
100
AcDbBlockBegin
  2
*PAPER_SPACE
  1

  0
ENDBLK
  5
1D
330
1B
100
AcDbEntity
 67
     1
  8
0
100
AcDbBlockEnd
  0
ENDSEC
  0
SECTION
  2
ENTITIES
  0
SPLINE
  5
100
100
AcDbEntity
  8
0
 62
7
100
AcDbSpline
 70
8
 71
3
 72
8
 73
4
 74
0
 40
0
 40
0
 40
0
 40
0
 40
1
 40
1
 40
1
 40
1
 10
124.835220
 20
244.573875
 30
0.0
 10
100.269585
 20
249.419925
 30
0.0
 10
79.516132
 20
253.766175
 30
0.0
 10
78.716438
 20
254.232225
 30
0.0
  0
SPLINE
  5
101
100
AcDbEntity
  8
0
 62
7
100
AcDbSpline
 70
8
 71
3
 72
8
 73
4
 74
0
 40
0
 40
0
 40
0
 40
0
 40
1
 40
1
 40
1
 40
1
 10
78.716438
 20
254.232225
 30
0.0
 10
77.916750
 20
254.698275
 30
0.0
 10
62.869562
 20
270.555345
 30
0.0
 10
45.278244
 20
289.470195
 30
0.0
  0
SPLINE
  5
102
100
AcDbEntity
  8
0
 62
7
100
AcDbSpline
 70
8
 71
3
 72
8
 73
4
 74
0
 40
0
 40
0
 40
0
 40
0
 40
1
 40
1
 40
1
 40
1
 10
8.131556
 20
365.970195
 30
0.0
 10
5.292196
 20
389.130345
 30
0.0
 10
2.750653
 20
411.004545
 30
0.0
 10
2.483683
 20
414.579570
 30
0.0
  0
LWPOLYLINE
  5
103
100
AcDbEntity
  8
0
 62
7
100
AcDbPolyline
 90
3
 70
0
 10
45.278244
 20
289.470195
 30
0.0
 10
13.294030
 20
323.860845
 30
0.0
 10
8.131556
 20
365.970195
 30
0.0
  0
SPLINE
  5
104
100
AcDbEntity
  8
0
 62
7
100
AcDbSpline
 70
8
 71
3
 72
8
 73
4
 74
0
 40
0
 40
0
 40
0
 40
0
 40
1
 40
1
 40
1
 40
1
 10
91.292205
 20
523.719090
 30
0.0
 10
114.827910
 20
534.642338
 30
0.0
 10
134.953245
 20
543.579540
 30
0.0
 10
136.015155
 20
543.579540
 30
0.0
  0
SPLINE
  5
105
100
AcDbEntity
  8
0
 62
7
100
AcDbSpline
 70
8
 71
3
 72
8
 73
4
 74
0
 40
0
 40
0
 40
0
 40
0
 40
1
 40
1
 40
1
 40
1
 10
136.015155
 20
543.579540
 30
0.0
 10
137.576993
 20
543.579540
 30
0.0
 10
219.861503
 20
527.866410
 30
0.0
 10
227.689770
 20
526.073257
 30
0.0
  0
SPLINE
  5
106
100
AcDbEntity
  8
0
 62
7
100
AcDbSpline
 70
8
 71
3
 72
8
 73
4
 74
0
 40
0
 40
0
 40
0
 40
0
 40
1
 40
1
 40
1
 40
1
 10
227.689770
 20
526.073257
 30
0.0
 10
228.904703
 20
525.794970
 30
0.0
 10
243.962573
 20
510.460327
 30
0.0
 10
261.514455
 20
491.626852
 30
0.0
  0
LWPOLYLINE
  5
107
100
AcDbEntity
  8
0
 62
7
100
AcDbPolyline
 90
5
 70
0
 10
2.483683
 20
414.579570
 30
0.0
 10
1.998283
 20
421.079520
 30
0.0
 10
25.249148
 20
462.469095
 30
0.0
 10
48.500014
 20
503.858647
 30
0.0
 10
91.292205
 20
523.719090
 30
0.0
  0
SPLINE
  5
108
100
AcDbEntity
  8
0
 62
7
100
AcDbSpline
 70
8
 71
3
 72
8
 73
4
 74
0
 40
0
 40
0
 40
0
 40
0
 40
1
 40
1
 40
1
 40
1
 10
330.537068
 20
485.726670
 30
0.0
 10
351.100275
 20
501.151207
 30
0.0
 10
368.504167
 20
513.581827
 30
0.0
 10
369.212362
 20
513.350257
 30
0.0
  0
SPLINE
  5
109
100
AcDbEntity
  8
0
 62
7
100
AcDbSpline
 70
8
 71
3
 72
8
 73
4
 74
0
 40
0
 40
0
 40
0
 40
0
 40
1
 40
1
 40
1
 40
1
 10
369.212362
 20
513.350257
 30
0.0
 10
370.114845
 20
513.055170
 30
0.0
 10
371.859758
 20
502.033822
 30
0.0
 10
375.045832
 20
476.504370
 30
0.0
  0
LWPOLYLINE
  5
10a
100
AcDbEntity
  8
0
 62
7
100
AcDbPolyline
 90
3
 70
0
 10
261.514455
 20
491.626852
 30
0.0
 10
293.149395
 20
457.681995
 30
0.0
 10
330.537068
 20
485.726670
 30
0.0
  0
SPLINE
  5
10b
100
AcDbEntity
  8
0
 62
7
100
AcDbSpline
 70
8
 71
3
 72
8
 73
4
 74
0
 40
0
 40
0
 40
0
 40
0
 40
1
 40
1
 40
1
 40
1
 10
382.422015
 20
472.579545
 30
0.0
 10
385.892775
 20
512.433240
 30
0.0
 10
385.993163
 20
513.096367
 30
0.0
 10
388.544895
 20
513.024397
 30
0.0
  0
SPLINE
  5
10c
100
AcDbEntity
  8
0
 62
7
100
AcDbSpline
 70
8
 71
3
 72
8
 73
4
 74
0
 40
0
 40
0
 40
0
 40
0
 40
1
 40
1
 40
1
 40
1
 10
388.544895
 20
513.024397
 30
0.0
 10
389.620208
 20
512.994097
 30
0.0
 10
404.225003
 20
503.363767
 30
0.0
 10
421.000005
 20
491.623710
 30
0.0
  0
SPLINE
  5
10d
100
AcDbEntity
  8
0
 62
7
100
AcDbSpline
 70
8
 71
3
 72
8
 73
4
 74
0
 40
0
 40
0
 40
0
 40
0
 40
1
 40
1
 40
1
 40
1
 10
421.000005
 20
491.623710
 30
0.0
 10
437.775008
 20
479.883645
 30
0.0
 10
452.736345
 20
469.416120
 30
0.0
 10
454.247430
 20
468.362595
 30
0.0
  0
SPLINE
  5
10e
100
AcDbEntity
  8
0
 62
7
100
AcDbSpline
 70
8
 71
3
 72
8
 73
4
 74
0
 40
0
 40
0
 40
0
 40
0
 40
1
 40
1
 40
1
 40
1
 10
454.247430
 20
468.362595
 30
0.0
 10
456.229200
 20
466.980870
 30
0.0
 10
451.169700
 20
476.149695
 30
0.0
 10
436.092322
 20
501.263272
 30
0.0
  0
LWPOLYLINE
  5
10f
100
AcDbEntity
  8
0
 62
7
100
AcDbPolyline
 90
3
 70
0
 10
375.045832
 20
476.504370
 30
0.0
 10
379.591673
 20
440.079570
 30
0.0
 10
382.422015
 20
472.579545
 30
0.0
  0
SPLINE
  5
110
100
AcDbEntity
  8
0
 62
7
100
AcDbSpline
 70
8
 71
3
 72
8
 73
4
 74
0
 40
0
 40
0
 40
0
 40
0
 40
1
 40
1
 40
1
 40
1
 10
368.852962
 20
545.108707
 30
0.0
 10
330.899880
 20
552.504225
 30
0.0
 10
322.458075
 20
554.439510
 30
0.0
 10
322.195095
 20
555.805020
 30
0.0
  0
SPLINE
  5
111
100
AcDbEntity
  8
0
 62
7
100
AcDbSpline
 70
8
 71
3
 72
8
 73
4
 74
0
 40
0
 40
0
 40
0
 40
0
 40
1
 40
1
 40
1
 40
1
 10
322.195095
 20
555.805020
 30
0.0
 10
321.995355
 20
556.842195
 30
0.0
 10
344.803515
 20
583.848855
 30
0.0
 10
382.554967
 20
627.275850
 30
0.0
  0
SPLINE
  5
112
100
AcDbEntity
  8
0
 62
7
100
AcDbSpline
 70
8
 71
3
 72
8
 73
4
 74
0
 40
0
 40
0
 40
0
 40
0
 40
1
 40
1
 40
1
 40
1
 10
382.554967
 20
627.275850
 30
0.0
 10
415.929472
 20
665.667877
 30
0.0
 10
444.216457
 20
698.102955
 30
0.0
 10
445.414935
 20
699.353797
 30
0.0
  0
LWPOLYLINE
  5
113
100
AcDbEntity
  8
0
 62
7
100
AcDbPolyline
 90
3
 70
0
 10
436.092322
 20
501.263272
 30
0.0
 10
415.189777
 20
536.079540
 30
0.0
 10
368.852962
 20
545.108707
 30
0.0
  0
SPLINE
  5
114
100
AcDbEntity
  8
0
 62
7
100
AcDbSpline
 70
8
 71
3
 72
8
 73
4
 74
0
 40
0
 40
0
 40
0
 40
0
 40
1
 40
1
 40
1
 40
1
 10
495.046980
 20
692.346472
 30
0.0
 10
538.050300
 20
683.935237
 30
0.0
 10
542.525003
 20
682.878037
 30
0.0
 10
542.766660
 20
681.072217
 30
0.0
  0
SPLINE
  5
115
100
AcDbEntity
  8
0
 62
7
100
AcDbSpline
 70
8
 71
3
 72
8
 73
4
 74
0
 40
0
 40
0
 40
0
 40
0
 40
1
 40
1
 40
1
 40
1
 10
542.766660
 20
681.072217
 30
0.0
 10
542.950275
 20
679.700062
 30
0.0
 10
536.222062
 20
671.294415
 30
0.0
 10
521.160645
 20
654.079537
 30
0.0
  0
SPLINE
  5
116
100
AcDbEntity
  8
0
 62
7
100
AcDbSpline
 70
8
 71
3
 72
8
 73
4
 74
0
 40
0
 40
0
 40
0
 40
0
 40
1
 40
1
 40
1
 40
1
 10
521.160645
 20
654.079537
 30
0.0
 10
509.130683
 20
640.329540
 30
0.0
 10
499.409130
 20
628.931085
 30
0.0
 10
499.557203
 20
628.749660
 30
0.0
  0
SPLINE
  5
117
100
AcDbEntity
  8
0
 62
7
100
AcDbSpline
 70
8
 71
3
 72
8
 73
4
 74
0
 40
0
 40
0
 40
0
 40
0
 40
1
 40
1
 40
1
 40
1
 10
499.557203
 20
628.749660
 30
0.0
 10
499.705283
 20
628.568220
 30
0.0
 10
511.638023
 20
637.291815
 30
0.0
 10
526.074412
 20
648.135427
 30
0.0
  0
SPLINE
  5
118
100
AcDbEntity
  8
0
 62
7
100
AcDbSpline
 70
8
 71
3
 72
8
 73
4
 74
0
 40
0
 40
0
 40
0
 40
0
 40
1
 40
1
 40
1
 40
1
 10
526.074412
 20
648.135427
 30
0.0
 10
540.510802
 20
658.979032
 30
0.0
 10
553.099058
 20
668.054182
 30
0.0
 10
554.048340
 20
668.302425
 30
0.0
  0
SPLINE
  5
119
100
AcDbEntity
  8
0
 62
7
100
AcDbSpline
 70
8
 71
3
 72
8
 73
4
 74
0
 40
0
 40
0
 40
0
 40
0
 40
1
 40
1
 40
1
 40
1
 10
554.048340
 20
668.302425
 30
0.0
 10
554.997607
 20
668.550667
 30
0.0
 10
556.047960
 20
668.311425
 30
0.0
 10
556.382468
 20
667.769707
 30
0.0
  0
SPLINE
  5
11a
100
AcDbEntity
  8
0
 62
7
100
AcDbSpline
 70
8
 71
3
 72
8
 73
4
 74
0
 40
0
 40
0
 40
0
 40
0
 40
1
 40
1
 40
1
 40
1
 10
556.382468
 20
667.769707
 30
0.0
 10
556.716968
 20
667.228477
 30
0.0
 10
559.204867
 20
648.702157
 30
0.0
 10
561.911137
 20
626.600115
 30
0.0
  0
SPLINE
  5
11b
100
AcDbEntity
  8
0
 62
7
100
AcDbSpline
 70
8
 71
3
 72
8
 73
4
 74
0
 40
0
 40
0
 40
0
 40
0
 40
1
 40
1
 40
1
 40
1
 10
561.911137
 20
626.600115
 30
0.0
 10
564.617408
 20
604.498065
 30
0.0
 10
566.991900
 20
586.254307
 30
0.0
 10
567.187778
 20
586.058415
 30
0.0
  0
SPLINE
  5
11c
100
AcDbEntity
  8
0
 62
7
100
AcDbSpline
 70
8
 71
3
 72
8
 73
4
 74
0
 40
0
 40
0
 40
0
 40
0
 40
1
 40
1
 40
1
 40
1
 10
567.187778
 20
586.058415
 30
0.0
 10
567.383670
 20
585.862537
 30
0.0
 10
572.836043
 20
603.016800
 30
0.0
 10
579.304178
 20
624.179010
 30
0.0
  0
LWPOLYLINE
  5
11d
100
AcDbEntity
  8
0
 62
7
100
AcDbPolyline
 90
3
 70
0
 10
445.414935
 20
699.353797
 30
0.0
 10
447.593977
 20
701.628045
 30
0.0
 10
495.046980
 20
692.346472
 30
0.0
  0
SPLINE
  5
11e
100
AcDbEntity
  8
0
 62
7
100
AcDbSpline
 70
8
 71
3
 72
8
 73
4
 74
0
 40
0
 40
0
 40
0
 40
0
 40
1
 40
1
 40
1
 40
1
 10
567.032213
 20
702.691207
 30
0.0
 10
553.814490
 20
724.710712
 30
0.0
 10
543.000000
 20
743.382690
 30
0.0
 10
543.000000
 20
744.184492
 30
0.0
  0
SPLINE
  5
11f
100
AcDbEntity
  8
0
 62
7
100
AcDbSpline
 70
8
 71
3
 72
8
 73
4
 74
0
 40
0
 40
0
 40
0
 40
0
 40
1
 40
1
 40
1
 40
1
 10
543.000000
 20
744.184492
 30
0.0
 10
543.000000
 20
744.986280
 30
0.0
 10
543.562500
 20
745.819230
 30
0.0
 10
544.250002
 20
746.035492
 30
0.0
  0
SPLINE
  5
120
100
AcDbEntity
  8
0
 62
7
100
AcDbSpline
 70
8
 71
3
 72
8
 73
4
 74
0
 40
0
 40
0
 40
0
 40
0
 40
1
 40
1
 40
1
 40
1
 10
544.250002
 20
746.035492
 30
0.0
 10
544.937505
 20
746.251740
 30
0.0
 10
577.674997
 20
746.912842
 30
0.0
 10
617.000002
 20
747.504592
 30
0.0
  0
SPLINE
  5
121
100
AcDbEntity
  8
0
 62
7
100
AcDbSpline
 70
8
 71
3
 72
8
 73
4
 74
0
 40
0
 40
0
 40
0
 40
0
 40
1
 40
1
 40
1
 40
1
 10
617.000002
 20
747.504592
 30
0.0
 10
656.325000
 20
748.096350
 30
0.0
 10
699.127605
 20
748.864485
 30
0.0
 10
712.116915
 20
749.211562
 30
0.0
  0
LWPOLYLINE
  5
122
100
AcDbEntity
  8
0
 62
7
100
AcDbPolyline
 90
3
 70
0
 10
579.304178
 20
624.179010
 30
0.0
 10
591.064410
 20
662.655735
 30
0.0
 10
567.032213
 20
702.691207
 30
0.0
  0
SPLINE
  5
123
100
AcDbEntity
  8
0
 62
7
100
AcDbSpline
 70
8
 71
3
 72
8
 73
4
 74
0
 40
0
 40
0
 40
0
 40
0
 40
1
 40
1
 40
1
 40
1
 10
760.435575
 20
708.686865
 30
0.0
 10
774.021525
 20
686.051205
 30
0.0
 10
784.988475
 20
666.754515
 30
0.0
 10
784.806600
 20
665.805322
 30
0.0
  0
SPLINE
  5
124
100
AcDbEntity
  8
0
 62
7
100
AcDbSpline
 70
8
 71
3
 72
8
 73
4
 74
0
 40
0
 40
0
 40
0
 40
0
 40
1
 40
1
 40
1
 40
1
 10
784.806600
 20
665.805322
 30
0.0
 10
784.506525
 20
664.238917
 30
0.0
 10
781.937400
 20
664.022625
 30
0.0
 10
756.987975
 20
663.463342
 30
0.0
  0
SPLINE
  5
125
100
AcDbEntity
  8
0
 62
7
100
AcDbSpline
 70
8
 71
3
 72
8
 73
4
 74
0
 40
0
 40
0
 40
0
 40
0
 40
1
 40
1
 40
1
 40
1
 10
756.987975
 20
663.463342
 30
0.0
 10
707.370217
 20
662.351085
 30
0.0
 10
708.635580
 20
663.335302
 30
0.0
 10
747.000000
 20
655.694505
 30
0.0
  0
SPLINE
  5
126
100
AcDbEntity
  8
0
 62
7
100
AcDbSpline
 70
8
 71
3
 72
8
 73
4
 74
0
 40
0
 40
0
 40
0
 40
0
 40
1
 40
1
 40
1
 40
1
 10
747.000000
 20
655.694505
 30
0.0
 10
765.424950
 20
652.024913
 30
0.0
 10
781.062450
 20
648.671295
 30
0.0
 10
781.749975
 20
648.242017
 30
0.0
  0
SPLINE
  5
127
100
AcDbEntity
  8
0
 62
7
100
AcDbSpline
 70
8
 71
3
 72
8
 73
4
 74
0
 40
0
 40
0
 40
0
 40
0
 40
1
 40
1
 40
1
 40
1
 10
781.749975
 20
648.242017
 30
0.0
 10
784.709475
 20
646.394085
 30
0.0
 10
785.275650
 20
647.108317
 30
0.0
 10
738.117997
 20
593.200800
 30
0.0
  0
SPLINE
  5
128
100
AcDbEntity
  8
0
 62
7
100
AcDbSpline
 70
8
 71
3
 72
8
 73
4
 74
0
 40
0
 40
0
 40
0
 40
0
 40
1
 40
1
 40
1
 40
1
 10
738.117997
 20
593.200800
 30
0.0
 10
731.006610
 20
585.071528
 30
0.0
 10
729.346807
 20
582.691237
 30
0.0
 10
731.550697
 20
583.782765
 30
0.0
  0
SPLINE
  5
129
100
AcDbEntity
  8
0
 62
7
100
AcDbSpline
 70
8
 71
3
 72
8
 73
4
 74
0
 40
0
 40
0
 40
0
 40
0
 40
1
 40
1
 40
1
 40
1
 10
731.550697
 20
583.782765
 30
0.0
 10
733.172820
 20
584.586165
 30
0.0
 10
749.853675
 20
592.363950
 30
0.0
 10
768.619275
 20
601.066740
 30
0.0
  0
LWPOLYLINE
  5
12a
100
AcDbEntity
  8
0
 62
7
100
AcDbPolyline
 90
3
 70
0
 10
712.116915
 20
749.211562
 30
0.0
 10
735.733837
 20
749.842605
 30
0.0
 10
760.435575
 20
708.686865
 30
0.0
  0
SPLINE
  5
12b
100
AcDbEntity
  8
0
 62
7
100
AcDbSpline
 70
8
 71
3
 72
8
 73
4
 74
0
 40
0
 40
0
 40
0
 40
0
 40
1
 40
1
 40
1
 40
1
 10
816.033750
 20
660.484762
 30
0.0
 10
823.346025
 20
684.461887
 30
0.0
 10
829.720725
 20
704.867032
 30
0.0
 10
830.199600
 20
705.829538
 30
0.0
  0
SPLINE
  5
12c
100
AcDbEntity
  8
0
 62
7
100
AcDbSpline
 70
8
 71
3
 72
8
 73
4
 74
0
 40
0
 40
0
 40
0
 40
0
 40
1
 40
1
 40
1
 40
1
 10
830.199600
 20
705.829538
 30
0.0
 10
830.678475
 20
706.792035
 30
0.0
 10
831.700200
 20
707.579535
 30
0.0
 10
832.470000
 20
707.579535
 30
0.0
  0
SPLINE
  5
12d
100
AcDbEntity
  8
0
 62
7
100
AcDbSpline
 70
8
 71
3
 72
8
 73
4
 74
0
 40
0
 40
0
 40
0
 40
0
 40
1
 40
1
 40
1
 40
1
 10
832.470000
 20
707.579535
 30
0.0
 10
833.239800
 20
707.579535
 30
0.0
 10
861.001425
 20
678.442035
 30
0.0
 10
894.162525
 20
642.829538
 30
0.0
  0
SPLINE
  5
12e
100
AcDbEntity
  8
0
 62
7
100
AcDbSpline
 70
8
 71
3
 72
8
 73
4
 74
0
 40
0
 40
0
 40
0
 40
0
 40
1
 40
1
 40
1
 40
1
 10
894.162525
 20
642.829538
 30
0.0
 10
927.323625
 20
607.217040
 30
0.0
 10
956.646900
 20
575.739555
 30
0.0
 10
959.325450
 20
572.879580
 30
0.0
  0
LWPOLYLINE
  5
12f
100
AcDbEntity
  8
0
 62
7
100
AcDbPolyline
 90
3
 70
0
 10
768.619275
 20
601.066740
 30
0.0
 10
802.738575
 20
616.890000
 30
0.0
 10
816.033750
 20
660.484762
 30
0.0
  0
SPLINE
  5
130
100
AcDbEntity
  8
0
 62
7
100
AcDbSpline
 70
8
 71
3
 72
8
 73
4
 74
0
 40
0
 40
0
 40
0
 40
0
 40
1
 40
1
 40
1
 40
1
 10
950.487600
 20
522.879577
 30
0.0
 10
942.948300
 20
498.239557
 30
0.0
 10
936.363450
 20
477.292020
 30
0.0
 10
935.854650
 20
476.329545
 30
0.0
  0
SPLINE
  5
131
100
AcDbEntity
  8
0
 62
7
100
AcDbSpline
 70
8
 71
3
 72
8
 73
4
 74
0
 40
0
 40
0
 40
0
 40
0
 40
1
 40
1
 40
1
 40
1
 10
935.854650
 20
476.329545
 30
0.0
 10
935.345850
 20
475.367070
 30
0.0
 10
934.308675
 20
474.579570
 30
0.0
 10
933.549750
 20
474.579570
 30
0.0
  0
SPLINE
  5
132
100
AcDbEntity
  8
0
 62
7
100
AcDbSpline
 70
8
 71
3
 72
8
 73
4
 74
0
 40
0
 40
0
 40
0
 40
0
 40
1
 40
1
 40
1
 40
1
 10
933.549750
 20
474.579570
 30
0.0
 10
932.790750
 20
474.579570
 30
0.0
 10
921.707550
 20
485.829570
 30
0.0
 10
908.920350
 20
499.579538
 30
0.0
  0
SPLINE
  5
133
100
AcDbEntity
  8
0
 62
7
100
AcDbSpline
 70
8
 71
3
 72
8
 73
4
 74
0
 40
0
 40
0
 40
0
 40
0
 40
1
 40
1
 40
1
 40
1
 10
908.920350
 20
499.579538
 30
0.0
 10
896.133225
 20
513.329543
 30
0.0
 10
885.468225
 20
524.579543
 30
0.0
 10
885.220425
 20
524.579543
 30
0.0
  0
SPLINE
  5
134
100
AcDbEntity
  8
0
 62
7
100
AcDbSpline
 70
8
 71
3
 72
8
 73
4
 74
0
 40
0
 40
0
 40
0
 40
0
 40
1
 40
1
 40
1
 40
1
 10
885.220425
 20
524.579543
 30
0.0
 10
884.972700
 20
524.579543
 30
0.0
 10
885.420075
 20
523.567043
 30
0.0
 10
886.214700
 20
522.329543
 30
0.0
  0
SPLINE
  5
135
100
AcDbEntity
  8
0
 62
7
100
AcDbSpline
 70
8
 71
3
 72
8
 73
4
 74
0
 40
0
 40
0
 40
0
 40
0
 40
1
 40
1
 40
1
 40
1
 10
886.214700
 20
522.329543
 30
0.0
 10
897.136575
 20
505.319820
 30
0.0
 10
920.112900
 20
465.316170
 30
0.0
 10
919.651425
 20
464.113545
 30
0.0
  0
SPLINE
  5
136
100
AcDbEntity
  8
0
 62
7
100
AcDbSpline
 70
8
 71
3
 72
8
 73
4
 74
0
 40
0
 40
0
 40
0
 40
0
 40
1
 40
1
 40
1
 40
1
 10
919.651425
 20
464.113545
 30
0.0
 10
919.186500
 20
462.902070
 30
0.0
 10
917.111175
 20
462.550395
 30
0.0
 10
909.781350
 20
462.440820
 30
0.0
  0
SPLINE
  5
137
100
AcDbEntity
  8
0
 62
7
100
AcDbSpline
 70
8
 71
3
 72
8
 73
4
 74
0
 40
0
 40
0
 40
0
 40
0
 40
1
 40
1
 40
1
 40
1
 10
909.781350
 20
462.440820
 30
0.0
 10
904.676625
 20
462.364545
 30
0.0
 10
885.720225
 20
462.027045
 30
0.0
 10
867.656100
 20
461.690820
 30
0.0
  0
LWPOLYLINE
  5
138
100
AcDbEntity
  8
0
 62
7
100
AcDbPolyline
 90
3
 70
0
 10
959.325450
 20
572.879580
 30
0.0
 10
964.195425
 20
567.679605
 30
0.0
 10
950.487600
 20
522.879577
 30
0.0
  0
SPLINE
  5
139
100
AcDbEntity
  8
0
 62
7
100
AcDbSpline
 70
8
 71
3
 72
8
 73
4
 74
0
 40
0
 40
0
 40
0
 40
0
 40
1
 40
1
 40
1
 40
1
 10
952.883775
 20
448.793370
 30
0.0
 10
976.282050
 20
459.703545
 30
0.0
 10
996.005250
 20
468.407745
 30
0.0
 10
996.713100
 20
468.136170
 30
0.0
  0
SPLINE
  5
13a
100
AcDbEntity
  8
0
 62
7
100
AcDbSpline
 70
8
 71
3
 72
8
 73
4
 74
0
 40
0
 40
0
 40
0
 40
0
 40
1
 40
1
 40
1
 40
1
 10
996.713100
 20
468.136170
 30
0.0
 10
997.420875
 20
467.864520
 30
0.0
 10
998.000625
 20
466.165695
 30
0.0
 10
998.001450
 20
464.360895
 30
0.0
  0
SPLINE
  5
13b
100
AcDbEntity
  8
0
 62
7
100
AcDbSpline
 70
8
 71
3
 72
8
 73
4
 74
0
 40
0
 40
0
 40
0
 40
0
 40
1
 40
1
 40
1
 40
1
 10
998.001450
 20
464.360895
 30
0.0
 10
998.008950
 20
454.354020
 30
0.0
 10
981.680925
 20
276.935895
 30
0.0
 10
980.663475
 20
275.935470
 30
0.0
  0
SPLINE
  5
13c
100
AcDbEntity
  8
0
 62
7
100
AcDbSpline
 70
8
 71
3
 72
8
 73
4
 74
0
 40
0
 40
0
 40
0
 40
0
 40
1
 40
1
 40
1
 40
1
 10
980.663475
 20
275.935470
 30
0.0
 10
978.453675
 20
273.762570
 30
0.0
 10
894.764475
 20
235.455975
 30
0.0
 10
893.384250
 20
235.985625
 30
0.0
  0
SPLINE
  5
13d
100
AcDbEntity
  8
0
 62
7
100
AcDbSpline
 70
8
 71
3
 72
8
 73
4
 74
0
 40
0
 40
0
 40
0
 40
0
 40
1
 40
1
 40
1
 40
1
 10
893.384250
 20
235.985625
 30
0.0
 10
891.469725
 20
236.720250
 30
0.0
 10
891.589950
 20
240.706200
 30
0.0
 10
894.499950
 20
272.980470
 30
0.0
  0
SPLINE
  5
13e
100
AcDbEntity
  8
0
 62
7
100
AcDbSpline
 70
8
 71
3
 72
8
 73
4
 74
0
 40
0
 40
0
 40
0
 40
0
 40
1
 40
1
 40
1
 40
1
 10
894.499950
 20
272.980470
 30
0.0
 10
895.875000
 20
288.230070
 30
0.0
 10
896.975025
 20
301.915845
 30
0.0
 10
896.944425
 20
303.393345
 30
0.0
  0
SPLINE
  5
13f
100
AcDbEntity
  8
0
 62
7
100
AcDbSpline
 70
8
 71
3
 72
8
 73
4
 74
0
 40
0
 40
0
 40
0
 40
0
 40
1
 40
1
 40
1
 40
1
 10
896.944425
 20
303.393345
 30
0.0
 10
896.913675
 20
304.870770
 30
0.0
 10
892.301400
 20
291.229545
 30
0.0
 10
886.694475
 20
273.079545
 30
0.0
  0
SPLINE
  5
140
100
AcDbEntity
  8
0
 62
7
100
AcDbSpline
 70
8
 71
3
 72
8
 73
4
 74
0
 40
0
 40
0
 40
0
 40
0
 40
1
 40
1
 40
1
 40
1
 10
886.694475
 20
273.079545
 30
0.0
 10
877.589250
 20
243.605475
 30
0.0
 10
876.277950
 20
240.079575
 30
0.0
 10
874.422225
 20
240.079575
 30
0.0
  0
SPLINE
  5
141
100
AcDbEntity
  8
0
 62
7
100
AcDbSpline
 70
8
 71
3
 72
8
 73
4
 74
0
 40
0
 40
0
 40
0
 40
0
 40
1
 40
1
 40
1
 40
1
 10
874.422225
 20
240.079575
 30
0.0
 10
872.978625
 20
240.079575
 30
0.0
 10
862.601400
 20
250.560300
 30
0.0
 10
840.422175
 20
274.418895
 30
0.0
  0
LWPOLYLINE
  5
142
100
AcDbEntity
  8
0
 62
7
100
AcDbPolyline
 90
5
 70
0
 10
867.656100
 20
461.690820
 30
0.0
 10
834.812175
 20
461.079570
 30
0.0
 10
872.576775
 20
445.018170
 30
0.0
 10
910.341375
 20
428.956845
 30
0.0
 10
952.883775
 20
448.793370
 30
0.0
  0
SPLINE
  5
143
100
AcDbEntity
  8
0
 62
7
100
AcDbSpline
 70
8
 71
3
 72
8
 73
4
 74
0
 40
0
 40
0
 40
0
 40
0
 40
1
 40
1
 40
1
 40
1
 10
785.499975
 20
308.188170
 30
0.0
 10
772.849950
 20
307.874670
 30
0.0
 10
751.482450
 20
307.496970
 30
0.0
 10
738.016627
 20
307.348845
 30
0.0
  0
SPLINE
  5
144
100
AcDbEntity
  8
0
 62
7
100
AcDbSpline
 70
8
 71
3
 72
8
 73
4
 74
0
 40
0
 40
0
 40
0
 40
0
 40
1
 40
1
 40
1
 40
1
 10
738.016627
 20
307.348845
 30
0.0
 10
716.571690
 20
307.112970
 30
0.0
 10
713.495887
 20
307.271670
 30
0.0
 10
713.232180
 20
308.627670
 30
0.0
  0
SPLINE
  5
145
100
AcDbEntity
  8
0
 62
7
100
AcDbSpline
 70
8
 71
3
 72
8
 73
4
 74
0
 40
0
 40
0
 40
0
 40
0
 40
1
 40
1
 40
1
 40
1
 10
713.232180
 20
308.627670
 30
0.0
 10
713.066587
 20
309.479145
 30
0.0
 10
722.679000
 20
327.704145
 30
0.0
 10
734.593088
 20
349.127670
 30
0.0
  0
SPLINE
  5
146
100
AcDbEntity
  8
0
 62
7
100
AcDbSpline
 70
8
 71
3
 72
8
 73
4
 74
0
 40
0
 40
0
 40
0
 40
0
 40
1
 40
1
 40
1
 40
1
 10
734.593088
 20
349.127670
 30
0.0
 10
746.507175
 20
370.551195
 30
0.0
 10
756.715950
 20
389.083395
 30
0.0
 10
757.279275
 20
390.310245
 30
0.0
  0
SPLINE
  5
147
100
AcDbEntity
  8
0
 62
7
100
AcDbSpline
 70
8
 71
3
 72
8
 73
4
 74
0
 40
0
 40
0
 40
0
 40
0
 40
1
 40
1
 40
1
 40
1
 10
757.279275
 20
390.310245
 30
0.0
 10
758.121675
 20
392.145120
 30
0.0
 10
755.663850
 20
400.241670
 30
0.0
 10
743.428815
 20
435.935670
 30
0.0
  0
LWPOLYLINE
  5
148
100
AcDbEntity
  8
0
 62
7
100
AcDbPolyline
 90
3
 70
0
 10
840.422175
 20
274.418895
 30
0.0
 10
808.500000
 20
308.758245
 30
0.0
 10
785.499975
 20
308.188170
 30
0.0
  0
SPLINE
  5
149
100
AcDbEntity
  8
0
 62
7
100
AcDbSpline
 70
8
 71
3
 72
8
 73
4
 74
0
 40
0
 40
0
 40
0
 40
0
 40
1
 40
1
 40
1
 40
1
 10
686.733630
 20
497.121593
 30
0.0
 10
663.732337
 20
506.906790
 30
0.0
 10
644.349578
 20
514.912867
 30
0.0
 10
643.660838
 20
514.912867
 30
0.0
  0
SPLINE
  5
14a
100
AcDbEntity
  8
0
 62
7
100
AcDbSpline
 70
8
 71
3
 72
8
 73
4
 74
0
 40
0
 40
0
 40
0
 40
0
 40
1
 40
1
 40
1
 40
1
 10
643.660838
 20
514.912867
 30
0.0
 10
642.368438
 20
514.912867
 30
0.0
 10
569.833530
 20
481.400670
 30
0.0
 10
570.260588
 20
481.000920
 30
0.0
  0
SPLINE
  5
14b
100
AcDbEntity
  8
0
 62
7
100
AcDbSpline
 70
8
 71
3
 72
8
 73
4
 74
0
 40
0
 40
0
 40
0
 40
0
 40
1
 40
1
 40
1
 40
1
 10
570.260588
 20
481.000920
 30
0.0
 10
570.392272
 20
480.877620
 30
0.0
 10
588.950003
 20
481.123320
 30
0.0
 10
611.499998
 20
481.546995
 30
0.0
  0
SPLINE
  5
14c
100
AcDbEntity
  8
0
 62
7
100
AcDbSpline
 70
8
 71
3
 72
8
 73
4
 74
0
 40
0
 40
0
 40
0
 40
0
 40
1
 40
1
 40
1
 40
1
 10
611.499998
 20
481.546995
 30
0.0
 10
641.775578
 20
482.115720
 30
0.0
 10
652.823520
 20
482.018595
 30
0.0
 10
653.736810
 20
481.175820
 30
0.0
  0
SPLINE
  5
14d
100
AcDbEntity
  8
0
 62
7
100
AcDbSpline
 70
8
 71
3
 72
8
 73
4
 74
0
 40
0
 40
0
 40
0
 40
0
 40
1
 40
1
 40
1
 40
1
 10
653.736810
 20
481.175820
 30
0.0
 10
655.199318
 20
479.826195
 30
0.0
 10
684.999998
 20
393.701745
 30
0.0
 10
684.999998
 20
390.824745
 30
0.0
  0
SPLINE
  5
14e
100
AcDbEntity
  8
0
 62
7
100
AcDbSpline
 70
8
 71
3
 72
8
 73
4
 74
0
 40
0
 40
0
 40
0
 40
0
 40
1
 40
1
 40
1
 40
1
 10
684.999998
 20
390.824745
 30
0.0
 10
684.999998
 20
389.399595
 30
0.0
 10
674.475315
 20
380.908770
 30
0.0
 10
647.059373
 20
360.216045
 30
0.0
  0
SPLINE
  5
14f
100
AcDbEntity
  8
0
 62
7
100
AcDbSpline
 70
8
 71
3
 72
8
 73
4
 74
0
 40
0
 40
0
 40
0
 40
0
 40
1
 40
1
 40
1
 40
1
 10
647.059373
 20
360.216045
 30
0.0
 10
626.192018
 20
344.465970
 30
0.0
 10
608.427893
 20
331.579545
 30
0.0
 10
607.583512
 20
331.579545
 30
0.0
  0
SPLINE
  5
150
100
AcDbEntity
  8
0
 62
7
100
AcDbSpline
 70
8
 71
3
 72
8
 73
4
 74
0
 40
0
 40
0
 40
0
 40
0
 40
1
 40
1
 40
1
 40
1
 10
607.583512
 20
331.579545
 30
0.0
 10
606.739132
 20
331.579545
 30
0.0
 10
589.367962
 20
343.279545
 30
0.0
 10
568.980900
 20
357.579570
 30
0.0
  0
SPLINE
  5
151
100
AcDbEntity
  8
0
 62
7
100
AcDbSpline
 70
8
 71
3
 72
8
 73
4
 74
0
 40
0
 40
0
 40
0
 40
0
 40
1
 40
1
 40
1
 40
1
 10
568.980900
 20
357.579570
 30
0.0
 10
548.593845
 20
371.879520
 30
0.0
 10
531.595485
 20
383.571645
 30
0.0
 10
531.206760
 20
383.562045
 30
0.0
  0
SPLINE
  5
152
100
AcDbEntity
  8
0
 62
7
100
AcDbSpline
 70
8
 71
3
 72
8
 73
4
 74
0
 40
0
 40
0
 40
0
 40
0
 40
1
 40
1
 40
1
 40
1
 10
531.206760
 20
383.562045
 30
0.0
 10
530.818043
 20
383.552295
 30
0.0
 10
520.591710
 20
365.664870
 30
0.0
 10
508.481573
 20
343.812045
 30
0.0
  0
SPLINE
  5
153
100
AcDbEntity
  8
0
 62
7
100
AcDbSpline
 70
8
 71
3
 72
8
 73
4
 74
0
 40
0
 40
0
 40
0
 40
0
 40
1
 40
1
 40
1
 40
1
 10
508.481573
 20
343.812045
 30
0.0
 10
488.157345
 20
307.136745
 30
0.0
 10
486.244950
 20
304.054395
 30
0.0
 10
483.627525
 20
303.753045
 30
0.0
  0
SPLINE
  5
154
100
AcDbEntity
  8
0
 62
7
100
AcDbSpline
 70
8
 71
3
 72
8
 73
4
 74
0
 40
0
 40
0
 40
0
 40
0
 40
1
 40
1
 40
1
 40
1
 10
483.627525
 20
303.753045
 30
0.0
 10
482.067923
 20
303.573495
 30
0.0
 10
460.853205
 20
307.329420
 30
0.0
 10
436.483688
 20
312.099495
 30
0.0
  0
LWPOLYLINE
  5
155
100
AcDbEntity
  8
0
 62
7
100
AcDbPolyline
 90
3
 70
0
 10
743.428815
 20
435.935670
 30
0.0
 10
728.554170
 20
479.330295
 30
0.0
 10
686.733630
 20
497.121593
 30
0.0
  0
SPLINE
  5
156
100
AcDbEntity
  8
0
 62
7
100
AcDbSpline
 70
8
 71
3
 72
8
 73
4
 74
0
 40
0
 40
0
 40
0
 40
0
 40
1
 40
1
 40
1
 40
1
 10
355.337738
 20
293.034120
 30
0.0
 10
335.076990
 20
277.778145
 30
0.0
 10
317.793570
 20
265.103445
 30
0.0
 10
316.930148
 20
264.868245
 30
0.0
  0
SPLINE
  5
157
100
AcDbEntity
  8
0
 62
7
100
AcDbSpline
 70
8
 71
3
 72
8
 73
4
 74
0
 40
0
 40
0
 40
0
 40
0
 40
1
 40
1
 40
1
 40
1
 10
316.930148
 20
264.868245
 30
0.0
 10
316.066725
 20
264.632970
 30
0.0
 10
314.898435
 20
265.034295
 30
0.0
 10
314.333940
 20
265.759995
 30
0.0
  0
SPLINE
  5
158
100
AcDbEntity
  8
0
 62
7
100
AcDbSpline
 70
8
 71
3
 72
8
 73
4
 74
0
 40
0
 40
0
 40
0
 40
0
 40
1
 40
1
 40
1
 40
1
 10
314.333940
 20
265.759995
 30
0.0
 10
313.769445
 20
266.485770
 30
0.0
 10
311.175150
 20
284.854545
 30
0.0
 10
308.568840
 20
306.579570
 30
0.0
  0
SPLINE
  5
159
100
AcDbEntity
  8
0
 62
7
100
AcDbSpline
 70
8
 71
3
 72
8
 73
4
 74
0
 40
0
 40
0
 40
0
 40
0
 40
1
 40
1
 40
1
 40
1
 10
308.568840
 20
306.579570
 30
0.0
 10
305.962515
 20
328.304520
 30
0.0
 10
303.530820
 20
347.318895
 30
0.0
 10
303.165045
 20
348.833595
 30
0.0
  0
SPLINE
  5
15a
100
AcDbEntity
  8
0
 62
7
100
AcDbSpline
 70
8
 71
3
 72
8
 73
4
 74
0
 40
0
 40
0
 40
0
 40
0
 40
1
 40
1
 40
1
 40
1
 10
303.165045
 20
348.833595
 30
0.0
 10
302.581260
 20
351.251220
 30
0.0
 10
299.961878
 20
347.018145
 30
0.0
 10
281.724698
 20
314.185020
 30
0.0
  0
SPLINE
  5
15b
100
AcDbEntity
  8
0
 62
7
100
AcDbSpline
 70
8
 71
3
 72
8
 73
4
 74
0
 40
0
 40
0
 40
0
 40
0
 40
1
 40
1
 40
1
 40
1
 10
281.724698
 20
314.185020
 30
0.0
 10
270.298275
 20
293.613570
 30
0.0
 10
260.398275
 20
276.336945
 30
0.0
 10
259.724700
 20
275.792445
 30
0.0
  0
SPLINE
  5
15c
100
AcDbEntity
  8
0
 62
7
100
AcDbSpline
 70
8
 71
3
 72
8
 73
4
 74
0
 40
0
 40
0
 40
0
 40
0
 40
1
 40
1
 40
1
 40
1
 10
259.724700
 20
275.792445
 30
0.0
 10
256.816770
 20
273.441870
 30
0.0
 10
173.843378
 20
235.588350
 30
0.0
 10
171.780728
 20
235.671300
 30
0.0
  0
SPLINE
  5
15d
100
AcDbEntity
  8
0
 62
7
100
AcDbSpline
 70
8
 71
3
 72
8
 73
4
 74
0
 40
0
 40
0
 40
0
 40
0
 40
1
 40
1
 40
1
 40
1
 10
171.780728
 20
235.671300
 30
0.0
 10
170.526330
 20
235.721550
 30
0.0
 10
149.400855
 20
239.727900
 30
0.0
 10
124.835220
 20
244.573875
 30
0.0
  0
LWPOLYLINE
  5
15e
100
AcDbEntity
  8
0
 62
7
100
AcDbPolyline
 90
3
 70
0
 10
436.483688
 20
312.099495
 30
0.0
 10
392.175465
 20
320.772345
 30
0.0
 10
355.337738
 20
293.034120
 30
0.0
  0
LWPOLYLINE
  5
15f
100
AcDbEntity
  8
0
 62
7
100
AcDbPolyline
 90
1
 70
1
 10
124.835220
 20
244.573875
 30
0.0
  0
SPLINE
  5
160
100
AcDbEntity
  8
0
 62
7
100
AcDbSpline
 70
8
 71
3
 72
8
 73
4
 74
0
 40
0
 40
0
 40
0
 40
0
 40
1
 40
1
 40
1
 40
1
 10
278.620447
 20
320.079570
 30
0.0
 10
290.880705
 20
342.079545
 30
0.0
 10
300.924900
 20
361.204545
 30
0.0
 10
300.940867
 20
362.579520
 30
0.0
  0
SPLINE
  5
161
100
AcDbEntity
  8
0
 62
7
100
AcDbSpline
 70
8
 71
3
 72
8
 73
4
 74
0
 40
0
 40
0
 40
0
 40
0
 40
1
 40
1
 40
1
 40
1
 10
300.940867
 20
362.579520
 30
0.0
 10
300.956842
 20
363.954570
 30
0.0
 10
298.546590
 20
384.811770
 30
0.0
 10
295.584735
 20
408.928995
 30
0.0
  0
LWPOLYLINE
  5
162
100
AcDbEntity
  8
0
 62
7
100
AcDbPolyline
 90
3
 70
0
 10
213.988583
 20
260.329545
 30
0.0
 10
256.329068
 20
280.079520
 30
0.0
 10
278.620447
 20
320.079570
 30
0.0
  0
SPLINE
  5
163
100
AcDbEntity
  8
0
 62
7
100
AcDbSpline
 70
8
 71
3
 72
8
 73
4
 74
0
 40
0
 40
0
 40
0
 40
0
 40
1
 40
1
 40
1
 40
1
 10
287.275575
 20
455.929020
 30
0.0
 10
273.484388
 20
470.788770
 30
0.0
 10
229.427430
 20
518.351693
 30
0.0
 10
228.522667
 20
519.357300
 30
0.0
  0
SPLINE
  5
164
100
AcDbEntity
  8
0
 62
7
100
AcDbSpline
 70
8
 71
3
 72
8
 73
4
 74
0
 40
0
 40
0
 40
0
 40
0
 40
1
 40
1
 40
1
 40
1
 10
228.522667
 20
519.357300
 30
0.0
 10
227.890380
 20
520.060073
 30
0.0
 10
206.926620
 20
524.644373
 30
0.0
 10
181.936530
 20
529.544640
 30
0.0
  0
LWPOLYLINE
  5
165
100
AcDbEntity
  8
0
 62
7
100
AcDbPolyline
 90
3
 70
0
 10
295.584735
 20
408.928995
 30
0.0
 10
290.199570
 20
452.778420
 30
0.0
 10
287.275575
 20
455.929020
 30
0.0
  0
SPLINE
  5
166
100
AcDbEntity
  8
0
 62
7
100
AcDbSpline
 70
8
 71
3
 72
8
 73
4
 74
0
 40
0
 40
0
 40
0
 40
0
 40
1
 40
1
 40
1
 40
1
 10
12.521491
 20
373.579545
 30
0.0
 10
15.524461
 20
349.104570
 30
0.0
 10
17.985616
 20
328.521570
 30
0.0
 10
17.990725
 20
327.839595
 30
0.0
  0
SPLINE
  5
167
100
AcDbEntity
  8
0
 62
7
100
AcDbSpline
 70
8
 71
3
 72
8
 73
4
 74
0
 40
0
 40
0
 40
0
 40
0
 40
1
 40
1
 40
1
 40
1
 10
17.990725
 20
327.839595
 30
0.0
 10
17.998150
 20
326.851995
 30
0.0
 10
61.932455
 20
278.806545
 30
0.0
 10
77.887380
 20
262.338195
 30
0.0
  0
LWPOLYLINE
  5
168
100
AcDbEntity
  8
0
 62
7
100
AcDbPolyline
 90
7
 70
0
 10
181.936530
 20
529.544640
 30
0.0
 10
136.500015
 20
538.454220
 30
0.0
 10
94.280062
 20
518.852370
 30
0.0
 10
52.060117
 20
499.250520
 30
0.0
 10
29.560831
 20
458.665020
 30
0.0
 10
7.061545
 20
418.079520
 30
0.0
 10
12.521491
 20
373.579545
 30
0.0
  0
SPLINE
  5
169
100
AcDbEntity
  8
0
 62
7
100
AcDbSpline
 70
8
 71
3
 72
8
 73
4
 74
0
 40
0
 40
0
 40
0
 40
0
 40
1
 40
1
 40
1
 40
1
 10
126.506032
 20
249.702825
 30
0.0
 10
151.252717
 20
244.811100
 30
0.0
 10
171.533332
 20
240.757200
 30
0.0
 10
171.574050
 20
240.694200
 30
0.0
  0
SPLINE
  5
16a
100
AcDbEntity
  8
0
 62
7
100
AcDbSpline
 70
8
 71
3
 72
8
 73
4
 74
0
 40
0
 40
0
 40
0
 40
0
 40
1
 40
1
 40
1
 40
1
 10
171.574050
 20
240.694200
 30
0.0
 10
171.614775
 20
240.631200
 30
0.0
 10
190.701307
 20
249.467100
 30
0.0
 10
213.988582
 20
260.329545
 30
0.0
  0
LWPOLYLINE
  5
16b
100
AcDbEntity
  8
0
 62
7
100
AcDbPolyline
 90
3
 70
0
 10
77.887380
 20
262.338195
 30
0.0
 10
81.512062
 20
258.596895
 30
0.0
 10
126.506032
 20
249.702825
 30
0.0
  0
SPLINE
  5
16c
100
AcDbEntity
  8
0
 62
7
100
AcDbSpline
 70
8
 71
3
 72
8
 73
4
 74
0
 40
0
 40
0
 40
0
 40
0
 40
1
 40
1
 40
1
 40
1
 10
944.760150
 20
264.858120
 30
0.0
 10
967.200375
 20
275.283870
 30
0.0
 10
972.760725
 20
278.239770
 30
0.0
 10
971.760150
 20
279.211320
 30
0.0
  0
SPLINE
  5
16d
100
AcDbEntity
  8
0
 62
7
100
AcDbSpline
 70
8
 71
3
 72
8
 73
4
 74
0
 40
0
 40
0
 40
0
 40
0
 40
1
 40
1
 40
1
 40
1
 10
971.760150
 20
279.211320
 30
0.0
 10
971.067075
 20
279.884220
 30
0.0
 10
955.650000
 20
290.836170
 30
0.0
 10
937.500000
 20
303.548970
 30
0.0
  0
LWPOLYLINE
  5
16e
100
AcDbEntity
  8
0
 62
7
100
AcDbPolyline
 90
1
 70
1
 10
213.988582
 20
260.329545
 30
0.0
  0
SPLINE
  5
16f
100
AcDbEntity
  8
0
 62
7
100
AcDbSpline
 70
8
 71
3
 72
8
 73
4
 74
0
 40
0
 40
0
 40
0
 40
0
 40
1
 40
1
 40
1
 40
1
 10
901.360125
 20
291.371295
 30
0.0
 10
899.633175
 20
271.960845
 30
0.0
 10
897.943800
 20
253.055925
 30
0.0
 10
897.606000
 20
249.360375
 30
0.0
  0
LWPOLYLINE
  5
170
100
AcDbEntity
  8
0
 62
7
100
AcDbPolyline
 90
3
 70
0
 10
937.500000
 20
303.548970
 30
0.0
 10
904.500000
 20
326.663145
 30
0.0
 10
901.360125
 20
291.371295
 30
0.0
  0
SPLINE
  5
171
100
AcDbEntity
  8
0
 62
7
100
AcDbSpline
 70
8
 71
3
 72
8
 73
4
 74
0
 40
0
 40
0
 40
0
 40
0
 40
1
 40
1
 40
1
 40
1
 10
906.745875
 20
247.184850
 30
0.0
 10
912.110625
 20
249.683850
 30
0.0
 10
929.217075
 20
257.636820
 30
0.0
 10
944.760150
 20
264.858120
 30
0.0
  0
LWPOLYLINE
  5
172
100
AcDbEntity
  8
0
 62
7
100
AcDbPolyline
 90
3
 70
0
 10
897.606000
 20
249.360375
 30
0.0
 10
896.991750
 20
242.641275
 30
0.0
 10
906.745875
 20
247.184850
 30
0.0
  0
SPLINE
  5
173
100
AcDbEntity
  8
0
 62
7
100
AcDbSpline
 70
8
 71
3
 72
8
 73
4
 74
0
 40
0
 40
0
 40
0
 40
0
 40
1
 40
1
 40
1
 40
1
 10
352.322505
 20
297.579570
 30
0.0
 10
370.208017
 20
311.054520
 30
0.0
 10
384.539752
 20
322.393920
 30
0.0
 10
384.170805
 20
322.778220
 30
0.0
  0
SPLINE
  5
174
100
AcDbEntity
  8
0
 62
7
100
AcDbSpline
 70
8
 71
3
 72
8
 73
4
 74
0
 40
0
 40
0
 40
0
 40
0
 40
1
 40
1
 40
1
 40
1
 10
384.170805
 20
322.778220
 30
0.0
 10
383.336317
 20
323.647320
 30
0.0
 10
308.604960
 20
355.461570
 30
0.0
 10
308.221650
 20
355.110870
 30
0.0
  0
SPLINE
  5
175
100
AcDbEntity
  8
0
 62
7
100
AcDbSpline
 70
8
 71
3
 72
8
 73
4
 74
0
 40
0
 40
0
 40
0
 40
0
 40
1
 40
1
 40
1
 40
1
 10
308.221650
 20
355.110870
 30
0.0
 10
307.987177
 20
354.896295
 30
0.0
 10
315.702885
 20
290.052045
 30
0.0
 10
317.543325
 20
276.769620
 30
0.0
  0
SPLINE
  5
176
100
AcDbEntity
  8
0
 62
7
100
AcDbSpline
 70
8
 71
3
 72
8
 73
4
 74
0
 40
0
 40
0
 40
0
 40
0
 40
1
 40
1
 40
1
 40
1
 10
317.543325
 20
276.769620
 30
0.0
 10
317.871787
 20
274.399170
 30
0.0
 10
318.514665
 20
272.599170
 30
0.0
 10
318.971970
 20
272.769645
 30
0.0
  0
SPLINE
  5
177
100
AcDbEntity
  8
0
 62
7
100
AcDbSpline
 70
8
 71
3
 72
8
 73
4
 74
0
 40
0
 40
0
 40
0
 40
0
 40
1
 40
1
 40
1
 40
1
 10
318.971970
 20
272.769645
 30
0.0
 10
319.429260
 20
272.940045
 30
0.0
 10
334.437007
 20
284.104545
 30
0.0
 10
352.322505
 20
297.579570
 30
0.0
  0
LWPOLYLINE
  5
178
100
AcDbEntity
  8
0
 62
7
100
AcDbPolyline
 90
1
 70
1
 10
944.760150
 20
264.858120
 30
0.0
  0
SPLINE
  5
179
100
AcDbEntity
  8
0
 62
7
100
AcDbSpline
 70
8
 71
3
 72
8
 73
4
 74
0
 40
0
 40
0
 40
0
 40
0
 40
1
 40
1
 40
1
 40
1
 10
981.056250
 20
327.335445
 30
0.0
 10
982.852125
 20
348.376245
 30
0.0
 10
984.108150
 20
365.804670
 30
0.0
 10
983.847450
 20
366.065445
 30
0.0
  0
SPLINE
  5
17a
100
AcDbEntity
  8
0
 62
7
100
AcDbSpline
 70
8
 71
3
 72
8
 73
4
 74
0
 40
0
 40
0
 40
0
 40
0
 40
1
 40
1
 40
1
 40
1
 10
983.847450
 20
366.065445
 30
0.0
 10
983.242350
 20
366.670470
 30
0.0
 10
909.076200
 20
332.309295
 30
0.0
 10
909.032550
 20
331.403670
 30
0.0
  0
SPLINE
  5
17b
100
AcDbEntity
  8
0
 62
7
100
AcDbSpline
 70
8
 71
3
 72
8
 73
4
 74
0
 40
0
 40
0
 40
0
 40
0
 40
1
 40
1
 40
1
 40
1
 10
909.032550
 20
331.403670
 30
0.0
 10
909.014550
 20
331.031895
 30
0.0
 10
924.180150
 20
320.088945
 30
0.0
 10
942.733650
 20
307.085895
 30
0.0
  0
LWPOLYLINE
  5
17c
100
AcDbEntity
  8
0
 62
7
100
AcDbPolyline
 90
1
 70
1
 10
352.322505
 20
297.579570
 30
0.0
  0
SPLINE
  5
17d
100
AcDbEntity
  8
0
 62
7
100
AcDbSpline
 70
8
 71
3
 72
8
 73
4
 74
0
 40
0
 40
0
 40
0
 40
0
 40
1
 40
1
 40
1
 40
1
 10
977.129175
 20
286.261770
 30
0.0
 10
977.493225
 20
287.811570
 30
0.0
 10
979.260450
 20
306.294720
 30
0.0
 10
981.056250
 20
327.335445
 30
0.0
  0
LWPOLYLINE
  5
17e
100
AcDbEntity
  8
0
 62
7
100
AcDbPolyline
 90
3
 70
0
 10
942.733650
 20
307.085895
 30
0.0
 10
976.467300
 20
283.443945
 30
0.0
 10
977.129175
 20
286.261770
 30
0.0
  0
LWPOLYLINE
  5
17f
100
AcDbEntity
  8
0
 62
7
100
AcDbPolyline
 90
1
 70
1
 10
981.056250
 20
327.335445
 30
0.0
  0
SPLINE
  5
180
100
AcDbEntity
  8
0
 62
7
100
AcDbSpline
 70
8
 71
3
 72
8
 73
4
 74
0
 40
0
 40
0
 40
0
 40
0
 40
1
 40
1
 40
1
 40
1
 10
499.286242
 20
417.455670
 30
0.0
 10
484.128465
 20
433.748820
 30
0.0
 10
470.261535
 20
448.598670
 30
0.0
 10
468.470842
 20
450.455370
 30
0.0
  0
LWPOLYLINE
  5
181
100
AcDbEntity
  8
0
 62
7
100
AcDbPolyline
 90
3
 70
0
 10
504.844282
 20
348.205695
 30
0.0
 10
526.845855
 20
387.831795
 30
0.0
 10
499.286242
 20
417.455670
 30
0.0
  0
SPLINE
  5
182
100
AcDbEntity
  8
0
 62
7
100
AcDbSpline
 70
8
 71
3
 72
8
 73
4
 74
0
 40
0
 40
0
 40
0
 40
0
 40
1
 40
1
 40
1
 40
1
 10
424.857525
 20
435.090120
 30
0.0
 10
402.660892
 20
424.782570
 30
0.0
 10
384.172215
 20
416.050695
 30
0.0
 10
383.771587
 20
415.685895
 30
0.0
  0
SPLINE
  5
183
100
AcDbEntity
  8
0
 62
7
100
AcDbSpline
 70
8
 71
3
 72
8
 73
4
 74
0
 40
0
 40
0
 40
0
 40
0
 40
1
 40
1
 40
1
 40
1
 10
383.771587
 20
415.685895
 30
0.0
 10
383.131642
 20
415.103295
 30
0.0
 10
393.421297
 20
326.824920
 30
0.0
 10
394.222537
 20
326.023695
 30
0.0
  0
SPLINE
  5
184
100
AcDbEntity
  8
0
 62
7
100
AcDbSpline
 70
8
 71
3
 72
8
 73
4
 74
0
 40
0
 40
0
 40
0
 40
0
 40
1
 40
1
 40
1
 40
1
 10
394.222537
 20
326.023695
 30
0.0
 10
394.558425
 20
325.687770
 30
0.0
 10
479.716365
 20
308.770170
 30
0.0
 10
481.671352
 20
308.650995
 30
0.0
  0
SPLINE
  5
185
100
AcDbEntity
  8
0
 62
7
100
AcDbSpline
 70
8
 71
3
 72
8
 73
4
 74
0
 40
0
 40
0
 40
0
 40
0
 40
1
 40
1
 40
1
 40
1
 10
481.671352
 20
308.650995
 30
0.0
 10
482.315602
 20
308.611995
 30
0.0
 10
492.743415
 20
326.411295
 30
0.0
 10
504.844282
 20
348.205695
 30
0.0
  0
LWPOLYLINE
  5
186
100
AcDbEntity
  8
0
 62
7
100
AcDbPolyline
 90
3
 70
0
 10
468.470842
 20
450.455370
 30
0.0
 10
465.215055
 20
453.831120
 30
0.0
 10
424.857525
 20
435.090120
 30
0.0
  0
SPLINE
  5
187
100
AcDbEntity
  8
0
 62
7
100
AcDbSpline
 70
8
 71
3
 72
8
 73
4
 74
0
 40
0
 40
0
 40
0
 40
0
 40
1
 40
1
 40
1
 40
1
 10
767.361450
 20
313.000395
 30
0.0
 10
787.085250
 20
313.258170
 30
0.0
 10
803.441325
 20
313.687545
 30
0.0
 10
803.708325
 20
313.954545
 30
0.0
  0
SPLINE
  5
188
100
AcDbEntity
  8
0
 62
7
100
AcDbSpline
 70
8
 71
3
 72
8
 73
4
 74
0
 40
0
 40
0
 40
0
 40
0
 40
1
 40
1
 40
1
 40
1
 10
803.708325
 20
313.954545
 30
0.0
 10
804.091875
 20
314.338170
 30
0.0
 10
767.319675
 20
376.675245
 30
0.0
 10
762.476100
 20
383.852370
 30
0.0
  0
SPLINE
  5
189
100
AcDbEntity
  8
0
 62
7
100
AcDbSpline
 70
8
 71
3
 72
8
 73
4
 74
0
 40
0
 40
0
 40
0
 40
0
 40
1
 40
1
 40
1
 40
1
 10
762.476100
 20
383.852370
 30
0.0
 10
761.444025
 20
385.381770
 30
0.0
 10
758.465250
 20
380.555370
 30
0.0
 10
740.787240
 20
348.710595
 30
0.0
  0
LWPOLYLINE
  5
18a
100
AcDbEntity
  8
0
 62
7
100
AcDbPolyline
 90
1
 70
1
 10
504.844282
 20
348.205695
 30
0.0
  0
SPLINE
  5
18b
100
AcDbEntity
  8
0
 62
7
100
AcDbSpline
 70
8
 71
3
 72
8
 73
4
 74
0
 40
0
 40
0
 40
0
 40
0
 40
1
 40
1
 40
1
 40
1
 10
725.897400
 20
312.163770
 30
0.0
 10
728.978827
 20
312.366045
 30
0.0
 10
747.637657
 20
312.742545
 30
0.0
 10
767.361450
 20
313.000395
 30
0.0
  0
LWPOLYLINE
  5
18c
100
AcDbEntity
  8
0
 62
7
100
AcDbPolyline
 90
3
 70
0
 10
740.787240
 20
348.710595
 30
0.0
 10
720.294787
 20
311.795895
 30
0.0
 10
725.897400
 20
312.163770
 30
0.0
  0
SPLINE
  5
18d
100
AcDbEntity
  8
0
 62
7
100
AcDbSpline
 70
8
 71
3
 72
8
 73
4
 74
0
 40
0
 40
0
 40
0
 40
0
 40
1
 40
1
 40
1
 40
1
 10
899.327100
 20
334.667070
 30
0.0
 10
900.252225
 20
335.864145
 30
0.0
 10
907.176600
 20
423.789045
 30
0.0
 10
906.400125
 20
424.478520
 30
0.0
  0
SPLINE
  5
18e
100
AcDbEntity
  8
0
 62
7
100
AcDbSpline
 70
8
 71
3
 72
8
 73
4
 74
0
 40
0
 40
0
 40
0
 40
0
 40
1
 40
1
 40
1
 40
1
 10
906.400125
 20
424.478520
 30
0.0
 10
905.905050
 20
424.918095
 30
0.0
 10
887.135475
 20
433.065045
 30
0.0
 10
864.689925
 20
442.582845
 30
0.0
  0
SPLINE
  5
18f
100
AcDbEntity
  8
0
 62
7
100
AcDbSpline
 70
8
 71
3
 72
8
 73
4
 74
0
 40
0
 40
0
 40
0
 40
0
 40
1
 40
1
 40
1
 40
1
 10
864.689925
 20
442.582845
 30
0.0
 10
830.093400
 20
457.253220
 30
0.0
 10
823.683450
 20
459.674220
 30
0.0
 10
822.589875
 20
458.483745
 30
0.0
  0
SPLINE
  5
190
100
AcDbEntity
  8
0
 62
7
100
AcDbSpline
 70
8
 71
3
 72
8
 73
4
 74
0
 40
0
 40
0
 40
0
 40
0
 40
1
 40
1
 40
1
 40
1
 10
822.589875
 20
458.483745
 30
0.0
 10
820.372725
 20
456.070170
 30
0.0
 10
767.574675
 20
395.118045
 30
0.0
 10
766.117200
 20
393.289545
 30
0.0
  0
SPLINE
  5
191
100
AcDbEntity
  8
0
 62
7
100
AcDbSpline
 70
8
 71
3
 72
8
 73
4
 74
0
 40
0
 40
0
 40
0
 40
0
 40
1
 40
1
 40
1
 40
1
 10
766.117200
 20
393.289545
 30
0.0
 10
764.885550
 20
391.744245
 30
0.0
 10
767.276400
 20
387.314970
 30
0.0
 10
787.994175
 20
352.759920
 30
0.0
  0
LWPOLYLINE
  5
192
100
AcDbEntity
  8
0
 62
7
100
AcDbPolyline
 90
1
 70
1
 10
767.361450
 20
313.000395
 30
0.0
  0
SPLINE
  5
193
100
AcDbEntity
  8
0
 62
7
100
AcDbSpline
 70
8
 71
3
 72
8
 73
4
 74
0
 40
0
 40
0
 40
0
 40
0
 40
1
 40
1
 40
1
 40
1
 10
855.131175
 20
324.109845
 30
0.0
 10
879.263625
 20
329.689470
 30
0.0
 10
899.151750
 20
334.440195
 30
0.0
 10
899.327100
 20
334.667070
 30
0.0
  0
LWPOLYLINE
  5
194
100
AcDbEntity
  8
0
 62
7
100
AcDbPolyline
 90
3
 70
0
 10
787.994175
 20
352.759920
 30
0.0
 10
811.253925
 20
313.965195
 30
0.0
 10
855.131175
 20
324.109845
 30
0.0
  0
SPLINE
  5
195
100
AcDbEntity
  8
0
 62
7
100
AcDbSpline
 70
8
 71
3
 72
8
 73
4
 74
0
 40
0
 40
0
 40
0
 40
0
 40
1
 40
1
 40
1
 40
1
 10
643.081920
 20
364.132695
 30
0.0
 10
662.561857
 20
378.736920
 30
0.0
 10
678.651667
 20
391.116945
 30
0.0
 10
678.837045
 20
391.643820
 30
0.0
  0
SPLINE
  5
196
100
AcDbEntity
  8
0
 62
7
100
AcDbSpline
 70
8
 71
3
 72
8
 73
4
 74
0
 40
0
 40
0
 40
0
 40
0
 40
1
 40
1
 40
1
 40
1
 10
678.837045
 20
391.643820
 30
0.0
 10
679.171080
 20
392.593245
 30
0.0
 10
651.397170
 20
474.450870
 30
0.0
 10
650.149275
 20
476.194845
 30
0.0
  0
SPLINE
  5
197
100
AcDbEntity
  8
0
 62
7
100
AcDbSpline
 70
8
 71
3
 72
8
 73
4
 74
0
 40
0
 40
0
 40
0
 40
0
 40
1
 40
1
 40
1
 40
1
 10
650.149275
 20
476.194845
 30
0.0
 10
649.520482
 20
477.073620
 30
0.0
 10
561.163680
 20
476.076570
 30
0.0
 10
560.267707
 20
475.180545
 30
0.0
  0
SPLINE
  5
198
100
AcDbEntity
  8
0
 62
7
100
AcDbSpline
 70
8
 71
3
 72
8
 73
4
 74
0
 40
0
 40
0
 40
0
 40
0
 40
1
 40
1
 40
1
 40
1
 10
560.267707
 20
475.180545
 30
0.0
 10
559.468260
 20
474.381120
 30
0.0
 10
533.943742
 20
390.248295
 30
0.0
 10
534.235290
 20
389.373645
 30
0.0
  0
SPLINE
  5
199
100
AcDbEntity
  8
0
 62
7
100
AcDbSpline
 70
8
 71
3
 72
8
 73
4
 74
0
 40
0
 40
0
 40
0
 40
0
 40
1
 40
1
 40
1
 40
1
 10
534.235290
 20
389.373645
 30
0.0
 10
534.520680
 20
388.517520
 30
0.0
 10
605.933632
 20
337.822995
 30
0.0
 10
607.081920
 20
337.661445
 30
0.0
  0
SPLINE
  5
19a
100
AcDbEntity
  8
0
 62
7
100
AcDbSpline
 70
8
 71
3
 72
8
 73
4
 74
0
 40
0
 40
0
 40
0
 40
0
 40
1
 40
1
 40
1
 40
1
 10
607.081920
 20
337.661445
 30
0.0
 10
607.401967
 20
337.616445
 30
0.0
 10
623.601967
 20
349.528470
 30
0.0
 10
643.081920
 20
364.132695
 30
0.0
  0
LWPOLYLINE
  5
19b
100
AcDbEntity
  8
0
 62
7
100
AcDbPolyline
 90
1
 70
1
 10
899.327100
 20
334.667070
 30
0.0
  0
SPLINE
  5
19c
100
AcDbEntity
  8
0
 62
7
100
AcDbSpline
 70
8
 71
3
 72
8
 73
4
 74
0
 40
0
 40
0
 40
0
 40
0
 40
1
 40
1
 40
1
 40
1
 10
340.965330
 20
391.553520
 30
0.0
 10
371.384917
 20
414.366195
 30
0.0
 10
374.060722
 20
416.607270
 30
0.0
 10
371.883502
 20
417.448845
 30
0.0
  0
SPLINE
  5
19d
100
AcDbEntity
  8
0
 62
7
100
AcDbSpline
 70
8
 71
3
 72
8
 73
4
 74
0
 40
0
 40
0
 40
0
 40
0
 40
1
 40
1
 40
1
 40
1
 10
371.883502
 20
417.448845
 30
0.0
 10
370.572577
 20
417.955545
 30
0.0
 10
353.975002
 20
424.982895
 30
0.0
 10
335.000010
 20
433.065195
 30
0.0
  0
SPLINE
  5
19e
100
AcDbEntity
  8
0
 62
7
100
AcDbSpline
 70
8
 71
3
 72
8
 73
4
 74
0
 40
0
 40
0
 40
0
 40
0
 40
1
 40
1
 40
1
 40
1
 10
335.000010
 20
433.065195
 30
0.0
 10
316.025010
 20
441.147495
 30
0.0
 10
299.580480
 20
448.123170
 30
0.0
 10
298.456620
 20
448.566645
 30
0.0
  0
SPLINE
  5
19f
100
AcDbEntity
  8
0
 62
7
100
AcDbSpline
 70
8
 71
3
 72
8
 73
4
 74
0
 40
0
 40
0
 40
0
 40
0
 40
1
 40
1
 40
1
 40
1
 10
298.456620
 20
448.566645
 30
0.0
 10
296.461867
 20
449.353770
 30
0.0
 10
296.515117
 20
448.548645
 30
0.0
 10
300.693607
 20
414.726270
 30
0.0
  0
SPLINE
  5
1a0
100
AcDbEntity
  8
0
 62
7
100
AcDbSpline
 70
8
 71
3
 72
8
 73
4
 74
0
 40
0
 40
0
 40
0
 40
0
 40
1
 40
1
 40
1
 40
1
 10
300.693607
 20
414.726270
 30
0.0
 10
303.047805
 20
395.670570
 30
0.0
 10
305.269455
 20
377.042070
 30
0.0
 10
305.630595
 20
373.329570
 30
0.0
  0
SPLINE
  5
1a1
100
AcDbEntity
  8
0
 62
7
100
AcDbSpline
 70
8
 71
3
 72
8
 73
4
 74
0
 40
0
 40
0
 40
0
 40
0
 40
1
 40
1
 40
1
 40
1
 10
305.630595
 20
373.329570
 30
0.0
 10
305.991727
 20
369.617070
 30
0.0
 10
306.596910
 20
366.579570
 30
0.0
 10
306.975427
 20
366.579570
 30
0.0
  0
SPLINE
  5
1a2
100
AcDbEntity
  8
0
 62
7
100
AcDbSpline
 70
8
 71
3
 72
8
 73
4
 74
0
 40
0
 40
0
 40
0
 40
0
 40
1
 40
1
 40
1
 40
1
 10
306.975427
 20
366.579570
 30
0.0
 10
307.353960
 20
366.579570
 30
0.0
 10
322.649407
 20
377.817870
 30
0.0
 10
340.965330
 20
391.553520
 30
0.0
  0
LWPOLYLINE
  5
1a3
100
AcDbEntity
  8
0
 62
7
100
AcDbPolyline
 90
1
 70
1
 10
643.081920
 20
364.132695
 30
0.0
  0
SPLINE
  5
1a4
100
AcDbEntity
  8
0
 62
7
100
AcDbSpline
 70
8
 71
3
 72
8
 73
4
 74
0
 40
0
 40
0
 40
0
 40
0
 40
1
 40
1
 40
1
 40
1
 10
988.904175
 20
417.079545
 30
0.0
 10
990.671550
 20
437.979570
 30
0.0
 10
992.360325
 20
456.510795
 30
0.0
 10
992.657025
 20
458.260170
 30
0.0
  0
LWPOLYLINE
  5
1a5
100
AcDbEntity
  8
0
 62
7
100
AcDbPolyline
 90
1
 70
1
 10
340.965330
 20
391.553520
 30
0.0
  0
SPLINE
  5
1a6
100
AcDbEntity
  8
0
 62
7
100
AcDbSpline
 70
8
 71
3
 72
8
 73
4
 74
0
 40
0
 40
0
 40
0
 40
0
 40
1
 40
1
 40
1
 40
1
 10
955.119900
 20
443.760195
 30
0.0
 10
934.177800
 20
434.035845
 30
0.0
 10
917.036250
 20
425.854545
 30
0.0
 10
917.027550
 20
425.579520
 30
0.0
  0
SPLINE
  5
1a7
100
AcDbEntity
  8
0
 62
7
100
AcDbSpline
 70
8
 71
3
 72
8
 73
4
 74
0
 40
0
 40
0
 40
0
 40
0
 40
1
 40
1
 40
1
 40
1
 10
917.027550
 20
425.579520
 30
0.0
 10
916.995300
 20
424.563645
 30
0.0
 10
984.521250
 20
377.775120
 30
0.0
 10
985.095375
 20
378.415470
 30
0.0
  0
SPLINE
  5
1a8
100
AcDbEntity
  8
0
 62
7
100
AcDbSpline
 70
8
 71
3
 72
8
 73
4
 74
0
 40
0
 40
0
 40
0
 40
0
 40
1
 40
1
 40
1
 40
1
 10
985.095375
 20
378.415470
 30
0.0
 10
985.422825
 20
378.780720
 30
0.0
 10
987.136800
 20
396.179520
 30
0.0
 10
988.904175
 20
417.079545
 30
0.0
  0
LWPOLYLINE
  5
1a9
100
AcDbEntity
  8
0
 62
7
100
AcDbPolyline
 90
3
 70
0
 10
992.657025
 20
458.260170
 30
0.0
 10
993.196500
 20
461.440770
 30
0.0
 10
955.119900
 20
443.760195
 30
0.0
  0
SPLINE
  5
1aa
100
AcDbEntity
  8
0
 62
7
100
AcDbSpline
 70
8
 71
3
 72
8
 73
4
 74
0
 40
0
 40
0
 40
0
 40
0
 40
1
 40
1
 40
1
 40
1
 10
540.917685
 20
433.476570
 30
0.0
 10
547.562962
 20
455.143845
 30
0.0
 10
552.999997
 20
473.181345
 30
0.0
 10
552.999997
 20
473.559870
 30
0.0
  0
SPLINE
  5
1ab
100
AcDbEntity
  8
0
 62
7
100
AcDbSpline
 70
8
 71
3
 72
8
 73
4
 74
0
 40
0
 40
0
 40
0
 40
0
 40
1
 40
1
 40
1
 40
1
 10
552.999997
 20
473.559870
 30
0.0
 10
552.999997
 20
473.938395
 30
0.0
 10
534.887505
 20
470.055120
 30
0.0
 10
512.750002
 20
464.930445
 30
0.0
  0
SPLINE
  5
1ac
100
AcDbEntity
  8
0
 62
7
100
AcDbSpline
 70
8
 71
3
 72
8
 73
4
 74
0
 40
0
 40
0
 40
0
 40
0
 40
1
 40
1
 40
1
 40
1
 10
512.750002
 20
464.930445
 30
0.0
 10
490.612500
 20
459.805695
 30
0.0
 10
472.151122
 20
455.605245
 30
0.0
 10
471.724710
 20
455.596170
 30
0.0
  0
SPLINE
  5
1ad
100
AcDbEntity
  8
0
 62
7
100
AcDbSpline
 70
8
 71
3
 72
8
 73
4
 74
0
 40
0
 40
0
 40
0
 40
0
 40
1
 40
1
 40
1
 40
1
 10
471.724710
 20
455.596170
 30
0.0
 10
471.298305
 20
455.587170
 30
0.0
 10
483.898305
 20
441.686595
 30
0.0
 10
499.724715
 20
424.706370
 30
0.0
  0
SPLINE
  5
1ae
100
AcDbEntity
  8
0
 62
7
100
AcDbSpline
 70
8
 71
3
 72
8
 73
4
 74
0
 40
0
 40
0
 40
0
 40
0
 40
1
 40
1
 40
1
 40
1
 10
499.724715
 20
424.706370
 30
0.0
 10
515.551125
 20
407.726145
 30
0.0
 10
528.575460
 20
393.889095
 30
0.0
 10
528.667680
 20
393.957345
 30
0.0
  0
SPLINE
  5
1af
100
AcDbEntity
  8
0
 62
7
100
AcDbSpline
 70
8
 71
3
 72
8
 73
4
 74
0
 40
0
 40
0
 40
0
 40
0
 40
1
 40
1
 40
1
 40
1
 10
528.667680
 20
393.957345
 30
0.0
 10
528.759885
 20
394.025595
 30
0.0
 10
534.272415
 20
411.809295
 30
0.0
 10
540.917685
 20
433.476570
 30
0.0
  0
LWPOLYLINE
  5
1b0
100
AcDbEntity
  8
0
 62
7
100
AcDbPolyline
 90
1
 70
1
 10
988.904175
 20
417.079545
 30
0.0
  0
SPLINE
  5
1b1
100
AcDbEntity
  8
0
 62
7
100
AcDbSpline
 70
8
 71
3
 72
8
 73
4
 74
0
 40
0
 40
0
 40
0
 40
0
 40
1
 40
1
 40
1
 40
1
 10
793.759725
 20
433.579545
 30
0.0
 10
806.951625
 20
448.704570
 30
0.0
 10
817.239900
 20
461.208570
 30
0.0
 10
816.622500
 20
461.366295
 30
0.0
  0
SPLINE
  5
1b2
100
AcDbEntity
  8
0
 62
7
100
AcDbSpline
 70
8
 71
3
 72
8
 73
4
 74
0
 40
0
 40
0
 40
0
 40
0
 40
1
 40
1
 40
1
 40
1
 10
816.622500
 20
461.366295
 30
0.0
 10
813.961875
 20
462.045945
 30
0.0
 10
735.483630
 20
477.346695
 30
0.0
 10
735.329160
 20
477.215895
 30
0.0
  0
SPLINE
  5
1b3
100
AcDbEntity
  8
0
 62
7
100
AcDbSpline
 70
8
 71
3
 72
8
 73
4
 74
0
 40
0
 40
0
 40
0
 40
0
 40
1
 40
1
 40
1
 40
1
 10
735.329160
 20
477.215895
 30
0.0
 10
735.235260
 20
477.136245
 30
0.0
 10
741.301987
 20
459.185820
 30
0.0
 10
748.810875
 20
437.325870
 30
0.0
  0
LWPOLYLINE
  5
1b4
100
AcDbEntity
  8
0
 62
7
100
AcDbPolyline
 90
1
 70
1
 10
540.917685
 20
433.476570
 30
0.0
  0
SPLINE
  5
1b5
100
AcDbEntity
  8
0
 62
7
100
AcDbSpline
 70
8
 71
3
 72
8
 73
4
 74
0
 40
0
 40
0
 40
0
 40
0
 40
1
 40
1
 40
1
 40
1
 10
766.118925
 20
401.830020
 30
0.0
 10
768.129375
 20
404.167245
 30
0.0
 10
780.567750
 20
418.454520
 30
0.0
 10
793.759725
 20
433.579545
 30
0.0
  0
LWPOLYLINE
  5
1b6
100
AcDbEntity
  8
0
 62
7
100
AcDbPolyline
 90
3
 70
0
 10
748.810875
 20
437.325870
 30
0.0
 10
762.463425
 20
397.580520
 30
0.0
 10
766.118925
 20
401.830020
 30
0.0
  0
SPLINE
  5
1b7
100
AcDbEntity
  8
0
 62
7
100
AcDbSpline
 70
8
 71
3
 72
8
 73
4
 74
0
 40
0
 40
0
 40
0
 40
0
 40
1
 40
1
 40
1
 40
1
 10
376.000005
 20
424.137270
 30
0.0
 10
376.000005
 20
426.355920
 30
0.0
 10
367.046865
 20
500.615820
 30
0.0
 10
366.450825
 20
503.340878
 30
0.0
  0
SPLINE
  5
1b8
100
AcDbEntity
  8
0
 62
7
100
AcDbSpline
 70
8
 71
3
 72
8
 73
4
 74
0
 40
0
 40
0
 40
0
 40
0
 40
1
 40
1
 40
1
 40
1
 10
366.450825
 20
503.340878
 30
0.0
 10
366.004402
 20
505.381890
 30
0.0
 10
362.700697
 20
503.142728
 30
0.0
 10
332.543115
 20
480.359220
 30
0.0
  0
SPLINE
  5
1b9
100
AcDbEntity
  8
0
 62
7
100
AcDbSpline
 70
8
 71
3
 72
8
 73
4
 74
0
 40
0
 40
0
 40
0
 40
0
 40
1
 40
1
 40
1
 40
1
 10
332.543115
 20
480.359220
 30
0.0
 10
314.165917
 20
466.475520
 30
0.0
 10
299.233395
 20
455.012820
 30
0.0
 10
299.359740
 20
454.886445
 30
0.0
  0
SPLINE
  5
1ba
100
AcDbEntity
  8
0
 62
7
100
AcDbSpline
 70
8
 71
3
 72
8
 73
4
 74
0
 40
0
 40
0
 40
0
 40
0
 40
1
 40
1
 40
1
 40
1
 10
299.359740
 20
454.886445
 30
0.0
 10
299.798085
 20
454.448145
 30
0.0
 10
374.503987
 20
422.709570
 30
0.0
 10
375.250005
 20
422.644695
 30
0.0
  0
SPLINE
  5
1bb
100
AcDbEntity
  8
0
 62
7
100
AcDbSpline
 70
8
 71
3
 72
8
 73
4
 74
0
 40
0
 40
0
 40
0
 40
0
 40
1
 40
1
 40
1
 40
1
 10
375.250005
 20
422.644695
 30
0.0
 10
375.662505
 20
422.608695
 30
0.0
 10
376.000005
 20
423.280470
 30
0.0
 10
376.000005
 20
424.137270
 30
0.0
  0
LWPOLYLINE
  5
1bc
100
AcDbEntity
  8
0
 62
7
100
AcDbPolyline
 90
1
 70
1
 10
793.759725
 20
433.579545
 30
0.0
  0
SPLINE
  5
1bd
100
AcDbEntity
  8
0
 62
7
100
AcDbSpline
 70
8
 71
3
 72
8
 73
4
 74
0
 40
0
 40
0
 40
0
 40
0
 40
1
 40
1
 40
1
 40
1
 10
510.967485
 20
470.491620
 30
0.0
 10
534.722010
 20
475.943295
 30
0.0
 10
554.398777
 20
480.644970
 30
0.0
 10
554.693640
 20
480.939870
 30
0.0
  0
SPLINE
  5
1be
100
AcDbEntity
  8
0
 62
7
100
AcDbSpline
 70
8
 71
3
 72
8
 73
4
 74
0
 40
0
 40
0
 40
0
 40
0
 40
1
 40
1
 40
1
 40
1
 10
554.693640
 20
480.939870
 30
0.0
 10
555.656280
 20
481.902495
 30
0.0
 10
563.103397
 20
569.876288
 30
0.0
 10
562.290600
 20
570.683640
 30
0.0
  0
SPLINE
  5
1bf
100
AcDbEntity
  8
0
 62
7
100
AcDbSpline
 70
8
 71
3
 72
8
 73
4
 74
0
 40
0
 40
0
 40
0
 40
0
 40
1
 40
1
 40
1
 40
1
 10
562.290600
 20
570.683640
 30
0.0
 10
561.855772
 20
571.115558
 30
0.0
 10
543.076372
 20
579.288045
 30
0.0
 10
520.558612
 20
588.844718
 30
0.0
  0
LWPOLYLINE
  5
1c0
100
AcDbEntity
  8
0
 62
7
100
AcDbPolyline
 90
1
 70
1
 10
376.000005
 20
424.137270
 30
0.0
  0
SPLINE
  5
1c1
100
AcDbEntity
  8
0
 62
7
100
AcDbSpline
 70
8
 71
3
 72
8
 73
4
 74
0
 40
0
 40
0
 40
0
 40
0
 40
1
 40
1
 40
1
 40
1
 10
450.058612
 20
572.236890
 30
0.0
 10
433.801372
 20
553.545908
 30
0.0
 10
420.588825
 20
537.947723
 30
0.0
 10
420.697395
 20
537.574260
 30
0.0
  0
SPLINE
  5
1c2
100
AcDbEntity
  8
0
 62
7
100
AcDbSpline
 70
8
 71
3
 72
8
 73
4
 74
0
 40
0
 40
0
 40
0
 40
0
 40
1
 40
1
 40
1
 40
1
 10
420.697395
 20
537.574260
 30
0.0
 10
420.915045
 20
536.825513
 30
0.0
 10
460.024275
 20
471.623820
 30
0.0
 10
464.331075
 20
464.829570
 30
0.0
  0
SPLINE
  5
1c3
100
AcDbEntity
  8
0
 62
7
100
AcDbSpline
 70
8
 71
3
 72
8
 73
4
 74
0
 40
0
 40
0
 40
0
 40
0
 40
1
 40
1
 40
1
 40
1
 10
464.331075
 20
464.829570
 30
0.0
 10
465.812782
 20
462.492045
 30
0.0
 10
467.194365
 20
460.579545
 30
0.0
 10
467.401252
 20
460.579545
 30
0.0
  0
SPLINE
  5
1c4
100
AcDbEntity
  8
0
 62
7
100
AcDbSpline
 70
8
 71
3
 72
8
 73
4
 74
0
 40
0
 40
0
 40
0
 40
0
 40
1
 40
1
 40
1
 40
1
 10
467.401252
 20
460.579545
 30
0.0
 10
467.608140
 20
460.579545
 30
0.0
 10
487.212945
 20
465.040020
 30
0.0
 10
510.967485
 20
470.491620
 30
0.0
  0
LWPOLYLINE
  5
1c5
100
AcDbEntity
  8
0
 62
7
100
AcDbPolyline
 90
3
 70
0
 10
520.558612
 20
588.844718
 30
0.0
 10
479.617215
 20
606.220500
 30
0.0
 10
450.058612
 20
572.236890
 30
0.0
  0
LWPOLYLINE
  5
1c6
100
AcDbEntity
  8
0
 62
7
100
AcDbPolyline
 90
1
 70
1
 10
510.967485
 20
470.491620
 30
0.0
  0
SPLINE
  5
1c7
100
AcDbEntity
  8
0
 62
7
100
AcDbSpline
 70
8
 71
3
 72
8
 73
4
 74
0
 40
0
 40
0
 40
0
 40
0
 40
1
 40
1
 40
1
 40
1
 10
838.859925
 20
574.886948
 30
0.0
 10
823.917900
 20
590.942865
 30
0.0
 10
810.038250
 20
605.796405
 30
0.0
 10
808.016325
 20
607.894815
 30
0.0
  0
LWPOLYLINE
  5
1c8
100
AcDbEntity
  8
0
 62
7
100
AcDbPolyline
 90
3
 70
0
 10
844.177275
 20
506.386950
 30
0.0
 10
866.027250
 20
545.694360
 30
0.0
 10
838.859925
 20
574.886948
 30
0.0
  0
SPLINE
  5
1c9
100
AcDbEntity
  8
0
 62
7
100
AcDbSpline
 70
8
 71
3
 72
8
 73
4
 74
0
 40
0
 40
0
 40
0
 40
0
 40
1
 40
1
 40
1
 40
1
 10
722.726557
 20
570.327758
 30
0.0
 10
723.136267
 20
564.453720
 30
0.0
 10
733.020390
 20
484.225845
 30
0.0
 10
733.378485
 20
483.867720
 30
0.0
  0
SPLINE
  5
1ca
100
AcDbEntity
  8
0
 62
7
100
AcDbSpline
 70
8
 71
3
 72
8
 73
4
 74
0
 40
0
 40
0
 40
0
 40
0
 40
1
 40
1
 40
1
 40
1
 10
733.378485
 20
483.867720
 30
0.0
 10
734.039700
 20
483.206520
 30
0.0
 10
818.500500
 20
466.759620
 30
0.0
 10
820.413675
 20
466.919595
 30
0.0
  0
SPLINE
  5
1cb
100
AcDbEntity
  8
0
 62
7
100
AcDbSpline
 70
8
 71
3
 72
8
 73
4
 74
0
 40
0
 40
0
 40
0
 40
0
 40
1
 40
1
 40
1
 40
1
 10
820.413675
 20
466.919595
 30
0.0
 10
821.840550
 20
467.038845
 30
0.0
 10
827.885400
 20
477.078345
 30
0.0
 10
844.177275
 20
506.386950
 30
0.0
  0
LWPOLYLINE
  5
1cc
100
AcDbEntity
  8
0
 62
7
100
AcDbPolyline
 90
5
 70
0
 10
808.016325
 20
607.894815
 30
0.0
 10
804.340050
 20
611.710088
 30
0.0
 10
763.419975
 20
592.643040
 30
0.0
 10
722.499997
 20
573.575978
 30
0.0
 10
722.726557
 20
570.327758
 30
0.0
  0
SPLINE
  5
1cd
100
AcDbEntity
  8
0
 62
7
100
AcDbSpline
 70
8
 71
3
 72
8
 73
4
 74
0
 40
0
 40
0
 40
0
 40
0
 40
1
 40
1
 40
1
 40
1
 10
956.065575
 20
562.347285
 30
0.0
 10
955.557600
 20
562.549665
 30
0.0
 10
879.930450
 20
545.548770
 30
0.0
 10
875.669700
 20
544.274355
 30
0.0
  0
SPLINE
  5
1ce
100
AcDbEntity
  8
0
 62
7
100
AcDbSpline
 70
8
 71
3
 72
8
 73
4
 74
0
 40
0
 40
0
 40
0
 40
0
 40
1
 40
1
 40
1
 40
1
 10
875.669700
 20
544.274355
 30
0.0
 10
875.213025
 20
544.137780
 30
0.0
 10
887.765775
 20
530.151203
 30
0.0
 10
903.564600
 20
513.193088
 30
0.0
  0
LWPOLYLINE
  5
1cf
100
AcDbEntity
  8
0
 62
7
100
AcDbPolyline
 90
1
 70
1
 10
844.177275
 20
506.386950
 30
0.0
  0
SPLINE
  5
1d0
100
AcDbEntity
  8
0
 62
7
100
AcDbSpline
 70
8
 71
3
 72
8
 73
4
 74
0
 40
0
 40
0
 40
0
 40
0
 40
1
 40
1
 40
1
 40
1
 10
944.513775
 20
522.219840
 30
0.0
 10
951.236925
 20
544.142678
 30
0.0
 10
956.435250
 20
562.200030
 30
0.0
 10
956.065575
 20
562.347285
 30
0.0
  0
LWPOLYLINE
  5
1d1
100
AcDbEntity
  8
0
 62
7
100
AcDbPolyline
 90
3
 70
0
 10
903.564600
 20
513.193088
 30
0.0
 10
932.289825
 20
482.360145
 30
0.0
 10
944.513775
 20
522.219840
 30
0.0
  0
SPLINE
  5
1d2
100
AcDbEntity
  8
0
 62
7
100
AcDbSpline
 70
8
 71
3
 72
8
 73
4
 74
0
 40
0
 40
0
 40
0
 40
0
 40
1
 40
1
 40
1
 40
1
 10
599.019900
 20
500.875658
 30
0.0
 10
619.463310
 20
510.388530
 30
0.0
 10
636.081210
 20
518.601030
 30
0.0
 10
635.948557
 20
519.125663
 30
0.0
  0
SPLINE
  5
1d3
100
AcDbEntity
  8
0
 62
7
100
AcDbSpline
 70
8
 71
3
 72
8
 73
4
 74
0
 40
0
 40
0
 40
0
 40
0
 40
1
 40
1
 40
1
 40
1
 10
635.948557
 20
519.125663
 30
0.0
 10
635.815920
 20
519.650303
 30
0.0
 10
620.585730
 20
530.700968
 30
0.0
 10
602.103690
 20
543.682725
 30
0.0
  0
LWPOLYLINE
  5
1d4
100
AcDbEntity
  8
0
 62
7
100
AcDbPolyline
 90
1
 70
1
 10
956.065575
 20
562.347285
 30
0.0
  0
SPLINE
  5
1d5
100
AcDbEntity
  8
0
 62
7
100
AcDbSpline
 70
8
 71
3
 72
8
 73
4
 74
0
 40
0
 40
0
 40
0
 40
0
 40
1
 40
1
 40
1
 40
1
 10
565.337603
 20
531.182730
 30
0.0
 10
563.598292
 20
511.325970
 30
0.0
 10
561.917692
 20
492.492037
 30
0.0
 10
561.602940
 20
489.329542
 30
0.0
  0
SPLINE
  5
1d6
100
AcDbEntity
  8
0
 62
7
100
AcDbSpline
 70
8
 71
3
 72
8
 73
4
 74
0
 40
0
 40
0
 40
0
 40
0
 40
1
 40
1
 40
1
 40
1
 10
561.602940
 20
489.329542
 30
0.0
 10
561.288187
 20
486.167070
 30
0.0
 10
561.215033
 20
483.579570
 30
0.0
 10
561.440370
 20
483.579570
 30
0.0
  0
SPLINE
  5
1d7
100
AcDbEntity
  8
0
 62
7
100
AcDbSpline
 70
8
 71
3
 72
8
 73
4
 74
0
 40
0
 40
0
 40
0
 40
0
 40
1
 40
1
 40
1
 40
1
 10
561.440370
 20
483.579570
 30
0.0
 10
561.665700
 20
483.579570
 30
0.0
 10
578.576490
 20
491.362800
 30
0.0
 10
599.019900
 20
500.875657
 30
0.0
  0
LWPOLYLINE
  5
1d8
100
AcDbEntity
  8
0
 62
7
100
AcDbPolyline
 90
3
 70
0
 10
602.103690
 20
543.682725
 30
0.0
 10
568.500000
 20
567.285907
 30
0.0
 10
565.337603
 20
531.182730
 30
0.0
  0
SPLINE
  5
1d9
100
AcDbEntity
  8
0
 62
7
100
AcDbSpline
 70
8
 71
3
 72
8
 73
4
 74
0
 40
0
 40
0
 40
0
 40
0
 40
1
 40
1
 40
1
 40
1
 10
726.588180
 20
490.329540
 30
0.0
 10
726.264997
 20
492.392040
 30
0.0
 10
723.950430
 20
510.942060
 30
0.0
 10
721.444695
 20
531.551798
 30
0.0
  0
SPLINE
  5
1da
100
AcDbEntity
  8
0
 62
7
100
AcDbSpline
 70
8
 71
3
 72
8
 73
4
 74
0
 40
0
 40
0
 40
0
 40
0
 40
1
 40
1
 40
1
 40
1
 10
721.444695
 20
531.551798
 30
0.0
 10
718.938960
 20
552.161535
 30
0.0
 10
716.791957
 20
569.120918
 30
0.0
 10
716.673570
 20
569.239305
 30
0.0
  0
SPLINE
  5
1db
100
AcDbEntity
  8
0
 62
7
100
AcDbSpline
 70
8
 71
3
 72
8
 73
4
 74
0
 40
0
 40
0
 40
0
 40
0
 40
1
 40
1
 40
1
 40
1
 10
716.673570
 20
569.239305
 30
0.0
 10
716.555175
 20
569.357700
 30
0.0
 10
701.471295
 20
558.191565
 30
0.0
 10
683.153850
 20
544.425690
 30
0.0
  0
SPLINE
  5
1dc
100
AcDbEntity
  8
0
 62
7
100
AcDbSpline
 70
8
 71
3
 72
8
 73
4
 74
0
 40
0
 40
0
 40
0
 40
0
 40
1
 40
1
 40
1
 40
1
 10
683.153850
 20
544.425690
 30
0.0
 10
664.836390
 20
530.659823
 30
0.0
 10
650.065905
 20
519.180292
 30
0.0
 10
650.330557
 20
518.915640
 30
0.0
  0
SPLINE
  5
1dd
100
AcDbEntity
  8
0
 62
7
100
AcDbSpline
 70
8
 71
3
 72
8
 73
4
 74
0
 40
0
 40
0
 40
0
 40
0
 40
1
 40
1
 40
1
 40
1
 10
650.330557
 20
518.915640
 30
0.0
 10
651.018787
 20
518.227417
 30
0.0
 10
725.329717
 20
486.639720
 30
0.0
 10
726.337897
 20
486.606870
 30
0.0
  0
SPLINE
  5
1de
100
AcDbEntity
  8
0
 62
7
100
AcDbSpline
 70
8
 71
3
 72
8
 73
4
 74
0
 40
0
 40
0
 40
0
 40
0
 40
1
 40
1
 40
1
 40
1
 10
726.337897
 20
486.606870
 30
0.0
 10
726.798735
 20
486.591870
 30
0.0
 10
726.911370
 20
488.267040
 30
0.0
 10
726.588180
 20
490.329540
 30
0.0
  0
LWPOLYLINE
  5
1df
100
AcDbEntity
  8
0
 62
7
100
AcDbPolyline
 90
1
 70
1
 10
599.019900
 20
500.875657
 30
0.0
  0
LWPOLYLINE
  5
1e0
100
AcDbEntity
  8
0
 62
7
100
AcDbPolyline
 90
1
 70
1
 10
726.588180
 20
490.329540
 30
0.0
  0
SPLINE
  5
1e1
100
AcDbEntity
  8
0
 62
7
100
AcDbSpline
 70
8
 71
3
 72
8
 73
4
 74
0
 40
0
 40
0
 40
0
 40
0
 40
1
 40
1
 40
1
 40
1
 10
706.274250
 20
603.497685
 30
0.0
 10
701.047380
 20
618.667710
 30
0.0
 10
694.459905
 20
637.979138
 30
0.0
 10
691.635427
 20
646.411988
 30
0.0
  0
LWPOLYLINE
  5
1e2
100
AcDbEntity
  8
0
 62
7
100
AcDbPolyline
 90
3
 70
0
 10
681.342240
 20
549.997688
 30
0.0
 10
715.777635
 20
575.915835
 30
0.0
 10
706.274250
 20
603.497685
 30
0.0
  0
SPLINE
  5
1e3
100
AcDbEntity
  8
0
 62
7
100
AcDbSpline
 70
8
 71
3
 72
8
 73
4
 74
0
 40
0
 40
0
 40
0
 40
0
 40
1
 40
1
 40
1
 40
1
 10
641.499997
 20
661.035495
 30
0.0
 10
616.749997
 20
660.645578
 30
0.0
 10
596.344072
 20
660.190043
 30
0.0
 10
596.153490
 20
660.023205
 30
0.0
  0
SPLINE
  5
1e4
100
AcDbEntity
  8
0
 62
7
100
AcDbSpline
 70
8
 71
3
 72
8
 73
4
 74
0
 40
0
 40
0
 40
0
 40
0
 40
1
 40
1
 40
1
 40
1
 10
596.153490
 20
660.023205
 30
0.0
 10
595.321492
 20
659.294828
 30
0.0
 10
569.939827
 20
575.155868
 30
0.0
 10
570.205080
 20
574.005450
 30
0.0
  0
SPLINE
  5
1e5
100
AcDbEntity
  8
0
 62
7
100
AcDbSpline
 70
8
 71
3
 72
8
 73
4
 74
0
 40
0
 40
0
 40
0
 40
0
 40
1
 40
1
 40
1
 40
1
 10
570.205080
 20
574.005450
 30
0.0
 10
570.367282
 20
573.301920
 30
0.0
 10
586.904482
 20
561.224460
 30
0.0
 10
606.954412
 20
547.166670
 30
0.0
  0
SPLINE
  5
1e6
100
AcDbEntity
  8
0
 62
7
100
AcDbSpline
 70
8
 71
3
 72
8
 73
4
 74
0
 40
0
 40
0
 40
0
 40
0
 40
1
 40
1
 40
1
 40
1
 10
606.954412
 20
547.166670
 30
0.0
 10
638.632867
 20
524.955653
 30
0.0
 10
643.637962
 20
521.769008
 30
0.0
 10
645.157830
 20
522.843293
 30
0.0
  0
SPLINE
  5
1e7
100
AcDbEntity
  8
0
 62
7
100
AcDbSpline
 70
8
 71
3
 72
8
 73
4
 74
0
 40
0
 40
0
 40
0
 40
0
 40
1
 40
1
 40
1
 40
1
 10
645.157830
 20
522.843293
 30
0.0
 10
646.119780
 20
523.523228
 30
0.0
 10
662.402760
 20
535.742708
 30
0.0
 10
681.342240
 20
549.997688
 30
0.0
  0
LWPOLYLINE
  5
1e8
100
AcDbEntity
  8
0
 62
7
100
AcDbPolyline
 90
3
 70
0
 10
691.635427
 20
646.411988
 30
0.0
 10
686.499997
 20
661.744433
 30
0.0
 10
641.499997
 20
661.035495
 30
0.0
  0
SPLINE
  5
1e9
100
AcDbEntity
  8
0
 62
7
100
AcDbSpline
 70
8
 71
3
 72
8
 73
4
 74
0
 40
0
 40
0
 40
0
 40
0
 40
1
 40
1
 40
1
 40
1
 10
412.000005
 20
543.033480
 30
0.0
 10
412.000005
 20
544.122825
 30
0.0
 10
385.709932
 20
620.142915
 30
0.0
 10
385.136962
 20
620.710335
 30
0.0
  0
SPLINE
  5
1ea
100
AcDbEntity
  8
0
 62
7
100
AcDbSpline
 70
8
 71
3
 72
8
 73
4
 74
0
 40
0
 40
0
 40
0
 40
0
 40
1
 40
1
 40
1
 40
1
 10
385.136962
 20
620.710335
 30
0.0
 10
384.523672
 20
621.317708
 30
0.0
 10
330.393000
 20
559.669425
 30
0.0
 10
330.603120
 20
558.602895
 30
0.0
  0
SPLINE
  5
1eb
100
AcDbEntity
  8
0
 62
7
100
AcDbSpline
 70
8
 71
3
 72
8
 73
4
 74
0
 40
0
 40
0
 40
0
 40
0
 40
1
 40
1
 40
1
 40
1
 10
330.603120
 20
558.602895
 30
0.0
 10
330.715995
 20
558.029985
 30
0.0
 10
406.104225
 20
542.874960
 30
0.0
 10
409.750005
 20
542.692275
 30
0.0
  0
SPLINE
  5
1ec
100
AcDbEntity
  8
0
 62
7
100
AcDbSpline
 70
8
 71
3
 72
8
 73
4
 74
0
 40
0
 40
0
 40
0
 40
0
 40
1
 40
1
 40
1
 40
1
 10
409.750005
 20
542.692275
 30
0.0
 10
410.987505
 20
542.630250
 30
0.0
 10
412.000005
 20
542.783775
 30
0.0
 10
412.000005
 20
543.033480
 30
0.0
  0
LWPOLYLINE
  5
1ed
100
AcDbEntity
  8
0
 62
7
100
AcDbPolyline
 90
1
 70
1
 10
681.342240
 20
549.997688
 30
0.0
  0
SPLINE
  5
1ee
100
AcDbEntity
  8
0
 62
7
100
AcDbSpline
 70
8
 71
3
 72
8
 73
4
 74
0
 40
0
 40
0
 40
0
 40
0
 40
1
 40
1
 40
1
 40
1
 10
916.066425
 20
559.645545
 30
0.0
 10
937.735800
 20
564.631860
 30
0.0
 10
955.522875
 20
568.794360
 30
0.0
 10
955.593225
 20
568.895550
 30
0.0
  0
SPLINE
  5
1ef
100
AcDbEntity
  8
0
 62
7
100
AcDbSpline
 70
8
 71
3
 72
8
 73
4
 74
0
 40
0
 40
0
 40
0
 40
0
 40
1
 40
1
 40
1
 40
1
 10
955.593225
 20
568.895550
 30
0.0
 10
955.761225
 20
569.137230
 30
0.0
 10
898.549350
 20
630.421605
 30
0.0
 10
898.336350
 20
630.228135
 30
0.0
  0
SPLINE
  5
1f0
100
AcDbEntity
  8
0
 62
7
100
AcDbSpline
 70
8
 71
3
 72
8
 73
4
 74
0
 40
0
 40
0
 40
0
 40
0
 40
1
 40
1
 40
1
 40
1
 10
898.336350
 20
630.228135
 30
0.0
 10
898.211475
 20
630.114705
 30
0.0
 10
886.611900
 20
592.366605
 30
0.0
 10
874.399050
 20
552.329535
 30
0.0
  0
SPLINE
  5
1f1
100
AcDbEntity
  8
0
 62
7
100
AcDbSpline
 70
8
 71
3
 72
8
 73
4
 74
0
 40
0
 40
0
 40
0
 40
0
 40
1
 40
1
 40
1
 40
1
 10
874.399050
 20
552.329535
 30
0.0
 10
874.067175
 20
551.241540
 30
0.0
 10
874.391550
 20
550.579538
 30
0.0
 10
875.266350
 20
550.579538
 30
0.0
  0
SPLINE
  5
1f2
100
AcDbEntity
  8
0
 62
7
100
AcDbSpline
 70
8
 71
3
 72
8
 73
4
 74
0
 40
0
 40
0
 40
0
 40
0
 40
1
 40
1
 40
1
 40
1
 10
875.266350
 20
550.579538
 30
0.0
 10
876.036975
 20
550.579538
 30
0.0
 10
894.396975
 20
554.659245
 30
0.0
 10
916.066425
 20
559.645545
 30
0.0
  0
LWPOLYLINE
  5
1f3
100
AcDbEntity
  8
0
 62
7
100
AcDbPolyline
 90
1
 70
1
 10
412.000005
 20
543.033480
 30
0.0
  0
SPLINE
  5
1f4
100
AcDbEntity
  8
0
 62
7
100
AcDbSpline
 70
8
 71
3
 72
8
 73
4
 74
0
 40
0
 40
0
 40
0
 40
0
 40
1
 40
1
 40
1
 40
1
 10
474.004005
 20
614.329537
 30
0.0
 10
474.013980
 20
616.185105
 30
0.0
 10
447.427628
 20
692.523622
 30
0.0
 10
446.844308
 20
692.314552
 30
0.0
  0
SPLINE
  5
1f5
100
AcDbEntity
  8
0
 62
7
100
AcDbSpline
 70
8
 71
3
 72
8
 73
4
 74
0
 40
0
 40
0
 40
0
 40
0
 40
1
 40
1
 40
1
 40
1
 10
446.844308
 20
692.314552
 30
0.0
 10
445.785668
 20
691.935112
 30
0.0
 10
392.166023
 20
630.115447
 30
0.0
 10
392.548118
 20
629.714895
 30
0.0
  0
SPLINE
  5
1f6
100
AcDbEntity
  8
0
 62
7
100
AcDbSpline
 70
8
 71
3
 72
8
 73
4
 74
0
 40
0
 40
0
 40
0
 40
0
 40
1
 40
1
 40
1
 40
1
 10
392.548118
 20
629.714895
 30
0.0
 10
392.882288
 20
629.364585
 30
0.0
 10
470.188365
 20
613.919175
 30
0.0
 10
472.750005
 20
613.690920
 30
0.0
  0
SPLINE
  5
1f7
100
AcDbEntity
  8
0
 62
7
100
AcDbSpline
 70
8
 71
3
 72
8
 73
4
 74
0
 40
0
 40
0
 40
0
 40
0
 40
1
 40
1
 40
1
 40
1
 10
472.750005
 20
613.690920
 30
0.0
 10
473.437500
 20
613.629645
 30
0.0
 10
474.001800
 20
613.917037
 30
0.0
 10
474.004005
 20
614.329537
 30
0.0
  0
LWPOLYLINE
  5
1f8
100
AcDbEntity
  8
0
 62
7
100
AcDbPolyline
 90
1
 70
1
 10
916.066425
 20
559.645545
 30
0.0
  0
SPLINE
  5
1f9
100
AcDbEntity
  8
0
 62
7
100
AcDbSpline
 70
8
 71
3
 72
8
 73
4
 74
0
 40
0
 40
0
 40
0
 40
0
 40
1
 40
1
 40
1
 40
1
 10
510.000000
 20
649.500037
 30
0.0
 10
523.475003
 20
664.989937
 30
0.0
 10
534.615615
 20
677.991435
 30
0.0
 10
534.756915
 20
678.392242
 30
0.0
  0
SPLINE
  5
1fa
100
AcDbEntity
  8
0
 62
7
100
AcDbSpline
 70
8
 71
3
 72
8
 73
4
 74
0
 40
0
 40
0
 40
0
 40
0
 40
1
 40
1
 40
1
 40
1
 10
534.756915
 20
678.392242
 30
0.0
 10
534.963840
 20
678.979215
 30
0.0
 10
456.283073
 20
694.745482
 30
0.0
 10
453.791775
 20
694.616265
 30
0.0
  0
SPLINE
  5
1fb
100
AcDbEntity
  8
0
 62
7
100
AcDbSpline
 70
8
 71
3
 72
8
 73
4
 74
0
 40
0
 40
0
 40
0
 40
0
 40
1
 40
1
 40
1
 40
1
 10
453.791775
 20
694.616265
 30
0.0
 10
453.402240
 20
694.596090
 30
0.0
 10
457.836255
 20
680.742037
 30
0.0
 10
463.645125
 20
663.829537
 30
0.0
  0
SPLINE
  5
1fc
100
AcDbEntity
  8
0
 62
7
100
AcDbSpline
 70
8
 71
3
 72
8
 73
4
 74
0
 40
0
 40
0
 40
0
 40
0
 40
1
 40
1
 40
1
 40
1
 10
463.645125
 20
663.829537
 30
0.0
 10
469.453995
 20
646.917037
 30
0.0
 10
475.579935
 20
629.053987
 30
0.0
 10
477.258322
 20
624.133875
 30
0.0
  0
LWPOLYLINE
  5
1fd
100
AcDbEntity
  8
0
 62
7
100
AcDbPolyline
 90
1
 70
1
 10
474.004005
 20
614.329537
 30
0.0
  0
SPLINE
  5
1fe
100
AcDbEntity
  8
0
 62
7
100
AcDbSpline
 70
8
 71
3
 72
8
 73
4
 74
0
 40
0
 40
0
 40
0
 40
0
 40
1
 40
1
 40
1
 40
1
 10
482.904975
 20
618.262395
 30
0.0
 10
484.332240
 20
619.953195
 30
0.0
 10
496.525005
 20
634.010137
 30
0.0
 10
510.000000
 20
649.500037
 30
0.0
  0
LWPOLYLINE
  5
1ff
100
AcDbEntity
  8
0
 62
7
100
AcDbPolyline
 90
3
 70
0
 10
477.258322
 20
624.133875
 30
0.0
 10
480.309945
 20
615.188205
 30
0.0
 10
482.904975
 20
618.262395
 30
0.0
  0
SPLINE
  5
200
100
AcDbEntity
  8
0
 62
7
100
AcDbSpline
 70
8
 71
3
 72
8
 73
4
 74
0
 40
0
 40
0
 40
0
 40
0
 40
1
 40
1
 40
1
 40
1
 10
850.562925
 20
628.587015
 30
0.0
 10
871.978350
 20
633.541140
 30
0.0
 10
889.901175
 20
637.724865
 30
0.0
 10
890.391525
 20
637.884210
 30
0.0
  0
SPLINE
  5
201
100
AcDbEntity
  8
0
 62
7
100
AcDbSpline
 70
8
 71
3
 72
8
 73
4
 74
0
 40
0
 40
0
 40
0
 40
0
 40
1
 40
1
 40
1
 40
1
 10
890.391525
 20
637.884210
 30
0.0
 10
891.326625
 20
638.188065
 30
0.0
 10
835.412925
 20
698.579535
 30
0.0
 10
834.196425
 20
698.579535
 30
0.0
  0
SPLINE
  5
202
100
AcDbEntity
  8
0
 62
7
100
AcDbSpline
 70
8
 71
3
 72
8
 73
4
 74
0
 40
0
 40
0
 40
0
 40
0
 40
1
 40
1
 40
1
 40
1
 10
834.196425
 20
698.579535
 30
0.0
 10
833.811075
 20
698.579535
 30
0.0
 10
828.053475
 20
680.804535
 30
0.0
 10
821.401875
 20
659.079532
 30
0.0
  0
SPLINE
  5
203
100
AcDbEntity
  8
0
 62
7
100
AcDbSpline
 70
8
 71
3
 72
8
 73
4
 74
0
 40
0
 40
0
 40
0
 40
0
 40
1
 40
1
 40
1
 40
1
 10
821.401875
 20
659.079532
 30
0.0
 10
814.159350
 20
635.424600
 30
0.0
 10
809.772900
 20
619.579537
 30
0.0
 10
810.466950
 20
619.579537
 30
0.0
  0
SPLINE
  5
204
100
AcDbEntity
  8
0
 62
7
100
AcDbSpline
 70
8
 71
3
 72
8
 73
4
 74
0
 40
0
 40
0
 40
0
 40
0
 40
1
 40
1
 40
1
 40
1
 10
810.466950
 20
619.579537
 30
0.0
 10
811.104375
 20
619.579537
 30
0.0
 10
829.147575
 20
623.632905
 30
0.0
 10
850.562925
 20
628.587015
 30
0.0
  0
LWPOLYLINE
  5
205
100
AcDbEntity
  8
0
 62
7
100
AcDbPolyline
 90
1
 70
1
 10
510.000000
 20
649.500037
 30
0.0
  0
LWPOLYLINE
  5
206
100
AcDbEntity
  8
0
 62
7
100
AcDbPolyline
 90
1
 70
1
 10
850.562925
 20
628.587015
 30
0.0
  0
SPLINE
  5
207
100
AcDbEntity
  8
0
 62
7
100
AcDbSpline
 70
8
 71
3
 72
8
 73
4
 74
0
 40
0
 40
0
 40
0
 40
0
 40
1
 40
1
 40
1
 40
1
 10
756.285825
 20
704.614687
 30
0.0
 10
744.397290
 20
724.434015
 30
0.0
 10
734.329395
 20
740.296515
 30
0.0
 10
733.912748
 20
739.864687
 30
0.0
  0
SPLINE
  5
208
100
AcDbEntity
  8
0
 62
7
100
AcDbSpline
 70
8
 71
3
 72
8
 73
4
 74
0
 40
0
 40
0
 40
0
 40
0
 40
1
 40
1
 40
1
 40
1
 10
733.912748
 20
739.864687
 30
0.0
 10
732.899235
 20
738.814245
 30
0.0
 10
693.999998
 20
668.643907
 30
0.0
 10
693.999998
 20
667.866082
 30
0.0
  0
SPLINE
  5
209
100
AcDbEntity
  8
0
 62
7
100
AcDbSpline
 70
8
 71
3
 72
8
 73
4
 74
0
 40
0
 40
0
 40
0
 40
0
 40
1
 40
1
 40
1
 40
1
 10
693.999998
 20
667.866082
 30
0.0
 10
693.999998
 20
667.531095
 30
0.0
 10
707.573295
 20
667.554585
 30
0.0
 10
724.162890
 20
667.918282
 30
0.0
  0
SPLINE
  5
20a
100
AcDbEntity
  8
0
 62
7
100
AcDbSpline
 70
8
 71
3
 72
8
 73
4
 74
0
 40
0
 40
0
 40
0
 40
0
 40
1
 40
1
 40
1
 40
1
 10
724.162890
 20
667.918282
 30
0.0
 10
740.752485
 20
668.281972
 30
0.0
 10
759.630300
 20
668.579535
 30
0.0
 10
766.113525
 20
668.579535
 30
0.0
  0
LWPOLYLINE
  5
20b
100
AcDbEntity
  8
0
 62
7
100
AcDbPolyline
 90
3
 70
0
 10
766.113525
 20
668.579535
 30
0.0
 10
777.901350
 20
668.579535
 30
0.0
 10
756.285825
 20
704.614687
 30
0.0
  0
SPLINE
  5
20c
100
AcDbEntity
  8
0
 62
7
100
AcDbSpline
 70
8
 71
3
 72
8
 73
4
 74
0
 40
0
 40
0
 40
0
 40
0
 40
1
 40
1
 40
1
 40
1
 10
614.525512
 20
706.413997
 30
0.0
 10
625.326907
 20
725.847945
 30
0.0
 10
633.930000
 20
741.982867
 30
0.0
 10
633.643500
 20
742.269367
 30
0.0
  0
SPLINE
  5
20d
100
AcDbEntity
  8
0
 62
7
100
AcDbSpline
 70
8
 71
3
 72
8
 73
4
 74
0
 40
0
 40
0
 40
0
 40
0
 40
1
 40
1
 40
1
 40
1
 10
633.643500
 20
742.269367
 30
0.0
 10
633.357000
 20
742.555867
 30
0.0
 10
614.477812
 20
742.458495
 30
0.0
 10
591.689752
 20
742.052977
 30
0.0
  0
LWPOLYLINE
  5
20e
100
AcDbEntity
  8
0
 62
7
100
AcDbPolyline
 90
1
 70
1
 10
766.113525
 20
668.579535
 30
0.0
  0
SPLINE
  5
20f
100
AcDbEntity
  8
0
 62
7
100
AcDbSpline
 70
8
 71
3
 72
8
 73
4
 74
0
 40
0
 40
0
 40
0
 40
0
 40
1
 40
1
 40
1
 40
1
 10
571.793310
 20
705.412455
 30
0.0
 10
583.638330
 20
685.665683
 30
0.0
 10
593.680012
 20
669.862552
 30
0.0
 10
594.108157
 20
670.294387
 30
0.0
  0
SPLINE
  5
210
100
AcDbEntity
  8
0
 62
7
100
AcDbSpline
 70
8
 71
3
 72
8
 73
4
 74
0
 40
0
 40
0
 40
0
 40
0
 40
1
 40
1
 40
1
 40
1
 10
594.108157
 20
670.294387
 30
0.0
 10
594.536310
 20
670.726215
 30
0.0
 10
603.724117
 20
686.980042
 30
0.0
 10
614.525512
 20
706.413997
 30
0.0
  0
LWPOLYLINE
  5
211
100
AcDbEntity
  8
0
 62
7
100
AcDbPolyline
 90
3
 70
0
 10
591.689752
 20
742.052977
 30
0.0
 10
550.256903
 20
741.315675
 30
0.0
 10
571.793310
 20
705.412455
 30
0.0
  0
LWPOLYLINE
  5
212
100
AcDbEntity
  8
0
 62
7
100
AcDbPolyline
 90
1
 70
1
 10
614.525512
 20
706.413997
 30
0.0
  0
SPLINE
  5
213
100
AcDbEntity
  8
0
 62
7
100
AcDbSpline
 70
8
 71
3
 72
8
 73
4
 74
0
 40
0
 40
0
 40
0
 40
0
 40
1
 40
1
 40
1
 40
1
 10
695.260207
 20
743.943352
 30
0.0
 10
676.692090
 20
743.711542
 30
0.0
 10
657.831705
 20
743.273145
 30
0.0
 10
653.348250
 20
742.969125
 30
0.0
  0
LWPOLYLINE
  5
214
100
AcDbEntity
  8
0
 62
7
100
AcDbPolyline
 90
3
 70
0
 10
724.070295
 20
735.222187
 30
0.0
 10
729.020415
 20
744.364830
 30
0.0
 10
695.260207
 20
743.943352
 30
0.0
  0
SPLINE
  5
215
100
AcDbEntity
  8
0
 62
7
100
AcDbSpline
 70
8
 71
3
 72
8
 73
4
 74
0
 40
0
 40
0
 40
0
 40
0
 40
1
 40
1
 40
1
 40
1
 10
703.706145
 20
698.325727
 30
0.0
 10
712.183860
 20
713.590327
 30
0.0
 10
721.347728
 20
730.193722
 30
0.0
 10
724.070295
 20
735.222187
 30
0.0
  0
LWPOLYLINE
  5
216
100
AcDbEntity
  8
0
 62
7
100
AcDbPolyline
 90
5
 70
0
 10
653.348250
 20
742.969125
 30
0.0
 10
645.196507
 20
742.416367
 30
0.0
 10
666.744307
 20
706.494135
 30
0.0
 10
688.292107
 20
670.571917
 30
0.0
 10
703.706145
 20
698.325727
 30
0.0
  0
LWPOLYLINE
  5
217
100
AcDbEntity
  8
0
 62
7
100
AcDbPolyline
 90
1
 70
1
 10
724.070295
 20
735.222187
 30
0.0
  0
ENDSEC
  0
SECTION
  2
OBJECTS
  0
DICTIONARY
  5
C
330
0
100
AcDbDictionary
  3
ACAD_GROUP
350
D
  3
ACAD_MLINESTYLE
350
17
  0
DICTIONARY
  5
D
330
C
100
AcDbDictionary
  0
DICTIONARY
  5
1A
330
C
100
AcDbDictionary
  0
DICTIONARY
  5
17
330
C
100
AcDbDictionary
  3
STANDARD
350
18
  0
DICTIONARY
  5
19
330
C
100
AcDbDictionary
  0
ENDSEC
  0
EOF
