0
SECTION
2
HEADER
9
$INSUNITS
70
4
9
$ACADVER
1
AC1014
9
$HANDSEED
5
FFFF
0
ENDSEC
0
SECTION
2
TABLES
0
TABLE
2
VPORT
5
8
100
AcDbSymbolTable
0
ENDTAB
0
TABLE
2
LTYPE
5
5
100
AcDbSymbolTable
0
LTYPE
5
14
100
AcDbSymbolTableRecord
100
AcDbLinetypeTableRecord
2
BYBLOCK
70
0
0
LTYPE
5
15
100
AcDbSymbolTableRecord
100
AcDbLinetypeTableRecord
2
BYLAYER
70
0
0
ENDTAB
0
TABLE
2
LAYER
5
2
100
AcDbSymbolTable
70
2
0
LAYER
5
50
100
AcDbSymbolTableRecord
100
AcDbLayerTableRecord
2
0
70
0
6
CONTINUOUS
0
ENDTAB
0
TABLE
2
STYLE
5
3
100
AcDbSymbolTable
70
1
0
STYLE
5
11
100
AcDbSymbolTableRecord
100
AcDbTextStyleTableRecord
2
STANDARD
70
0
0
ENDTAB
0
TABLE
2
VIEW
5
6
100
AcDbSymbolTable
70
0
0
ENDTAB
0
TABLE
2
UCS
5
7
100
AcDbSymbolTable
70
0
0
ENDTAB
0
TABLE
2
APPID
5
9
100
AcDbSymbolTable
70
2
0
APPID
5
12
100
AcDbSymbolTableRecord
100
AcDbRegAppTableRecord
2
ACAD
70
0
0
ENDTAB
0
TABLE
2
DIMSTYLE
5
A
100
AcDbSymbolTable
70
1
0
ENDTAB
0
TABLE
2
BLOCK_RECORD
5
1
100
AcDbSymbolTable
70
1
0
BLOCK_RECORD
5
1F
100
AcDbSymbolTableRecord
100
AcDbBlockTableRecord
2
*MODEL_SPACE
0
BLOCK_RECORD
5
1B
100
AcDbSymbolTableRecord
100
AcDbBlockTableRecord
2
*PAPER_SPACE
0
ENDTAB
0
ENDSEC
0
SECTION
2
BLOCKS
0
BLOCK
5
20
100
AcDbEntity
100
AcDbBlockBegin
2
*MODEL_SPACE
0
ENDBLK
5
21
100
AcDbEntity
100
AcDbBlockEnd
0
BLOCK
5
1C
100
AcDbEntity
100
AcDbBlockBegin
2
*PAPER_SPACE
0
ENDBLK
5
1D
100
AcDbEntity
100
AcDbBlockEnd
0
ENDSEC
0
SECTION
2
ENTITIES
0
LWPOLYLINE
5
100
100
AcDbEntity
8
0
100
AcDbPolyline
90
174
70
1
43
0.0
10
-50.000003352763748
20
-105.47005383792546
10
-47.000003352763741
20
-105.47005383792553
10
-47.000003352763372
20
-90.470053837925519
10
-50.000003352763393
20
-90.470053837929001
10
-50.000003352762938
20
-72.470053837924681
10
-47.000003352762931
20
-72.470053837925548
10
-47.000003352762619
20
-57.470053837925548
10
-50.000003352762619
20
-57.470053837925327
10
-50.000003352762185
20
-39.470053837925335
10
-47.000003352762207
20
-39.470053837925555
10
-47.000003352761851
20
-24.470053837925555
10
-50.000003352761844
20
-24.470053837925288
10
-50.000003352771145
20
-6.4700538379253425
10
-47.000003352761425
20
-6.470053837925553
10
-47.000003352761084
20
8.529946162074447
10
-50.000003352770797
20
8.5299461620746584
10
-50.000003352770371
20
26.529946162074658
10
-47.000003352760658
20
26.529946162074452
10
-47.000003352760331
20
41.529946162074452
10
-50.000003352770023
20
41.529946162074687
10
-50.00000335276961
20
59.529946162074665
10
-47.000003352759883
20
59.529946162074445
10
-47.000003352759506
20
74.529946162074452
10
-50.000003352769255
20
74.529946162074737
10
-50.000003352768836
20
92.529946162074722
10
-47.000003352759123
20
92.529946162074438
10
-47.000003352758746
20
107.52994616207444
10
-50.000003352768481
20
107.52994616207471
10
-50.000003352758576
20
115.4700538379403
10
-41.339749314913796
20
120.47005383793962
10
-39.839749314913874
20
117.87197762658641
10
-26.849368258147063
20
125.371977626586
10
-28.349368258140188
20
127.9700538379425
10
-12.760910990027103
20
136.9700538379372
10
-11.260910990026581
20
134.37197762658445
10
1.7294700667387874
20
141.87197762658653
10
0.22947006674422843
20
144.47005383793885
10
15.817927334859462
20
153.47005383793487
10
17.317927334861228
20
150.8719776265828
10
30.308308391627875
20
158.37197762658269
10
28.808308391624642
20
160.97005383793302
10
44.396765659749349
20
169.97005383793453
10
45.896765659729006
20
167.37197762661447
10
58.887146716566683
20
174.87197762664394
10
57.387146716582535
20
177.47005383797043
10
72.97560398470317
20
186.47005383796912
10
74.475603984690537
20
183.871977626637
10
87.465985041446942
20
191.37197762655208
10
85.965985041419572
20
193.97005383795332
10
101.55444230952605
20
202.97005383793177
10
103.05444230950607
20
200.37197762658596
10
116.04482336627434
20
207.87197762658306
10
114.54482336627069
20
210.47005383794144
10
130.13328063439141
20
219.4700538379401
10
131.63328063442353
20
216.87197762652846
10
144.62366169119076
20
224.37197762652738
10
143.12366169117146
20
226.97005383792376
10
149.99999664725988
20
230.94010767585897
10
158.66025068510413
20
225.94010767585871
10
157.16025068510407
20
223.34203146450548
10
170.15063174187051
20
215.84203146450517
10
171.6506317418752
20
218.4401076758557
10
187.23908900999047
20
209.44010767585837
10
185.73908900999268
20
206.84203146450335
10
198.72947006676293
20
199.34203146450969
10
200.22947006675903
20
201.94010767585624
10
215.81792733487848
20
192.9401076758563
10
214.31792733488254
20
190.34203146450042
10
227.30830839165333
20
182.84203146450756
10
228.8083083916485
20
185.44010767585351
10
244.3967656597701
20
176.44010767585212
10
242.89676565977214
20
173.84203146449778
10
255.88714671654145
20
166.34203146450258
10
257.38714671653361
20
168.94010767585371
10
272.97560398465208
20
159.94010767585416
10
271.4756039846614
20
157.34203146449528
10
284.46598504143384
20
149.8420314645054
10
285.96598504142929
20
152.44010767584746
10
301.55444230954583
20
143.44010767584874
10
300.05444230955152
20
140.84203146449235
10
313.04482336631793
20
133.34203146449201
10
314.54482336631111
20
135.94010767584922
10
330.13328063443674
20
126.94010767584544
10
328.63328063443907
20
124.34203146449079
10
341.62366169120554
20
116.84203146449043
10
343.1236616912056
20
119.44010767584372
10
349.99999664724066
20
115.47005383793865
10
349.99999664724049
20
105.47005383793891
10
346.99999664724032
20
105.47005383793828
10
346.9999966472364
20
90.470053837938295
10
349.99999664723993
20
90.470053837937968
10
349.99999664723958
20
72.470053837939162
10
346.99999664723941
20
72.470053837938963
10
346.99999664723919
20
57.470053837938963
10
349.99999664723924
20
57.47005383793875
10
349.99999664723896
20
39.470053837948882
10
346.99999664723862
20
39.470053837939133
10
346.99999664723811
20
24.47005383793913
10
349.99999664723839
20
24.470053837948733
10
349.99999664723794
20
6.4700538379483321
10
346.99999664723794
20
6.4700538379389236
10
346.99999664723748
20
-8.5299461620610746
10
349.99999664723759
20
-8.529946162051619
10
349.99999664723731
20
-26.529946162051413
10
346.99999664723725
20
-26.529946162061016
10
346.99999664723646
20
-41.529946162061023
10
349.99999664723669
20
-41.529946162051338
10
349.99999664723634
20
-59.529946162051253
10
346.9999966472364
20
-59.529946162060781
10
346.99999664723606
20
-74.529946162060781
10
349.99999664723595
20
-74.529946162051075
10
349.99999664723555
20
-92.529946162051743
10
346.99999664723566
20
-92.529946162061123
10
346.99999664723509
20
-107.52994616206112
10
349.99999664723504
20
-107.52994616205152
10
349.99999664723521
20
-115.47005383784875
10
341.33974260939226
20
-120.47005383785157
10
339.83974260939362
20
-117.87197762649713
10
326.84936155263347
20
-125.37197762650823
10
328.34936155262585
20
-127.97005383785623
10
312.7609042845105
20
-136.97005383785967
10
311.26090428451062
20
-134.37197762650624
10
298.27052322774369
20
-141.87197762650578
10
299.77052322774625
20
-144.47005383786339
10
284.1820659596288
20
-153.47005383786805
10
282.68206595962914
20
-150.87197762651454
10
269.69168490286233
20
-158.37197762651425
10
271.19168490286859
20
-160.97005383786947
10
255.60322763474741
20
-169.97005383787626
10
254.10322763474755
20
-167.37197762652286
10
241.11284657797398
20
-174.87197762651067
10
242.61284657798478
20
-177.47005383787908
10
227.02438930986483
20
-186.47005383788519
10
225.52438930986509
20
-183.87197762653165
10
212.53400825309822
20
-191.37197762653128
10
214.03400825310445
20
-193.97005383788667
10
198.44555098498336
20
-202.97005383789343
10
196.9455509849837
20
-200.37197762653992
10
183.95516992821297
20
-207.87197762653267
10
185.45516992821885
20
-210.47005383789718
10
169.86671266010202
20
-219.47005383790162
10
168.36671266010242
20
-216.87197762654816
10
155.37633160333624
20
-224.37197762654887
10
156.87633160333635
20
-226.97005383790616
10
149.99999664722458
20
-230.94010767585803
10
141.33974260938049
20
-225.94010767585752
10
142.83974260938086
20
-223.34203146450449
10
129.84936155261445
20
-215.84203146450417
10
128.34936155261462
20
-218.44010767585706
10
112.76090428449515
20
-209.44010767585627
10
114.26090428449497
20
-206.84203146450287
10
101.27052322772862
20
-199.34203146450241
10
99.770523227728717
20
-201.94010767585542
10
84.182065959615954
20
-192.94010767585831
10
85.682065959609048
20
-190.34203146450113
10
72.691684902842709
20
-182.84203146450074
10
71.191684902842823
20
-185.44010767585374
10
55.603227634724924
20
-176.44010767585385
10
57.103227634723517
20
-173.84203146449971
10
44.112846577957086
20
-166.34203146449946
10
42.612846577958045
20
-168.94010767585272
10
27.024389309837375
20
-159.94010767585121
10
28.524389309837098
20
-157.34203146449775
10
15.534008253074179
20
-149.84203146449141
10
14.034008253070859
20
-152.4401076758503
10
-1.5544490150485659
20
-143.4401076758495
10
-0.054449015048776417
20
-140.84203146449605
10
-13.044830071818701
20
-133.34203146450184
10
-14.544830071814888
20
-135.94010767584874
10
-30.133287339934554
20
-126.94010767584777
10
-28.633287339934732
20
-124.34203146449434
10
-41.623668396706357
20
-116.84203146450307
10
-43.123668396700985
20
-119.44010767584693
10
-50.000003352763969
20
-115.47005383792546
0
LWPOLYLINE
5
101
100
AcDbEntity
8
0
100
AcDbPolyline
90
126
70
1
43
0.0
10
-3.3527630333152203e-06
20
-76.602540378440324
10
-3.0000033527631302
20
-76.602540378440196
10
-3.0000033527627741
20
-61.602540378440196
10
-3.3527626749907391e-06
20
-61.602540378440445
10
-3.3527622456119843e-06
20
-43.602540378440509
10
-3.0000033527623202
20
-43.602540378440253
10
-3.0000033527619587
20
-28.602540378440253
10
-3.3527618875650589e-06
20
-28.602540378440708
10
-3.3527614579087484e-06
20
-10.602540378440395
10
-3.0000033527615382
20
-10.602540378440137
10
-3.0000033527611443
20
4.3974596215598636
10
-3.3527611531525281e-06
20
4.3974596215598005
10
-3.3527606929650844e-06
20
22.397459621559783
10
-3.0000033527606935
20
22.397459621559953
10
-3.0000033527603511
20
37.397459621560031
10
-3.3527603275281844e-06
20
37.397459621559946
10
-3.3527598830573879e-06
20
55.397459621558994
10
-3.0000033527598897
20
55.397459621559349
10
-3.0000033527595389
20
70.397459621559548
10
-3.3527595344473582e-06
20
70.397459621559562
10
-3.3527591014603786e-06
20
86.60253844273123
10
8.6602506850856624
20
91.602538442730491
10
7.1602506850859671
20
94.200614654083921
10
20.150631741853093
20
101.70061465408278
10
21.650631741852855
20
99.102538442729411
10
37.239088867176832
20
108.10253875168782
10
35.739089009973675
20
110.70061465408151
10
48.729470066740895
20
118.20061465408038
10
50.229470066740632
20
115.60253844272705
10
65.817927022582595
20
124.60253904523832
10
64.317927334861579
20
127.2006146540792
10
77.308308391619434
20
134.70061465406869
10
78.808308391595176
20
132.10253844275695
10
94.396765177974217
20
141.10253933878067
10
92.896765659727961
20
143.70061465408256
10
105.88714671651005
20
151.20061465409287
10
107.38714671651886
20
148.6025384427237
10
122.97560333339318
20
157.60253963233876
10
121.47560398463551
20
160.20061465407778
10
134.46598504140593
20
167.70061465407977
10
135.96598506809431
20
165.10253845812997
10
149.9999966472428
20
173.20508075688761
10
158.66025068508722
20
168.2050807568875
10
160.16025068508512
20
170.80315696824184
10
173.15063174185835
20
163.30315696825326
10
171.6506317418515
20
160.70508075688821
10
187.23908900997117
20
151.70508075688784
10
188.73908900996793
20
154.30315696824306
10
201.72947006673638
20
146.80315696824624
10
200.2294700667338
20
144.20508075688969
10
215.81792733484988
20
135.20508075689168
10
217.31792733485148
20
137.80315696824385
10
230.30830839161376
20
130.30315696823638
10
228.8083083916178
20
127.70508075689021
10
244.39676565973747
20
118.70508075688986
10
245.8967656597342
20
121.30315696824505
10
258.88714671650075
20
113.80315696824505
10
257.38714671650047
20
111.20508075689148
10
272.97560398462588
20
102.20508075688785
10
274.47560398461826
20
104.80315696824556
10
287.4659850413849
20
97.303156968245673
10
285.96598504138223
20
94.705080756893295
10
299.99999664724066
20
86.602540378440153
10
299.99999664724072
20
76.602540378440153
10
302.99999664724044
20
76.602540378440239
10
302.99999664723998
20
61.602540378440239
10
299.9999966472401
20
61.602540378436956
10
299.99999664724021
20
43.602540378442555
10
302.99999664724021
20
43.602540378443457
10
302.99999664723924
20
28.602540378443464
10
299.99999664723924
20
28.602540378440825
10
299.99999664723651
20
10.602540378443452
10
302.99999664723651
20
10.602540378441962
10
302.9999966472385
20
-4.3974596215580366
10
299.9999966472385
20
-4.3974596215571049
10
299.99999664723805
20
-22.397459621557658
10
302.99999664723805
20
-22.397459621557744
10
302.99999664723936
20
-37.397459621557744
10
299.99999664723771
20
-37.397459621557452
10
299.99999664723725
20
-55.397459621557829
10
302.99999664723725
20
-55.3974596215579
10
302.99999664723822
20
-70.397459621557886
10
299.99999664723691
20
-70.397459621557786
10
299.99999664723651
20
-86.602540378447429
10
291.33974260939192
20
-91.6025403784475
10
292.83974260939175
20
-94.200616589800688
10
279.849361552625
20
-101.70061658980039
10
278.34936155262506
20
-99.102540378447017
10
262.76090428450493
20
-108.10254037844669
10
264.26090428450476
20
-110.70061658980008
10
251.27052322773801
20
-118.20061658979974
10
249.77052322774085
20
-115.6025403784448
10
234.18206595961794
20
-124.60254037844609
10
235.68206595961755
20
-127.20061658979959
10
222.69168490284702
20
-134.70061658979273
10
221.19168490285091
20
-132.10254037844592
10
205.60322763473073
20
-141.10254037844561
10
207.10322763473056
20
-143.70061658979901
10
194.11284657796381
20
-151.2006165897987
10
192.61284657796182
20
-148.60254037844655
10
177.02438930984505
20
-157.60254037844422
10
178.52438930984482
20
-160.20061658979768
10
165.53400825307807
20
-167.70061658979739
10
164.03400825307813
20
-165.10254037844405
10
149.99999664723461
20
-173.20508075688767
10
141.3397426093903
20
-168.20508075688741
10
139.83974260939036
20
-170.80315696824084
10
126.84936155262611
20
-163.30315696823686
10
128.34936155262656
20
-160.70508075688866
10
112.76090428450271
20
-151.70508075688591
10
111.26090428450284
20
-154.30315696823931
10
98.270523227737897
20
-146.80315696823646
10
99.770523227737726
20
-144.20508075688642
10
84.182065959616466
20
-135.20508075688514
10
82.682065959615898
20
-137.80315696823811
10
69.691684902856039
20
-130.30315696822649
10
71.191684902848976
20
-127.70508075688423
10
55.60322763473026
20
-118.70508075688441
10
54.103227634729734
20
-121.30315696823743
10
41.112846577962003
20
-113.80315696823948
10
42.612846577962593
20
-111.2050807568834
10
27.024389309844061
20
-102.20508075688369
10
25.524389309843862
20
-104.80315696823688
10
12.534008253076724
20
-97.303156968237829
10
14.034008253076101
20
-94.705080756882495
10
-3.3527633494512266e-06
20
-86.602540378440295
0
LINE
5
102
100
AcDbEntity
8
0
100
AcDbLine
10
-5.0468261126909244
20
37.397459621560074
30
0
11
-3.0000033527603511
21
37.397459621560031
31
0
0
LINE
5
103
100
AcDbEntity
8
0
100
AcDbLine
10
-50.000003352758576
20
115.4700538379403
30
0
11
-47.00000325217367
21
113.73800308844125
31
0
0
LINE
5
104
100
AcDbEntity
8
0
100
AcDbLine
10
-26.849368258147063
20
125.371977626586
30
0
11
-39.839749314913874
21
117.87197762658641
31
0
0
LINE
5
105
100
AcDbEntity
8
0
100
AcDbLine
10
8.6602506850856624
20
91.602538442730491
30
0
11
3.979039320256561e-12
21
86.602540378449859
31
0
0
LINE
5
106
100
AcDbEntity
8
0
100
AcDbLine
10
37.239088867176832
20
108.10253875168782
30
0
11
21.650631741852855
21
99.102538442729411
31
0
0
LINE
5
107
100
AcDbEntity
8
0
100
AcDbLine
10
65.817927022582595
20
124.60253904523832
30
0
11
50.229470066740632
21
115.60253844272705
31
0
0
LINE
5
108
100
AcDbEntity
8
0
100
AcDbLine
10
94.396765177974217
20
141.10253933878067
30
0
11
78.808308391595176
21
132.10253844275695
31
0
0
LINE
5
109
100
AcDbEntity
8
0
100
AcDbLine
10
150.00000000000773
20
173.20508075687934
30
0
11
135.96598506809431
21
165.10253845812997
31
0
0
LINE
5
110
100
AcDbEntity
8
0
100
AcDbLine
10
122.97560333339318
20
157.60253963233876
30
0
11
107.38714671651886
21
148.6025384427237
31
0
0
LINE
5
111
100
AcDbEntity
8
0
100
AcDbLine
10
-39.839749314913874
20
117.87197762658641
30
0
11
-26.849368258147063
21
125.371977626586
31
0
0
LINE
5
112
100
AcDbEntity
8
0
100
AcDbLine
10
-11.260910990026581
20
134.37197762658445
30
0
11
1.7294700667387874
21
141.87197762658653
31
0
0
LINE
5
113
100
AcDbEntity
8
0
100
AcDbLine
10
17.317927334861228
20
150.8719776265828
30
0
11
30.308308391627875
21
158.37197762658269
31
0
0
LINE
5
114
100
AcDbEntity
8
0
100
AcDbLine
10
45.896765659729006
20
167.37197762661447
30
0
11
58.887146716566683
21
174.87197762664394
31
0
0
LINE
5
115
100
AcDbEntity
8
0
100
AcDbLine
10
74.475603984690537
20
183.871977626637
30
0
11
87.465985041446942
21
191.37197762655208
31
0
0
LINE
5
116
100
AcDbEntity
8
0
100
AcDbLine
10
131.63328063442353
20
216.87197762652846
30
0
11
144.62366169119076
21
224.37197762652738
31
0
0
ENDSEC
0
SECTION
2
OBJECTS
0
DICTIONARY
5
C
100
AcDbDictionary
3
ACAD_GROUP
350
D
3
ACAD_MLINESTYLE
350
17
0
DICTIONARY
5
D
100
AcDbDictionary
0
DICTIONARY
5
1A
330
C
100
AcDbDictionary
0
DICTIONARY
5
17
100
AcDbDictionary
0
ENDSEC
0
EOF
