0
SECTION
2
HEADER
9
$INSUNITS
70
4
9
$ACADVER
1
AC1014
9
$HANDSEED
5
FFFF
0
ENDSEC
0
SECTION
2
TABLES
0
TABLE
2
VPORT
5
8
100
AcDbSymbolTable
0
ENDTAB
0
TABLE
2
LTYPE
5
5
100
AcDbSymbolTable
0
LTYPE
5
14
100
AcDbSymbolTableRecord
100
AcDbLinetypeTableRecord
2
BYBLOCK
70
0
0
LTYPE
5
15
100
AcDbSymbolTableRecord
100
AcDbLinetypeTableRecord
2
BYLAYER
70
0
0
ENDTAB
0
TABLE
2
LAYER
5
2
100
AcDbSymbolTable
70
2
0
LAYER
5
50
100
AcDbSymbolTableRecord
100
AcDbLayerTableRecord
2
0
70
0
6
CONTINUOUS
0
ENDTAB
0
TABLE
2
STYLE
5
3
100
AcDbSymbolTable
70
1
0
STYLE
5
11
100
AcDbSymbolTableRecord
100
AcDbTextStyleTableRecord
2
STANDARD
70
0
0
ENDTAB
0
TABLE
2
VIEW
5
6
100
AcDbSymbolTable
70
0
0
ENDTAB
0
TABLE
2
UCS
5
7
100
AcDbSymbolTable
70
0
0
ENDTAB
0
TABLE
2
APPID
5
9
100
AcDbSymbolTable
70
2
0
APPID
5
12
100
AcDbSymbolTableRecord
100
AcDbRegAppTableRecord
2
ACAD
70
0
0
ENDTAB
0
TABLE
2
DIMSTYLE
5
A
100
AcDbSymbolTable
70
1
0
ENDTAB
0
TABLE
2
BLOCK_RECORD
5
1
100
AcDbSymbolTable
70
1
0
BLOCK_RECORD
5
1F
100
AcDbSymbolTableRecord
100
AcDbBlockTableRecord
2
*MODEL_SPACE
0
BLOCK_RECORD
5
1B
100
AcDbSymbolTableRecord
100
AcDbBlockTableRecord
2
*PAPER_SPACE
0
ENDTAB
0
ENDSEC
0
SECTION
2
BLOCKS
0
BLOCK
5
20
100
AcDbEntity
100
AcDbBlockBegin
2
*MODEL_SPACE
0
ENDBLK
5
21
100
AcDbEntity
100
AcDbBlockEnd
0
BLOCK
5
1C
100
AcDbEntity
100
AcDbBlockBegin
2
*PAPER_SPACE
0
ENDBLK
5
1D
100
AcDbEntity
100
AcDbBlockEnd
0
ENDSEC
0
SECTION
2
ENTITIES
0
LWPOLYLINE
5
100
100
AcDbEntity
8
0
100
AcDbPolyline
90
28
70
1
43
0.0
10
-2.0000000000000018
20
0
10
-2.0000000000000018
20
50
10
-12
20
50
10
-12
20
27.397846743641985
10
-15
20
27.397846743641985
10
-15
20
50
10
-22.050000000000001
20
50
10
-22.050000000000001
20
27.537220778845466
10
-25
20
27.537220778845466
10
-25
20
50
10
-32.100000000000001
20
50
10
-32.100000000000001
20
27.537220778845466
10
-35
20
27.537220778845466
10
-35
20
50
10
-42.149999999999999
20
50
10
-42.149999999999999
20
27.537220778845466
10
-45
20
27.537220778845466
10
-45
20
50
10
-52.199999999999996
20
50
10
-52.199999999999996
20
27.537220778845466
10
-55
20
27.537220778845466
10
-55
20
50
10
-62.25
20
50
10
-62.25
20
27.537220778845466
10
-65
20
27.537220778845466
10
-65
20
50
10
-75
20
50
10
-75
20
0
0
SPLINE
5
101
100
AcDbEntity
8
0
100
AcDbSpline
70
0
71
3
72
9
73
5
74
3
42
0.000000001
43
0.0000000001
44
0.0000000001
40
0
40
0
40
0
40
0
40
0.040647363467803378
40
0.086960671515694823
40
0.086960671515694823
40
0.086960671515694823
40
0.086960671515694823
10
-61.808158786239737
20
23.698477523038221
30
0
10
-61.730986429038488
20
23.583987418121723
30
0
10
-61.56588445360569
20
23.339048126712893
30
0
10
-61.551126150275657
20
23.043102996732429
30
0
10
-61.543266208114737
20
22.885489241788221
30
0
11
-61.808158786239737
21
23.698477523038221
31
0
11
-61.609489352645987
21
23.343863265225721
31
0
11
-61.543266208114737
21
22.885489241788221
31
0
0
SPLINE
5
102
100
AcDbEntity
8
0
100
AcDbSpline
70
0
71
3
72
9
73
5
74
3
42
0.000000001
43
0.0000000001
44
0.0000000001
40
0
40
0
40
0
40
0
40
0.04669189453125
40
0.088069994372390534
40
0.088069994372390534
40
0.088069994372390534
40
0.088069994372390534
10
-61.543266208114737
20
22.885489241788221
30
0
10
-61.552018959908395
20
22.726205732798267
30
0
10
-61.568528352147652
20
22.425766055179889
30
0
10
-61.745679476049489
20
22.183761182708945
30
0
10
-61.828910739364737
20
22.070059554288221
30
0
11
-61.543266208114737
21
22.885489241788221
31
0
11
-61.614677340927237
21
22.424063460538221
31
0
11
-61.828910739364737
21
22.070059554288221
31
0
0
SPLINE
5
103
100
AcDbEntity
8
0
100
AcDbSpline
70
0
71
3
72
9
73
5
74
3
42
0.000000001
43
0.0000000001
44
0.0000000001
40
0
40
0
40
0
40
0
40
0.042786308424910116
40
0.067895599773231077
40
0.067895599773231077
40
0.067895599773231077
40
0.067895599773231077
10
-44.312045798747306
20
23.424662401879083
30
0
10
-44.403435209109439
20
23.534231405067096
30
0
10
-44.548456807323475
20
23.708101352297088
30
0
10
-44.704702241686519
20
23.871898939052052
30
0
10
-44.762485251872306
20
23.932474901879083
30
0
11
-44.312045798747306
21
23.424662401879083
31
0
11
-44.590671287028556
21
23.749369433129083
31
0
11
-44.762485251872306
21
23.932474901879083
31
0
0
SPLINE
5
104
100
AcDbEntity
8
0
100
AcDbSpline
70
0
71
3
72
9
73
5
74
3
42
0.000000001
43
0.0000000001
44
0.0000000001
40
0
40
0
40
0
40
0
40
0.0242973015125287
40
0.052714476506015684
40
0.052714476506015684
40
0.052714476506015684
40
0.052714476506015684
10
-43.245151267497306
20
22.455424120629083
30
0
10
-43.317806268564603
20
22.49187811592509
30
0
10
-43.475435721565042
20
22.570967280521863
30
0
10
-43.609754687539905
20
22.685454637840433
30
0
10
-43.682162986247306
20
22.747172167504083
30
0
11
-43.245151267497306
21
22.455424120629083
31
0
11
-43.458163962809806
21
22.572306444847833
31
0
11
-43.682162986247306
21
22.747172167504083
31
0
0
LINE
5
105
100
AcDbEntity
8
0
100
AcDbLine
10
-45.422885642497306
20
22.362650683129083
30
0
11
-45.422885642497306
21
24.728373339379083
31
0
0
SPLINE
5
106
100
AcDbEntity
8
0
100
AcDbSpline
70
0
71
3
72
9
73
5
74
3
42
0.000000001
43
0.0000000001
44
0.0000000001
40
0
40
0
40
0
40
0
40
0.026709785658621889
40
0.05591823285910888
40
0.05591823285910888
40
0.05591823285910888
40
0.05591823285910888
10
-45.117709861247306
20
24.677103808129083
30
0
10
-45.035853639020978
20
24.64109398124981
30
0
10
-44.864483664213964
20
24.565705660640013
30
0
10
-44.718098681717052
20
24.448840671428364
30
0
10
-44.641635642497306
20
24.387797167504083
30
0
11
-45.117709861247306
21
24.677103808129083
31
0
11
-44.877841697184806
21
24.559611132347833
31
0
11
-44.641635642497306
21
24.387797167504083
31
0
0
SPLINE
5
107
100
AcDbEntity
8
0
100
AcDbSpline
70
0
71
3
72
9
73
5
74
3
42
0.000000001
43
0.0000000001
44
0.0000000001
40
0
40
0
40
0
40
0
40
0.03507255818006582
40
0.0790885235365483
40
0.0790885235365483
40
0.0790885235365483
40
0.0790885235365483
10
-44.641635642497306
20
24.387797167504083
30
0
10
-44.555769147896456
20
24.308281563207291
30
0
10
-44.362140435546067
20
24.128974091261213
30
0
10
-44.193499155190779
20
23.925877481569824
30
0
10
-44.099643454997306
20
23.812845995629083
30
0
11
-44.641635642497306
21
24.387797167504083
31
0
11
-44.388950095622306
21
24.144572069847833
31
0
11
-44.099643454997306
21
23.812845995629083
31
0
0
SPLINE
5
108
100
AcDbEntity
8
0
100
AcDbSpline
70
0
71
3
72
9
73
5
74
3
42
0.000000001
43
0.0000000001
44
0.0000000001
40
0
40
0
40
0
40
0
40
0.040647363467803378
40
0.086960671515694823
40
0.086960671515694823
40
0.086960671515694823
40
0.086960671515694823
10
-42.094028220622306
20
24.296244433129083
30
0
10
-42.016855863421057
20
24.181754328212584
30
0
10
-41.851753887988259
20
23.936815036803758
30
0
10
-41.836995584658226
20
23.640869906823291
30
0
10
-41.829135642497306
20
23.483256151879083
30
0
11
-42.094028220622306
21
24.296244433129083
31
0
11
-41.895358787028556
21
23.941630175316583
31
0
11
-41.829135642497306
21
23.483256151879083
31
0
0
SPLINE
5
109
100
AcDbEntity
8
0
100
AcDbSpline
70
0
71
3
72
9
73
5
74
3
42
0.000000001
43
0.0000000001
44
0.0000000001
40
0
40
0
40
0
40
0
40
0.039116678812488044
40
0.078654318366362275
40
0.078654318366362275
40
0.078654318366362275
40
0.078654318366362275
10
-42.114780173747306
20
22.667826464379083
30
0
10
-42.216064695976748
20
22.580241728150931
30
0
10
-42.419723730917013
20
22.404129697772639
30
0
10
-42.687954707192439
20
22.379775677541062
30
0
10
-42.822787986247306
20
22.367533495629083
30
0
11
-42.114780173747306
21
22.667826464379083
31
0
11
-42.434604392497306
21
22.442606737816583
31
0
11
-42.822787986247306
21
22.367533495629083
31
0
0
SPLINE
5
110
100
AcDbEntity
8
0
100
AcDbSpline
70
0
71
3
72
9
73
5
74
3
42
0.000000001
43
0.0000000001
44
0.0000000001
40
0
40
0
40
0
40
0
40
0.025377453542111964
40
0.052936195283584425
40
0.052936195283584425
40
0.052936195283584425
40
0.052936195283584425
10
-42.372348533122306
20
23.005961230004083
30
0
10
-42.320035272052337
20
23.074861819901876
30
0
10
-42.210912227089388
20
23.218585266225261
30
0
10
-42.199070179285783
20
23.39906400511034
30
0
10
-42.192905173747306
20
23.493021776879083
30
0
11
-42.372348533122306
21
23.005961230004083
31
0
11
-42.237766013591056
21
23.221110155785333
31
0
11
-42.192905173747306
21
23.493021776879083
31
0
0
SPLINE
5
111
100
AcDbEntity
8
0
100
AcDbSpline
70
0
71
3
72
9
73
5
74
3
42
0.000000001
43
0.0000000001
44
0.0000000001
40
0
40
0
40
0
40
0
40
0.038432585568779126
40
0.092554157413460431
40
0.092554157413460431
40
0.092554157413460431
40
0.092554157413460431
10
-43.682162986247306
20
22.747172167504083
30
0
10
-43.774163741645673
20
22.836419712995124
30
0
10
-43.995721887455545
20
23.051347521049049
30
0
10
-44.195326097555039
20
23.286913721536934
30
0
10
-44.312045798747306
20
23.424662401879083
30
0
11
-43.682162986247306
21
22.747172167504083
31
0
11
-43.954379783122306
21
23.018473437035333
31
0
11
-44.312045798747306
21
23.424662401879083
31
0
0
SPLINE
5
112
100
AcDbEntity
8
0
100
AcDbSpline
70
0
71
3
72
9
73
5
74
3
42
0.000000001
43
0.0000000001
44
0.0000000001
40
0
40
0
40
0
40
0
40
0.015598513087911343
40
0.031101202477658269
40
0.031101202477658269
40
0.031101202477658269
40
0.031101202477658269
10
-45.422885642497306
20
24.728373339379083
30
0
10
-45.370572828442008
20
24.727486776329837
30
0
10
-45.266268564763756
20
24.725719096503664
30
0
10
-45.167127610376745
20
24.693275584456444
30
0
10
-45.117709861247306
20
24.677103808129083
30
0
11
-45.422885642497306
21
24.728373339379083
31
0
11
-45.267245994059806
21
24.717997362816583
31
0
11
-45.117709861247306
21
24.677103808129083
31
0
0
SPLINE
5
113
100
AcDbEntity
8
0
100
AcDbSpline
70
0
71
3
72
9
73
5
74
3
42
0.000000001
43
0.0000000001
44
0.0000000001
40
0
40
0
40
0
40
0
40
0.045875188336648408
40
0.086197086274523271
40
0.086197086274523271
40
0.086197086274523271
40
0.086197086274523271
10
-42.864291892497306
20
24.645365526879083
30
0
10
-42.709179740812502
20
24.622825687709302
30
0
10
-42.417732097635835
20
24.580474505469468
30
0
10
-42.19719340782553
20
24.386829225910411
30
0
10
-42.094028220622306
20
24.296244433129083
30
0
11
-42.864291892497306
21
24.645365526879083
31
0
11
-42.419040427653556
21
24.534891894066583
31
0
11
-42.094028220622306
21
24.296244433129083
31
0
0
SPLINE
5
114
100
AcDbEntity
8
0
100
AcDbSpline
70
0
71
3
72
9
73
5
74
3
42
0.000000001
43
0.0000000001
44
0.0000000001
40
0
40
0
40
0
40
0
40
0.028958464194534982
40
0.05536997795212923
40
0.05536997795212923
40
0.05536997795212923
40
0.05536997795212923
10
-42.192905173747306
20
23.493021776879083
30
0
10
-42.199274233576531
20
23.591902163221789
30
0
10
-42.211452182653908
20
23.780966223211777
30
0
10
-42.327824969761409
20
23.929827402305296
30
0
10
-42.383334861247306
20
24.000834276879083
30
0
11
-42.192905173747306
21
23.493021776879083
31
0
11
-42.240512595622306
21
23.778666308129083
31
0
11
-42.383334861247306
21
24.000834276879083
31
0
0
SPLINE
5
115
100
AcDbEntity
8
0
100
AcDbSpline
70
0
71
3
72
9
73
5
74
3
42
0.000000001
43
0.0000000001
44
0.0000000001
40
0
40
0
40
0
40
0
40
0.024526907481812216
40
0.048935361732685402
40
0.048935361732685402
40
0.048935361732685402
40
0.048935361732685402
10
-42.813022361247306
20
22.819193651879083
30
0
10
-42.729426119522067
20
22.826900011599903
30
0
10
-42.562637365931707
20
22.842275513010364
30
0
10
-42.435675702670196
20
22.951487444025204
30
0
10
-42.372348533122306
20
23.005961230004083
30
0
11
-42.813022361247306
21
22.819193651879083
31
0
11
-42.572238669841056
21
22.865885546410333
31
0
11
-42.372348533122306
21
23.005961230004083
31
0
0
SPLINE
5
116
100
AcDbEntity
8
0
100
AcDbSpline
70
0
71
3
72
9
73
5
74
3
42
0.000000001
43
0.0000000001
44
0.0000000001
40
0
40
0
40
0
40
0
40
0.01568665855742318
40
0.030222287057427591
40
0.030222287057427591
40
0.030222287057427591
40
0.030222287057427591
10
-44.762485251872306
20
23.932474901879083
30
0
10
-44.801186184240322
20
23.967775559582233
30
0
10
-44.875748315055802
20
24.035786640878808
30
0
10
-44.960000608630054
20
24.091315006207118
30
0
10
-45.000522361247306
20
24.118021776879083
30
0
11
-44.762485251872306
21
23.932474901879083
31
0
11
-44.881198630778556
21
24.035013964379083
31
0
11
-45.000522361247306
21
24.118021776879083
31
0
0
SPLINE
5
117
100
AcDbEntity
8
0
100
AcDbSpline
70
0
71
3
72
9
73
5
74
3
42
0.000000001
43
0.0000000001
44
0.0000000001
40
0
40
0
40
0
40
0
40
0.04669189453125
40
0.088069994372390534
40
0.088069994372390534
40
0.088069994372390534
40
0.088069994372390534
10
-41.829135642497306
20
23.483256151879083
30
0
10
-41.837888394290971
20
23.323972642889128
30
0
10
-41.854397786530228
20
23.02353296527075
30
0
10
-42.031548910432058
20
22.781528092799807
30
0
10
-42.114780173747306
20
22.667826464379083
30
0
11
-41.829135642497306
21
23.483256151879083
31
0
11
-41.900546775309806
21
23.021830370629083
31
0
11
-42.114780173747306
21
22.667826464379083
31
0
0
LINE
5
118
100
AcDbEntity
8
0
100
AcDbLine
10
-45.000522361247306
20
22.362650683129083
30
0
11
-45.422885642497306
21
22.362650683129083
31
0
0
SPLINE
5
119
100
AcDbEntity
8
0
100
AcDbSpline
70
0
71
3
72
9
73
5
74
3
42
0.000000001
43
0.0000000001
44
0.0000000001
40
0
40
0
40
0
40
0
40
0.021414295689323203
40
0.043362609163597382
40
0.043362609163597382
40
0.043362609163597382
40
0.043362609163597382
10
-42.822787986247306
20
22.367533495629083
30
0
10
-42.894512878572314
20
22.371372711055919
30
0
10
-43.039751298659183
20
22.379146882126683
30
0
10
-43.176124790430649
20
22.429790479670046
30
0
10
-43.245151267497306
20
22.455424120629083
30
0
11
-42.822787986247306
21
22.367533495629083
31
0
11
-43.035800681559806
21
22.389506151879083
31
0
11
-43.245151267497306
21
22.455424120629083
31
0
0
LINE
5
120
100
AcDbEntity
8
0
100
AcDbLine
10
-42.910678611247306
20
24.193705370629083
30
0
11
-42.864291892497306
21
24.645365526879083
31
0
0
SPLINE
5
121
100
AcDbEntity
8
0
100
AcDbSpline
70
0
71
3
72
9
73
5
74
3
42
0.000000001
43
0.0000000001
44
0.0000000001
40
0
40
0
40
0
40
0
40
0.065027717368355956
40
0.10955165066311773
40
0.10955165066311773
40
0.10955165066311773
40
0.10955165066311773
10
-44.099643454997306
20
23.812845995629083
30
0
10
-43.961878872977749
20
23.644816741698804
30
0
10
-43.729788035809577
20
23.361739265313147
30
0
10
-43.453767114743215
20
23.12179131604433
30
0
10
-43.341586814372306
20
23.024271776879083
30
0
11
-44.099643454997306
21
23.812845995629083
31
0
11
-43.670871482341056
21
23.323954394066583
31
0
11
-43.341586814372306
21
23.024271776879083
31
0
0
SPLINE
5
122
100
AcDbEntity
8
0
100
AcDbSpline
70
0
71
3
72
9
73
5
74
3
42
0.000000001
43
0.0000000001
44
0.0000000001
40
0
40
0
40
0
40
0
40
0.031239880473072173
40
0.057412240134412561
40
0.057412240134412561
40
0.057412240134412561
40
0.057412240134412561
10
-43.341586814372306
20
23.024271776879083
30
0
10
-43.254072440739328
20
22.964603357022661
30
0
10
-43.09323967959736
20
22.854945522313894
30
0
10
-42.900765180583832
20
22.830388427159122
30
0
10
-42.813022361247306
20
22.819193651879083
30
0
11
-43.341586814372306
21
23.024271776879083
31
0
11
-43.069675193278556
21
22.870463183129083
31
0
11
-42.813022361247306
21
22.819193651879083
31
0
0
SPLINE
5
123
100
AcDbEntity
8
0
100
AcDbSpline
70
0
71
3
72
9
73
5
74
3
42
0.000000001
43
0.0000000001
44
0.0000000001
40
0
40
0
40
0
40
0
40
0.028958464194534982
40
0.05536997795212923
40
0.05536997795212923
40
0.05536997795212923
40
0.05536997795212923
10
-61.907035739364737
20
22.895254866788221
30
0
10
-61.913404799193962
20
22.994135253130924
30
0
10
-61.925582748271339
20
23.183199313120916
30
0
10
-62.041955535378833
20
23.332060492214435
30
0
10
-62.097465426864737
20
23.403067366788221
30
0
11
-61.907035739364737
21
22.895254866788221
31
0
11
-61.954643161239737
21
23.180899398038221
31
0
11
-62.097465426864737
21
23.403067366788221
31
0
0
SPLINE
5
124
100
AcDbEntity
8
0
100
AcDbSpline
70
0
71
3
72
9
73
5
74
3
42
0.000000001
43
0.0000000001
44
0.0000000001
40
0
40
0
40
0
40
0
40
0.045875188336648408
40
0.086197086274523271
40
0.086197086274523271
40
0.086197086274523271
40
0.086197086274523271
10
-62.578422458114737
20
24.047598616788221
30
0
10
-62.423310306429933
20
24.025058777618433
30
0
10
-62.131862663253266
20
23.982707595378606
30
0
10
-61.911323973442961
20
23.789062315819546
30
0
10
-61.808158786239737
20
23.698477523038221
30
0
11
-62.578422458114737
21
24.047598616788221
31
0
11
-62.133170993270987
21
23.937124983975721
31
0
11
-61.808158786239737
21
23.698477523038221
31
0
0
SPLINE
5
125
100
AcDbEntity
8
0
100
AcDbSpline
70
0
71
3
72
9
73
5
74
3
42
0.000000001
43
0.0000000001
44
0.0000000001
40
0
40
0
40
0
40
0
40
0.026709785658621889
40
0.05591823285910888
40
0.05591823285910888
40
0.05591823285910888
40
0.05591823285910888
10
-34.905350913878188
20
24.677103808129051
30
0
10
-34.82349469165186
20
24.641093981249785
30
0
10
-34.652124716844838
20
24.565705660639985
30
0
10
-34.505739734347934
20
24.448840671428336
30
0
10
-34.429276695128188
20
24.387797167504051
30
0
11
-34.905350913878188
21
24.677103808129051
31
0
11
-34.665482749815688
21
24.559611132347801
31
0
11
-34.429276695128188
21
24.387797167504051
31
0
0
SPLINE
5
126
100
AcDbEntity
8
0
100
AcDbSpline
70
0
71
3
72
9
73
5
74
3
42
0.000000001
43
0.0000000001
44
0.0000000001
40
0
40
0
40
0
40
0
40
0.037922348919340626
40
0.071925683047581568
40
0.071925683047581568
40
0.071925683047581568
40
0.071925683047581568
10
-32.423661460753181
20
17.590922167504054
30
0
10
-32.304221669920452
20
17.544669426407836
30
0
10
-32.077685371839962
20
17.456943847930503
30
0
10
-31.907292140284767
20
17.284338753812705
30
0
10
-31.826737632628181
20
17.202738573754054
30
0
11
-32.423661460753181
21
17.590922167504054
31
0
11
-32.080949058409431
21
17.428568651879054
31
0
11
-31.826737632628181
21
17.202738573754054
31
0
0
LWPOLYLINE
5
127
100
AcDbEntity
8
0
100
AcDbPolyline
90
4
70
1
43
0.0
10
-34.710038413878181
20
21.644877245629051
10
-35.210526695128181
20
21.644877245629051
10
-35.210526695128181
20
21.144388964379051
10
-34.710038413878181
20
21.144388964379051
0
LINE
5
128
100
AcDbEntity
8
0
100
AcDbLine
10
-25.221376158467216
20
22.541285555935641
30
0
11
-25.221376158467216
21
24.907008212185641
31
0
0
SPLINE
5
129
100
AcDbEntity
8
0
100
AcDbSpline
70
0
71
3
72
9
73
5
74
3
42
0.000000001
43
0.0000000001
44
0.0000000001
40
0
40
0
40
0
40
0
40
0.038322350761809329
40
0.080838277013876123
40
0.080838277013876123
40
0.080838277013876123
40
0.080838277013876123
10
-42.095248923747306
20
20.082377245629083
30
0
10
-42.017689285635463
20
19.977385284324491
30
0
10
-41.85408273785999
20
19.755912199207049
30
0
10
-41.837734043188661
20
19.480275016910131
30
0
10
-41.829135642497306
20
19.335306933129083
30
0
11
-42.095248923747306
21
20.082377245629083
31
0
11
-41.895663962809806
21
19.755228808129083
31
0
11
-41.829135642497306
21
19.335306933129083
31
0
0
SPLINE
5
130
100
AcDbEntity
8
0
100
AcDbSpline
70
0
71
3
72
9
73
5
74
3
42
0.000000001
43
0.0000000001
44
0.0000000001
40
0
40
0
40
0
40
0
40
0.026857202647328857
40
0.04849095858721747
40
0.04849095858721747
40
0.04849095858721747
40
0.04849095858721747
10
-34.343827476378181
20
20.014017870629051
30
0
10
-34.433125678757619
20
19.995313078375546
30
0
10
-34.594354511497755
20
19.96154138150683
30
0
10
-34.719931476362873
20
19.85601796290053
30
0
10
-34.775956382628181
20
19.808939745629051
30
0
11
-34.343827476378181
21
20.014017870629051
31
0
11
-34.600785484190681
21
19.935892870629054
31
0
11
-34.775956382628181
21
19.808939745629051
31
0
0
SPLINE
5
131
100
AcDbEntity
8
0
100
AcDbSpline
70
0
71
3
72
9
73
5
74
3
42
0.000000001
43
0.0000000001
44
0.0000000001
40
0
40
0
40
0
40
0
40
0.01568665855742318
40
0.030222287057427591
40
0.030222287057427591
40
0.030222287057427591
40
0.030222287057427591
10
-64.47661581748973
20
23.334707991788221
30
0
10
-64.515316749857746
20
23.370008649491368
30
0
10
-64.58987888067324
20
23.438019730787943
30
0
10
-64.674131174247492
20
23.493548096116257
30
0
10
-64.71465292686473
20
23.520254866788221
30
0
11
-64.47661581748973
21
23.334707991788221
31
0
11
-64.59532919639598
21
23.437247054288221
31
0
11
-64.71465292686473
21
23.520254866788221
31
0
0
LINE
5
132
100
AcDbEntity
8
0
100
AcDbLine
10
-34.788163413878188
20
24.118021776879051
30
0
11
-34.788163413878188
21
22.362650683129051
31
0
0
LINE
5
133
100
AcDbEntity
8
0
100
AcDbLine
10
-64.71465292686473
20
23.520254866788221
30
0
11
-64.71465292686473
21
21.764883773038221
31
0
0
SPLINE
5
134
100
AcDbEntity
8
0
100
AcDbSpline
70
0
71
3
72
9
73
5
74
3
42
0.000000001
43
0.0000000001
44
0.0000000001
40
0
40
0
40
0
40
0
40
0.038432585568779126
40
0.092554157413460431
40
0.092554157413460431
40
0.092554157413460431
40
0.092554157413460431
10
-63.396293551864737
20
22.149405257413221
30
0
10
-63.488294307263104
20
22.238652802904259
30
0
10
-63.709852453072969
20
22.453580610958184
30
0
10
-63.90945666317247
20
22.689146811446072
30
0
10
-64.02617636436473
20
22.826895491788221
30
0
11
-63.396293551864737
21
22.149405257413221
31
0
11
-63.668510348739737
21
22.420706526944471
31
0
11
-64.02617636436473
21
22.826895491788221
31
0
0
SPLINE
5
135
100
AcDbEntity
8
0
100
AcDbSpline
70
0
71
3
72
9
73
5
74
3
42
0.000000001
43
0.0000000001
44
0.0000000001
40
0
40
0
40
0
40
0
40
0.057374491571945359
40
0.10332227041477393
40
0.10332227041477393
40
0.10332227041477393
40
0.10332227041477393
10
-13.694605849626068
20
18.138147160508474
30
0
10
-13.502532746308354
20
18.135561422419045
30
0
10
-13.156639849017706
20
18.130904922243133
30
0
10
-12.821787401110885
20
18.045508165631063
30
0
10
-12.672877334001068
20
18.007531926133474
30
0
11
-13.694605849626068
21
18.138147160508474
31
0
11
-13.121790908219818
21
18.105493351914724
31
0
11
-12.672877334001068
21
18.007531926133474
31
0
0
LINE
5
136
100
AcDbEntity
8
0
100
AcDbLine
10
-62.624809176864737
20
23.595938460538221
30
0
11
-62.578422458114737
21
24.047598616788221
31
0
0
SPLINE
5
137
100
AcDbEntity
8
0
100
AcDbSpline
70
0
71
3
72
9
73
5
74
3
42
0.000000001
43
0.0000000001
44
0.0000000001
40
0
40
0
40
0
40
0
40
0.027326987441887524
40
0.057861284619934006
40
0.057861284619934006
40
0.057861284619934006
40
0.057861284619934006
10
-32.067216148253181
20
15.690287401879054
30
0
10
-32.146635691478565
20
15.644978689186662
30
0
10
-32.314796078887575
20
15.549043477651461
30
0
10
-32.501117832163906
20
15.496072853130789
30
0
10
-32.599442710753181
20
15.468119433129054
30
0
11
-32.067216148253181
21
15.690287401879054
31
0
11
-32.309525718565681
21
15.563944628441554
31
0
11
-32.599442710753181
21
15.468119433129054
31
0
0
SPLINE
5
138
100
AcDbEntity
8
0
100
AcDbSpline
70
0
71
3
72
9
73
5
74
3
42
0.000000001
43
0.0000000001
44
0.0000000001
40
0
40
0
40
0
40
0
40
0.027193559568742684
40
0.052250052352303983
40
0.052250052352303983
40
0.052250052352303983
40
0.052250052352303983
10
-31.616776695128181
20
16.554545214379054
30
0
10
-31.620767555675204
20
16.46308441045209
30
0
10
-31.628435646054683
20
16.287350454723072
30
0
10
-31.69893537414351
20
16.12637151169023
30
0
10
-31.732743492003177
20
16.049174120629054
30
0
11
-31.616776695128181
21
16.554545214379054
31
0
11
-31.645768394346927
21
16.284159472191554
31
0
11
-31.732743492003177
21
16.049174120629054
31
0
0
SPLINE
5
139
100
AcDbEntity
8
0
100
AcDbSpline
70
0
71
3
72
9
73
5
74
3
42
0.000000001
43
0.0000000001
44
0.0000000001
40
0
40
0
40
0
40
0
40
0.033072734504358235
40
0.069192257557490144
40
0.069192257557490144
40
0.069192257557490144
40
0.069192257557490144
10
-31.826737632628181
20
17.202738573754054
30
0
10
-31.765531520546229
20
17.108692880713395
30
0
10
-31.637480751998229
20
16.911937640707933
30
0
10
-31.623877711321001
20
16.67712261176947
30
0
10
-31.616776695128181
20
16.554545214379054
30
0
11
-31.826737632628181
21
17.202738573754054
31
0
11
-31.669266929503181
21
16.911906054222804
31
0
11
-31.616776695128181
21
16.554545214379054
31
0
0
SPLINE
5
140
100
AcDbEntity
8
0
100
AcDbSpline
70
0
71
3
72
9
73
5
74
3
42
0.000000001
43
0.0000000001
44
0.0000000001
40
0
40
0
40
0
40
0
40
0.032377784117726814
40
0.061925514107918619
40
0.061925514107918619
40
0.061925514107918619
40
0.061925514107918619
10
-44.387729392497306
20
20.507181933129083
30
0
10
-44.278072989759742
20
20.501251890792581
30
0
10
-44.068344952471634
20
20.489910135006127
30
0
10
-43.888720377336448
20
20.381776089203289
30
0
10
-43.803012595622306
20
20.330179980004083
30
0
11
-44.387729392497306
21
20.507181933129083
31
0
11
-44.066989646403556
21
20.462931444847833
31
0
11
-43.803012595622306
21
20.330179980004083
31
0
0
LWPOLYLINE
5
141
100
AcDbEntity
8
0
100
AcDbPolyline
90
4
70
1
43
0.0
10
-24.720887877217216
20
21.323023837185641
10
-24.720887877217216
20
21.823512118435641
10
-25.221376158467216
20
21.823512118435641
10
-25.221376158467216
20
21.323023837185641
0
SPLINE
5
142
100
AcDbEntity
8
0
100
AcDbSpline
70
0
71
3
72
9
73
5
74
3
42
0.000000001
43
0.0000000001
44
0.0000000001
40
0
40
0
40
0
40
0
40
0.029198321835830824
40
0.060662670073828695
40
0.060662670073828695
40
0.060662670073828695
40
0.060662670073828695
10
-43.803012595622306
20
20.330179980004083
30
0
10
-43.730259955389172
20
20.263016332451528
30
0
10
-43.579108480442173
20
20.123476593991782
30
0
10
-43.515144392433918
20
19.927617335373483
30
0
10
-43.481967673747306
20
19.826029589379083
30
0
11
-43.803012595622306
21
20.330179980004083
31
0
11
-43.604953513591056
21
20.115641405785333
31
0
11
-43.481967673747306
21
19.826029589379083
31
0
0
SPLINE
5
143
100
AcDbEntity
8
0
100
AcDbSpline
70
0
71
3
72
9
73
5
74
3
42
0.000000001
43
0.0000000001
44
0.0000000001
40
0
40
0
40
0
40
0
40
0.022657118155847884
40
0.04692977996460608
40
0.04692977996460608
40
0.04692977996460608
40
0.04692977996460608
10
-43.196323142497306
20
20.231303026879083
30
0
10
-43.130029469513275
20
20.269742589133578
30
0
10
-42.99271511802398
20
20.349362609037733
30
0
10
-42.83405050332383
20
20.35844265332809
30
0
10
-42.751987204997306
20
20.363138964379083
30
0
11
-43.196323142497306
21
20.231303026879083
31
0
11
-42.992465720622306
21
20.330179980004083
31
0
11
-42.751987204997306
21
20.363138964379083
31
0
0
SPLINE
5
144
100
AcDbEntity
8
0
100
AcDbSpline
70
0
71
3
72
9
73
5
74
3
42
0.000000001
43
0.0000000001
44
0.0000000001
40
0
40
0
40
0
40
0
40
0.019128704251482255
40
0.038434202324442453
40
0.038434202324442453
40
0.038434202324442453
40
0.038434202324442453
10
-44.753940329997306
20
19.966410448754083
30
0
10
-44.809301125168098
20
19.932961745013117
30
0
10
-44.920534378318074
20
19.865755193530621
30
0
10
-44.990841741537082
20
19.756431271615945
30
0
10
-45.026157126872306
20
19.701517870629083
30
0
11
-44.753940329997306
21
19.966410448754083
31
0
11
-44.909885154216056
21
19.855631640160333
31
0
11
-45.026157126872306
21
19.701517870629083
31
0
0
SPLINE
5
145
100
AcDbEntity
8
0
100
AcDbSpline
70
0
71
3
72
9
73
5
74
3
42
0.000000001
43
0.0000000001
44
0.0000000001
40
0
40
0
40
0
40
0
40
0.028414815223043729
40
0.057957170690665749
40
0.057957170690665749
40
0.057957170690665749
40
0.057957170690665749
10
-53.77373764233009
20
18.384466289539088
30
0
10
-53.713217532744586
20
18.460278325479024
30
0
10
-53.589775789628142
20
18.614910726671425
30
0
10
-53.574171860594113
20
18.812376854910042
30
0
10
-53.56621811108009
20
18.913030742664088
30
0
11
-53.77373764233009
21
18.384466289539088
31
0
11
-53.61809799389259
21
18.622198223132838
31
0
11
-53.56621811108009
21
18.913030742664088
31
0
0
SPLINE
5
146
100
AcDbEntity
8
0
100
AcDbSpline
70
0
71
3
72
9
73
5
74
3
42
0.000000001
43
0.0000000001
44
0.0000000001
40
0
40
0
40
0
40
0
40
0.031800971107117659
40
0.060949156536435345
40
0.060949156536435345
40
0.060949156536435345
40
0.060949156536435345
10
-32.271073570128181
20
16.045512011254054
30
0
10
-32.186384379555278
20
16.116082035872164
30
0
10
-32.024070633984891
20
16.251335247566271
30
0
10
-31.99462719120957
20
16.459754215588855
30
0
10
-31.980546226378181
20
16.559428026879054
30
0
11
-32.271073570128181
21
16.045512011254054
31
0
11
-32.053178062315681
21
16.277140429222804
31
0
11
-31.980546226378181
21
16.559428026879054
31
0
0
SPLINE
5
147
100
AcDbEntity
8
0
100
AcDbSpline
70
0
71
3
72
9
73
5
74
3
42
0.000000001
43
0.0000000001
44
0.0000000001
40
0
40
0
40
0
40
0
40
0.042842473532778765
40
0.086601286043456932
40
0.086601286043456932
40
0.086601286043456932
40
0.086601286043456932
10
-45.170200095622306
20
20.182474901879083
30
0
10
-45.058356202869511
20
20.277178121525292
30
0
10
-44.832276237129712
20
20.468610126671841
30
0
10
-44.536953290317584
20
20.494234286834846
30
0
10
-44.387729392497306
20
20.507181933129083
30
0
11
-45.170200095622306
21
20.182474901879083
31
0
11
-44.817722068278556
21
20.426005175316583
31
0
11
-44.387729392497306
21
20.507181933129083
31
0
0
SPLINE
5
148
100
AcDbEntity
8
0
100
AcDbSpline
70
0
71
3
72
9
73
5
74
3
42
0.000000001
43
0.0000000001
44
0.0000000001
40
0
40
0
40
0
40
0
40
0.036628518941254837
40
0.073055515146958419
40
0.073055515146958419
40
0.073055515146958419
40
0.073055515146958419
10
-42.751987204997306
20
20.363138964379083
30
0
10
-42.627089960991491
20
20.35157017462717
30
0
10
-42.377982632466583
20
20.328496244275019
30
0
10
-42.189320018824461
20
20.164265902721979
30
0
10
-42.095248923747306
20
20.082377245629083
30
0
11
-42.751987204997306
21
20.363138964379083
31
0
11
-42.392490134684806
21
20.292948534691583
31
0
11
-42.095248923747306
21
20.082377245629083
31
0
0
LWPOLYLINE
5
149
100
AcDbEntity
8
0
100
AcDbPolyline
90
4
70
1
43
0.0
10
-44.922397361247306
20
21.144388964379083
10
-44.922397361247306
20
21.644877245629083
10
-45.422885642497306
20
21.644877245629083
10
-45.422885642497306
20
21.144388964379083
0
LINE
5
150
100
AcDbEntity
8
0
100
AcDbLine
10
-62.026664645614737
20
19.875235335538221
30
0
11
-61.604301364364737
21
19.875235335538221
31
0
0
SPLINE
5
151
100
AcDbEntity
8
0
100
AcDbSpline
70
0
71
3
72
9
73
5
74
3
42
0.000000001
43
0.0000000001
44
0.0000000001
40
0
40
0
40
0
40
0
40
0.026856092965934428
40
0.057289632038068208
40
0.057289632038068208
40
0.057289632038068208
40
0.057289632038068208
10
-42.383334861247306
20
24.000834276879083
30
0
10
-42.456053990899385
20
24.056442920476144
30
0
10
-42.611179019144565
20
24.175067723192328
30
0
10
-42.806774107762173
20
24.18723946698811
30
0
10
-42.910678611247306
20
24.193705370629083
30
0
11
-42.383334861247306
21
24.000834276879083
31
0
11
-42.610385642497306
21
24.144266894066583
31
0
11
-42.910678611247306
21
24.193705370629083
31
0
0
LINE
5
152
100
AcDbEntity
8
0
100
AcDbLine
10
-45.000522361247306
20
24.118021776879083
30
0
11
-45.000522361247306
21
22.362650683129083
31
0
0
SPLINE
5
153
100
AcDbEntity
8
0
100
AcDbSpline
70
0
71
3
72
9
73
5
74
3
42
0.000000001
43
0.0000000001
44
0.0000000001
40
0
40
0
40
0
40
0
40
0.035217933053811983
40
0.074215302405028147
40
0.074215302405028147
40
0.074215302405028147
40
0.074215302405028147
10
-35.038407554503181
20
20.116556933129051
30
0
10
-34.949529433410966
20
20.19677927660307
30
0
10
-34.762235175568783
20
20.365833078581375
30
0
10
-34.513559667455681
20
20.41208008002263
30
0
10
-34.382889976378181
20
20.436381151879051
30
0
11
-35.038407554503181
21
20.116556933129051
31
0
11
-34.757951011534431
21
20.329569628441551
31
0
11
-34.382889976378181
21
20.436381151879051
31
0
0
SPLINE
5
154
100
AcDbEntity
8
0
100
AcDbSpline
70
0
71
3
72
9
73
5
74
3
42
0.000000001
43
0.0000000001
44
0.0000000001
40
0
40
0
40
0
40
0
40
0.043009348676446596
40
0.085576064803221025
40
0.085576064803221025
40
0.085576064803221025
40
0.085576064803221025
10
-44.399936423747306
20
18.148783495629083
30
0
10
-44.546555175016024
20
18.162030853783065
30
0
10
-44.838283744409836
20
18.18838923433853
30
0
10
-45.060758689494037
20
18.37878502962926
30
0
10
-45.171420798747306
20
18.473490526879083
30
0
11
-44.399936423747306
21
18.148783495629083
31
0
11
-44.822299704997306
21
18.229960253441583
31
0
11
-45.171420798747306
21
18.473490526879083
31
0
0
SPLINE
5
155
100
AcDbEntity
8
0
100
AcDbSpline
70
0
71
3
72
9
73
5
74
3
42
0.000000001
43
0.0000000001
44
0.0000000001
40
0
40
0
40
0
40
0
40
0.026865610461859538
40
0.055128002008888677
40
0.055128002008888677
40
0.055128002008888677
40
0.055128002008888677
10
-13.913111709001067
20
23.406701848008474
30
0
10
-13.855799778919348
20
23.478326351658495
30
0
10
-13.738196190452086
20
23.625299218205107
30
0
10
-13.723905098781735
20
23.813266583402651
30
0
10
-13.716578505876067
20
23.909631535508474
30
0
11
-13.913111709001067
21
23.406701848008474
31
0
11
-13.765711806657317
21
23.631311223008474
31
0
11
-13.716578505876067
21
23.909631535508474
31
0
0
SPLINE
5
156
100
AcDbEntity
8
0
100
AcDbSpline
70
0
71
3
72
9
73
5
74
3
42
0.000000001
43
0.0000000001
44
0.0000000001
40
0
40
0
40
0
40
0
40
0.019153397055193894
40
0.037069710715649941
40
0.037069710715649941
40
0.037069710715649941
40
0.037069710715649941
10
-34.910233726378181
20
19.420756151879051
30
0
10
-34.906910891105809
20
19.356208041242663
30
0
10
-34.900479836502406
20
19.231280866097833
30
0
10
-34.844510876223993
20
19.11953829975208
30
0
10
-34.817460288878181
20
19.065531542504051
30
0
11
-34.910233726378181
21
19.420756151879051
31
0
11
-34.887040367003181
21
19.230631640160301
31
0
11
-34.817460288878181
21
19.065531542504051
31
0
0
SPLINE
5
157
100
AcDbEntity
8
0
100
AcDbSpline
70
0
71
3
72
9
73
5
74
3
42
0.000000001
43
0.0000000001
44
0.0000000001
40
0
40
0
40
0
40
0
40
0.044865873923676955
40
0.085751058194843091
40
0.085751058194843091
40
0.085751058194843091
40
0.085751058194843091
10
-25.282411314717216
20
16.750269930935641
30
0
10
-25.273288129553247
20
16.902897653466518
30
0
10
-25.255851206709639
20
17.19461132295072
30
0
10
-25.088679493497953
20
17.433492899518463
30
0
10
-25.008973814717216
20
17.547389071560641
30
0
11
-25.282411314717216
21
16.750269930935641
31
0
11
-25.214051939717216
21
17.193690341091891
31
0
11
-25.008973814717216
21
17.547389071560641
31
0
0
SPLINE
5
158
100
AcDbEntity
8
0
100
AcDbSpline
70
0
71
3
72
9
73
5
74
3
42
0.000000001
43
0.0000000001
44
0.0000000001
40
0
40
0
40
0
40
0
40
0.039116678812488044
40
0.078654318366362275
40
0.078654318366362275
40
0.078654318366362275
40
0.078654318366362275
10
-61.828910739364737
20
22.070059554288221
30
0
10
-61.930195261594179
20
21.982474818060069
30
0
10
-62.133854296534437
20
21.806362787681778
30
0
10
-62.40208527280987
20
21.782008767450201
30
0
10
-62.536918551864737
20
21.769766585538221
30
0
11
-61.828910739364737
21
22.070059554288221
31
0
11
-62.148734958114737
21
21.844839827725721
31
0
11
-62.536918551864737
21
21.769766585538221
31
0
0
SPLINE
5
159
100
AcDbEntity
8
0
100
AcDbSpline
70
0
71
3
72
9
73
5
74
3
42
0.000000001
43
0.0000000001
44
0.0000000001
40
0
40
0
40
0
40
0
40
0.04669189453125
40
0.088069994372390534
40
0.088069994372390534
40
0.088069994372390534
40
0.088069994372390534
10
-31.616776695128188
20
23.483256151879054
30
0
10
-31.625529446921842
20
23.323972642889096
30
0
10
-31.642038839161106
20
23.023532965270725
30
0
10
-31.819189963062939
20
22.781528092799782
30
0
10
-31.902421226378188
20
22.667826464379054
30
0
11
-31.616776695128188
21
23.483256151879054
31
0
11
-31.688187827940688
21
23.021830370629054
31
0
11
-31.902421226378188
21
22.667826464379054
31
0
0
SPLINE
5
160
100
AcDbEntity
8
0
100
AcDbSpline
70
0
71
3
72
9
73
5
74
3
42
0.000000001
43
0.0000000001
44
0.0000000001
40
0
40
0
40
0
40
0
40
0.02510623117455215
40
0.052243823437179968
40
0.052243823437179968
40
0.052243823437179968
40
0.052243823437179968
10
-13.238062880876067
20
23.594690129258474
30
0
10
-13.180773748020059
20
23.529206300140579
30
0
10
-13.06156018223276
20
23.392940303757449
30
0
10
-12.880468959483728
20
23.377895595152172
30
0
10
-12.786402724626067
20
23.370080754258474
30
0
11
-13.238062880876067
21
23.594690129258474
31
0
11
-13.051905654313567
21
23.426233098008474
31
0
11
-12.786402724626067
21
23.370080754258474
31
0
0
SPLINE
5
161
100
AcDbEntity
8
0
100
AcDbSpline
70
0
71
3
72
9
73
5
74
3
42
0.000000001
43
0.0000000001
44
0.0000000001
40
0
40
0
40
0
40
0
40
0.02706666610841876
40
0.054216335810003832
40
0.054216335810003832
40
0.054216335810003832
40
0.054216335810003832
10
-34.150956382628181
20
18.651713183129054
30
0
10
-34.06258929721313
20
18.632487121765884
30
0
10
-33.885584136761416
20
18.593976039721493
30
0
10
-33.704518452726631
20
18.588524937984594
30
0
10
-33.613847007628181
20
18.585795214379054
30
0
11
-34.150956382628181
21
18.651713183129054
31
0
11
-33.884843101378181
21
18.602274706566554
31
0
11
-33.613847007628181
21
18.585795214379054
31
0
0
SPLINE
5
162
100
AcDbEntity
8
0
100
AcDbSpline
70
0
71
3
72
9
73
5
74
3
42
0.000000001
43
0.0000000001
44
0.0000000001
40
0
40
0
40
0
40
0
40
0.045770517611279239
40
0.094190528758514497
40
0.094190528758514497
40
0.094190528758514497
40
0.094190528758514497
10
-15.197291396501067
20
23.084436223008474
30
0
10
-15.292332749598012
20
23.208223133785001
30
0
10
-15.48791706389731
20
23.462962542206093
30
0
10
-15.511233155100633
20
23.783775479447975
30
0
10
-15.523219130876067
20
23.948694035508474
30
0
11
-15.197291396501067
21
23.084436223008474
31
0
11
-15.441737197282317
21
23.471399113633474
31
0
11
-15.523219130876067
21
23.948694035508474
31
0
0
SPLINE
5
163
100
AcDbEntity
8
0
100
AcDbSpline
70
0
71
3
72
9
73
5
74
3
42
0.000000001
43
0.0000000001
44
0.0000000001
40
0
40
0
40
0
40
0
40
0.015598513087911343
40
0.031101202477658269
40
0.031101202477658269
40
0.031101202477658269
40
0.031101202477658269
10
-55.31670639233009
20
24.303655742664088
30
0
10
-55.264393578274785
20
24.302769179614842
30
0
10
-55.160089314596533
20
24.301001499788669
30
0
10
-55.06094836020953
20
24.268557987741449
30
0
10
-55.01153061108009
20
24.252386211414088
30
0
11
-55.31670639233009
21
24.303655742664088
31
0
11
-55.16106674389259
21
24.293279766101588
31
0
11
-55.01153061108009
21
24.252386211414088
31
0
0
SPLINE
5
164
100
AcDbEntity
8
0
100
AcDbSpline
70
0
71
3
72
9
73
5
74
3
42
0.000000001
43
0.0000000001
44
0.0000000001
40
0
40
0
40
0
40
0
40
0.037012236599079942
40
0.073814019130931385
40
0.073814019130931385
40
0.073814019130931385
40
0.073814019130931385
10
-42.101352439372306
20
18.580912401879083
30
0
10
-42.196838444683003
20
18.497599607651392
30
0
10
-42.38726751545456
20
18.33144774134869
30
0
10
-42.638791038869172
20
18.307304882649412
30
0
10
-42.764194236247306
20
18.295267870629083
30
0
11
-42.101352439372306
21
18.580912401879083
31
0
11
-42.403171287028556
21
18.366679003441583
31
0
11
-42.764194236247306
21
18.295267870629083
31
0
0
SPLINE
5
165
100
AcDbEntity
8
0
100
AcDbSpline
70
0
71
3
72
9
73
5
74
3
42
0.000000001
43
0.0000000001
44
0.0000000001
40
0
40
0
40
0
40
0
40
0.036628518941254837
40
0.073055515146958419
40
0.073055515146958419
40
0.073055515146958419
40
0.073055515146958419
10
-52.64580795483009
20
19.938421367664088
30
0
10
-52.520910710824268
20
19.926852577912172
30
0
10
-52.27180338229936
20
19.903778647560024
30
0
10
-52.083140768657245
20
19.739548306006981
30
0
10
-51.98906967358009
20
19.657659648914088
30
0
11
-52.64580795483009
21
19.938421367664088
31
0
11
-52.28631088451759
21
19.868230937976588
31
0
11
-51.98906967358009
21
19.657659648914088
31
0
0
SPLINE
5
166
100
AcDbEntity
8
0
100
AcDbSpline
70
0
71
3
72
9
73
5
74
3
42
0.000000001
43
0.0000000001
44
0.0000000001
40
0
40
0
40
0
40
0
40
0.052150067650393588
40
0.10653006275606593
40
0.10653006275606593
40
0.10653006275606593
40
0.10653006275606593
10
-45.049350486247306
20
15.631693651879083
30
0
10
-45.176084618295945
20
15.758919466772687
30
0
10
-45.43497201094489
20
16.018811249381045
30
0
10
-45.467378421741813
20
16.384806736683515
30
0
10
-45.483920798747306
20
16.571635058129083
30
0
11
-45.049350486247306
21
15.631693651879083
31
0
11
-45.375278220622306
21
16.038798144066583
31
0
11
-45.483920798747306
21
16.571635058129083
31
0
0
SPLINE
5
167
100
AcDbEntity
8
0
100
AcDbSpline
70
0
71
3
72
9
73
5
74
3
42
0.000000001
43
0.0000000001
44
0.0000000001
40
0
40
0
40
0
40
0
40
0.037068846807255362
40
0.072128377748903794
40
0.072128377748903794
40
0.072128377748903794
40
0.072128377748903794
10
-43.274448142497306
20
17.138041308129083
30
0
10
-43.208952016516022
20
17.031032701551979
30
0
10
-43.081509980338552
20
16.822815887101022
30
0
10
-43.060197938416223
20
16.579863801513778
30
0
10
-43.049838767497306
20
16.461771776879083
30
0
11
-43.274448142497306
21
17.138041308129083
31
0
11
-43.105991111247306
21
16.807841112816583
31
0
11
-43.049838767497306
21
16.461771776879083
31
0
0
SPLINE
5
168
100
AcDbEntity
8
0
100
AcDbSpline
70
0
71
3
72
9
73
5
74
3
42
0.000000001
43
0.0000000001
44
0.0000000001
40
0
40
0
40
0
40
0
40
0.024526907481812216
40
0.048935361732685402
40
0.048935361732685402
40
0.048935361732685402
40
0.048935361732685402
10
-32.600663413878188
20
22.819193651879054
30
0
10
-32.517067172152949
20
22.826900011599879
30
0
10
-32.350278418562588
20
22.842275513010335
30
0
10
-32.223316755301077
20
22.951487444025176
30
0
10
-32.159989585753188
20
23.005961230004054
30
0
11
-32.600663413878188
21
22.819193651879054
31
0
11
-32.359879722471938
21
22.865885546410304
31
0
11
-32.159989585753188
21
23.005961230004054
31
0
0
SPLINE
5
169
100
AcDbEntity
8
0
100
AcDbSpline
70
0
71
3
72
9
73
5
74
3
42
0.000000001
43
0.0000000001
44
0.0000000001
40
0
40
0
40
0
40
0
40
0.027965892986804349
40
0.056524933293431424
40
0.056524933293431424
40
0.056524933293431424
40
0.056524933293431424
10
-12.229762099626068
20
16.976037785508474
30
0
10
-12.240884601250819
20
17.072171277871835
30
0
10
-12.263365509072779
20
17.26647722210425
30
0
10
-12.411344066717893
20
17.394668163276638
30
0
10
-12.486109755876068
20
17.459436223008474
30
0
11
-12.229762099626068
21
16.976037785508474
31
0
11
-12.293849013688568
21
17.248254582383474
31
0
11
-12.486109755876068
21
17.459436223008474
31
0
0
SPLINE
5
170
100
AcDbEntity
8
0
100
AcDbSpline
70
0
71
3
72
9
73
5
74
3
42
0.000000001
43
0.0000000001
44
0.0000000001
40
0
40
0
40
0
40
0
40
0.024526907481812216
40
0.048935361732685402
40
0.048935361732685402
40
0.048935361732685402
40
0.048935361732685402
10
-62.527152926864737
20
22.221426741788221
30
0
10
-62.443556685139498
20
22.229133101509042
30
0
10
-62.276767931549138
20
22.244508602919502
30
0
10
-62.149806268287627
20
22.353720533934343
30
0
10
-62.086479098739737
20
22.408194319913221
30
0
11
-62.527152926864737
21
22.221426741788221
31
0
11
-62.286369235458487
21
22.268118636319471
31
0
11
-62.086479098739737
21
22.408194319913221
31
0
0
SPLINE
5
171
100
AcDbEntity
8
0
100
AcDbSpline
70
0
71
3
72
9
73
5
74
3
42
0.000000001
43
0.0000000001
44
0.0000000001
40
0
40
0
40
0
40
0
40
0.037910853718036673
40
0.071962468039240876
40
0.071962468039240876
40
0.071962468039240876
40
0.071962468039240876
10
-14.711451552751068
20
15.933557316758474
30
0
10
-14.830968962017835
20
15.979498779585978
30
0
10
-15.057837177871292
20
16.066704967950642
30
0
10
-15.228731382042774
20
16.23899501328119
30
0
10
-15.309596084001068
20
16.320520207383474
30
0
11
-14.711451552751068
21
15.933557316758474
31
0
11
-15.054469130876068
21
16.094995305039724
31
0
11
-15.309596084001068
21
16.320520207383474
31
0
0
SPLINE
5
172
100
AcDbEntity
8
0
100
AcDbSpline
70
0
71
3
72
9
73
5
74
3
42
0.000000001
43
0.0000000001
44
0.0000000001
40
0
40
0
40
0
40
0
40
0.02830982013886792
40
0.055825000665641993
40
0.055825000665641993
40
0.055825000665641993
40
0.055825000665641993
10
-23.619813658467216
20
19.513941805935641
30
0
10
-23.611430477538331
20
19.417224903925096
30
0
10
-23.59489942652354
20
19.226505885131161
30
0
10
-23.468493777190581
20
19.082976152590312
30
0
10
-23.406190611592216
20
19.012232821560641
30
0
11
-23.619813658467216
21
19.513941805935641
31
0
11
-23.566407896748466
21
19.235926669216891
31
0
11
-23.406190611592216
21
19.012232821560641
31
0
0
SPLINE
5
173
100
AcDbEntity
8
0
100
AcDbSpline
70
0
71
3
72
9
73
5
74
3
42
0.000000001
43
0.0000000001
44
0.0000000001
40
0
40
0
40
0
40
0
40
0.026709785658621889
40
0.05591823285910888
40
0.05591823285910888
40
0.05591823285910888
40
0.05591823285910888
10
-55.01153061108009
20
24.252386211414088
30
0
10
-54.929674388853762
20
24.216376384534819
30
0
10
-54.758304414046748
20
24.140988063925018
30
0
10
-54.611919431549836
20
24.024123074713369
30
0
10
-54.53545639233009
20
23.963079570789088
30
0
11
-55.01153061108009
21
24.252386211414088
31
0
11
-54.77166244701759
21
24.134893535632838
31
0
11
-54.53545639233009
21
23.963079570789088
31
0
0
SPLINE
5
174
100
AcDbEntity
8
0
100
AcDbSpline
70
0
71
3
72
9
73
5
74
3
42
0.000000001
43
0.0000000001
44
0.0000000001
40
0
40
0
40
0
40
0
40
0.048282242181453335
40
0.099967236307424434
40
0.099967236307424434
40
0.099967236307424434
40
0.099967236307424434
10
-64.15312948936473
20
18.754629866788221
30
0
10
-64.309270969911253
20
18.79479308121077
30
0
10
-64.632558198878854
20
18.877950063273772
30
0
10
-64.965090551830983
20
18.907703695081043
30
0
10
-65.13701620811473
20
18.923086898038221
30
0
11
-64.15312948936473
21
18.754629866788221
31
0
11
-64.62371054405223
21
18.862662093350721
31
0
11
-65.13701620811473
21
18.923086898038221
31
0
0
SPLINE
5
175
100
AcDbEntity
8
0
100
AcDbSpline
70
0
71
3
72
9
73
5
74
3
42
0.000000001
43
0.0000000001
44
0.0000000001
40
0
40
0
40
0
40
0
40
0.037327040221817889
40
0.085129502228995096
40
0.085129502228995096
40
0.085129502228995096
40
0.085129502228995096
10
-12.848658584001068
20
15.884729191758474
30
0
10
-12.971105413738268
20
15.861321178870602
30
0
10
-13.250362424288852
20
15.807935952678744
30
0
10
-13.534855487223449
20
15.805519620046656
30
0
10
-13.694605849626068
20
15.804162785508474
30
0
11
-12.848658584001068
21
15.884729191758474
31
0
11
-13.217005751969818
21
15.824304387070974
31
0
11
-13.694605849626068
21
15.804162785508474
31
0
0
SPLINE
5
176
100
AcDbEntity
8
0
100
AcDbSpline
70
0
71
3
72
9
73
5
74
3
42
0.000000001
43
0.0000000001
44
0.0000000001
40
0
40
0
40
0
40
0
40
0.046589548476079809
40
0.12001309738131014
40
0.12001309738131014
40
0.12001309738131014
40
0.12001309738131014
10
-14.866480849626068
20
19.242883488633474
30
0
10
-14.721632855159843
20
19.183415409784335
30
0
10
-14.348509332095695
20
19.030227654773881
30
0
10
-13.942810702460875
20
19.034171705515689
30
0
10
-13.694605849626068
20
19.036584660508474
30
0
11
-14.866480849626068
21
19.242883488633474
31
0
11
-14.427027724626068
21
19.088159367539724
31
0
11
-13.694605849626068
21
19.036584660508474
31
0
0
SPLINE
5
177
100
AcDbEntity
8
0
100
AcDbSpline
70
0
71
3
72
9
73
5
74
3
42
0.000000001
43
0.0000000001
44
0.0000000001
40
0
40
0
40
0
40
0
40
0.035702866672274132
40
0.073099602994558463
40
0.073099602994558463
40
0.073099602994558463
40
0.073099602994558463
10
-35.059159507628181
20
18.740824511254051
30
0
10
-35.121100902428275
20
18.844571962233022
30
0
10
-35.247922409798491
20
19.056989008401182
30
0
10
-35.263561242769541
20
19.304102145813768
30
0
10
-35.271561851378181
20
19.430521776879051
30
0
11
-35.059159507628181
21
18.740824511254051
31
0
11
-35.218461265440681
21
19.060343554222801
31
0
11
-35.271561851378181
21
19.430521776879051
31
0
0
SPLINE
5
178
100
AcDbEntity
8
0
100
AcDbSpline
70
0
71
3
72
9
73
5
74
3
42
0.000000001
43
0.0000000001
44
0.0000000001
40
0
40
0
40
0
40
0
40
0.037922348919340626
40
0.071925683047581568
40
0.071925683047581568
40
0.071925683047581568
40
0.071925683047581568
10
-12.672877334001068
20
18.007531926133474
30
0
10
-12.553437543168343
20
17.961279185037256
30
0
10
-12.32690124508785
20
17.87355360655992
30
0
10
-12.156508013532658
20
17.700948512442125
30
0
10
-12.075953505876068
20
17.619348332383474
30
0
11
-12.672877334001068
21
18.007531926133474
31
0
11
-12.330164931657318
21
17.845178410508474
31
0
11
-12.075953505876068
21
17.619348332383474
31
0
0
SPLINE
5
179
100
AcDbEntity
8
0
100
AcDbSpline
70
0
71
3
72
9
73
5
74
3
42
0.000000001
43
0.0000000001
44
0.0000000001
40
0
40
0
40
0
40
0
40
0.021414295689323203
40
0.043362609163597382
40
0.043362609163597382
40
0.043362609163597382
40
0.043362609163597382
10
-22.621278502217216
20
22.546168368435641
30
0
10
-22.69300339454222
20
22.550007583862481
30
0
10
-22.838241814629086
20
22.557781754933242
30
0
10
-22.974615306400558
20
22.608425352476608
30
0
10
-23.043641783467216
20
22.634058993435641
30
0
11
-22.621278502217216
21
22.546168368435641
31
0
11
-22.834291197529716
21
22.568141024685641
31
0
11
-23.043641783467216
21
22.634058993435641
31
0
0
SPLINE
5
180
100
AcDbEntity
8
0
100
AcDbSpline
70
0
71
3
72
9
73
5
74
3
42
0.000000001
43
0.0000000001
44
0.0000000001
40
0
40
0
40
0
40
0
40
0.031775145029671929
40
0.060576528746157855
40
0.060576528746157855
40
0.060576528746157855
40
0.060576528746157855
10
-14.867701552751068
20
17.480188176133474
30
0
10
-14.952733117416987
20
17.410116050648938
30
0
10
-15.114838342003871
20
17.276529685590507
30
0
10
-15.145073945580791
20
17.069559758173519
30
0
10
-15.159449599626068
20
16.971154973008474
30
0
11
-14.867701552751068
21
17.480188176133474
31
0
11
-15.086512587907318
21
17.249780461289724
31
0
11
-15.159449599626068
21
16.971154973008474
31
0
0
SPLINE
5
181
100
AcDbEntity
8
0
100
AcDbSpline
70
0
71
3
72
9
73
5
74
3
42
0.000000001
43
0.0000000001
44
0.0000000001
40
0
40
0
40
0
40
0
40
0.031936554377790805
40
0.066906929315846325
40
0.066906929315846325
40
0.066906929315846325
40
0.066906929315846325
10
-32.219804038878181
20
19.833353808129054
30
0
10
-32.30810849012714
20
19.896693030839216
30
0
10
-32.493105894922238
20
20.029388400748523
30
0
10
-32.720873492792165
20
20.043344501856247
30
0
10
-32.839921226378181
20
20.050638964379054
30
0
11
-32.219804038878181
21
19.833353808129054
31
0
11
-32.494462242003181
21
19.996317675316554
31
0
11
-32.839921226378181
21
20.050638964379054
31
0
0
SPLINE
5
182
100
AcDbEntity
8
0
100
AcDbSpline
70
0
71
3
72
9
73
5
74
3
42
0.000000001
43
0.0000000001
44
0.0000000001
40
0
40
0
40
0
40
0
40
0.033072734504358235
40
0.069192257557490144
40
0.069192257557490144
40
0.069192257557490144
40
0.069192257557490144
10
-12.075953505876068
20
17.619348332383474
30
0
10
-12.014747393794117
20
17.525302639342819
30
0
10
-11.886696625246119
20
17.328547399337353
30
0
10
-11.873093584568892
20
17.093732370398889
30
0
10
-11.865992568376068
20
16.971154973008474
30
0
11
-12.075953505876068
21
17.619348332383474
31
0
11
-11.918482802751068
21
17.328515812852224
31
0
11
-11.865992568376068
21
16.971154973008474
31
0
0
SPLINE
5
183
100
AcDbEntity
8
0
100
AcDbSpline
70
0
71
3
72
9
73
5
74
3
42
0.000000001
43
0.0000000001
44
0.0000000001
40
0
40
0
40
0
40
0
40
0.027193559568742684
40
0.052250052352303983
40
0.052250052352303983
40
0.052250052352303983
40
0.052250052352303983
10
-11.865992568376068
20
16.971154973008474
30
0
10
-11.869983428923094
20
16.87969416908151
30
0
10
-11.877651519302571
20
16.703960213352495
30
0
10
-11.948151247391397
20
16.542981270319647
30
0
10
-11.981959365251068
20
16.465783879258474
30
0
11
-11.865992568376068
21
16.971154973008474
31
0
11
-11.894984267594818
21
16.700769230820974
31
0
11
-11.981959365251068
21
16.465783879258474
31
0
0
LINE
5
184
100
AcDbEntity
8
0
100
AcDbLine
10
-54.89434311108009
20
21.937933086414088
30
0
11
-55.31670639233009
21
21.937933086414088
31
0
0
LINE
5
185
100
AcDbEntity
8
0
100
AcDbLine
10
-52.80449936108009
20
23.768987773914088
30
0
11
-52.75811264233009
21
24.220647930164088
31
0
0
SPLINE
5
186
100
AcDbEntity
8
0
100
AcDbSpline
70
0
71
3
72
9
73
5
74
3
42
0.000000001
43
0.0000000001
44
0.0000000001
40
0
40
0
40
0
40
0
40
0.049585570984792014
40
0.12408192336965751
40
0.12408192336965751
40
0.12408192336965751
40
0.12408192336965751
10
-12.486109755876068
20
20.240197941758474
30
0
10
-12.639429925574401
20
20.305785985087503
30
0
10
-13.023095196936637
20
20.469912169473172
30
0
10
-13.442689601371489
20
20.468247911090039
30
0
10
-13.694605849626068
20
20.467248723008474
30
0
11
-12.486109755876068
21
20.240197941758474
31
0
11
-12.951807998063568
21
20.410486027695974
31
0
11
-13.694605849626068
21
20.467248723008474
31
0
0
SPLINE
5
187
100
AcDbEntity
8
0
100
AcDbSpline
70
0
71
3
72
9
73
5
74
3
42
0.000000001
43
0.0000000001
44
0.0000000001
40
0
40
0
40
0
40
0
40
0.037910853718036673
40
0.071962468039240876
40
0.071962468039240876
40
0.071962468039240876
40
0.071962468039240876
10
-14.711451552751068
20
18.714319035508474
30
0
10
-14.830968962017835
20
18.760260498335978
30
0
10
-15.057837177871292
20
18.847466686700646
30
0
10
-15.228731382042774
20
19.019756732031187
30
0
10
-15.309596084001068
20
19.101281926133474
30
0
11
-14.711451552751068
21
18.714319035508474
31
0
11
-15.054469130876068
21
18.875757023789724
31
0
11
-15.309596084001068
21
19.101281926133474
31
0
0
LWPOLYLINE
5
188
100
AcDbEntity
8
0
100
AcDbPolyline
90
4
70
1
43
0.0
10
-65.13701620811473
20
21.047110335538221
10
-65.13701620811473
20
20.546622054288221
10
-64.63652792686473
20
20.546622054288221
10
-64.63652792686473
20
21.047110335538221
0
SPLINE
5
189
100
AcDbEntity
8
0
100
AcDbSpline
70
0
71
3
72
9
73
5
74
3
42
0.000000001
43
0.0000000001
44
0.0000000001
40
0
40
0
40
0
40
0
40
0.057007138171814083
40
0.10281617802550526
40
0.10281617802550526
40
0.10281617802550526
40
0.10281617802550526
10
-13.694605849626068
20
18.584924504258474
30
0
10
-13.885434284291943
20
18.587536507619248
30
0
10
-14.229606101017794
20
18.592247429990675
30
0
10
-14.562937876426567
20
18.676694309893513
30
0
10
-14.711451552751068
20
18.714319035508474
30
0
11
-13.694605849626068
21
18.584924504258474
31
0
11
-14.263758681657318
21
18.617273137070974
31
0
11
-14.711451552751068
21
18.714319035508474
31
0
0
LINE
5
190
100
AcDbEntity
8
0
100
AcDbLine
10
-34.382889976378181
20
20.436381151879051
30
0
11
-34.343827476378181
21
20.014017870629051
31
0
0
SPLINE
5
191
100
AcDbEntity
8
0
100
AcDbSpline
70
0
71
3
72
9
73
5
74
3
42
0.000000001
43
0.0000000001
44
0.0000000001
40
0
40
0
40
0
40
0
40
0.04669189453125
40
0.088069994372390534
40
0.088069994372390534
40
0.088069994372390534
40
0.088069994372390534
10
-21.627626158467216
20
23.661891024685641
30
0
10
-21.636378910260877
20
23.502607515695686
30
0
10
-21.652888302500134
20
23.202167838077308
30
0
10
-21.830039426401974
20
22.960162965606369
30
0
10
-21.913270689717216
20
22.846461337185641
30
0
11
-21.627626158467216
21
23.661891024685641
31
0
11
-21.699037291279716
21
23.200465243435641
31
0
11
-21.913270689717216
21
22.846461337185641
31
0
0
SPLINE
5
192
100
AcDbEntity
8
0
100
AcDbSpline
70
0
71
3
72
9
73
5
74
3
42
0.000000001
43
0.0000000001
44
0.0000000001
40
0
40
0
40
0
40
0
40
0.028414815223043729
40
0.057957170690665749
40
0.057957170690665749
40
0.057957170690665749
40
0.057957170690665749
10
-43.879916892497306
20
18.809183886254083
30
0
10
-43.819396782911809
20
18.884995922194019
30
0
10
-43.695955039795358
20
19.03962832338642
30
0
10
-43.680351110761322
20
19.23709445162504
30
0
10
-43.672397361247306
20
19.337748339379083
30
0
11
-43.879916892497306
21
18.809183886254083
31
0
11
-43.724277244059806
21
19.046915819847833
31
0
11
-43.672397361247306
21
19.337748339379083
31
0
0
SPLINE
5
193
100
AcDbEntity
8
0
100
AcDbSpline
70
0
71
3
72
9
73
5
74
3
42
0.000000001
43
0.0000000001
44
0.0000000001
40
0
40
0
40
0
40
0
40
0.052150067650393588
40
0.10653006275606593
40
0.10653006275606593
40
0.10653006275606593
40
0.10653006275606593
10
-24.847841002217219
20
15.810328524685641
30
0
10
-24.974575134265852
20
15.937554339579247
30
0
10
-25.233462526914799
20
16.197446122187603
30
0
10
-25.265868937711726
20
16.563441609490077
30
0
10
-25.282411314717216
20
16.750269930935641
30
0
11
-24.847841002217219
21
15.810328524685641
31
0
11
-25.173768736592219
21
16.217433016873141
31
0
11
-25.282411314717216
21
16.750269930935641
31
0
0
SPLINE
5
194
100
AcDbEntity
8
0
100
AcDbSpline
70
0
71
3
72
9
73
5
74
3
42
0.000000001
43
0.0000000001
44
0.0000000001
40
0
40
0
40
0
40
0
40
0.027326987441887524
40
0.057861284619934006
40
0.057861284619934006
40
0.057861284619934006
40
0.057861284619934006
10
-12.316432021501068
20
16.106897160508474
30
0
10
-12.395851564726453
20
16.061588447816082
30
0
10
-12.564011952135468
20
15.965653236280879
30
0
10
-12.750333705411801
20
15.912682611760207
30
0
10
-12.848658584001068
20
15.884729191758474
30
0
11
-12.316432021501068
21
16.106897160508474
31
0
11
-12.558741591813568
21
15.980554387070974
31
0
11
-12.848658584001068
21
15.884729191758474
31
0
0
SPLINE
5
195
100
AcDbEntity
8
0
100
AcDbSpline
70
0
71
3
72
9
73
5
74
3
42
0.000000001
43
0.0000000001
44
0.0000000001
40
0
40
0
40
0
40
0
40
0.033072734504358235
40
0.069192257557490144
40
0.069192257557490144
40
0.069192257557490144
40
0.069192257557490144
10
-12.075953505876068
20
20.400110051133474
30
0
10
-12.014747393794117
20
20.306064358092819
30
0
10
-11.886696625246119
20
20.109309118087353
30
0
10
-11.873093584568892
20
19.874494089148889
30
0
10
-11.865992568376068
20
19.751916691758474
30
0
11
-12.075953505876068
21
20.400110051133474
31
0
11
-11.918482802751068
21
20.109277531602224
31
0
11
-11.865992568376068
21
19.751916691758474
31
0
0
SPLINE
5
196
100
AcDbEntity
8
0
100
AcDbSpline
70
0
71
3
72
9
73
5
74
3
42
0.000000001
43
0.0000000001
44
0.0000000001
40
0
40
0
40
0
40
0
40
0.065027717368355956
40
0.10955165066311773
40
0.10955165066311773
40
0.10955165066311773
40
0.10955165066311773
10
-33.887284507628188
20
23.812845995629051
30
0
10
-33.749519925608624
20
23.644816741698776
30
0
10
-33.517429088440458
20
23.361739265313123
30
0
10
-33.24140816737409
20
23.121791316044305
30
0
10
-33.129227867003188
20
23.024271776879054
30
0
11
-33.887284507628188
21
23.812845995629051
31
0
11
-33.458512534971938
21
23.323954394066551
31
0
11
-33.129227867003188
21
23.024271776879054
31
0
0
SPLINE
5
197
100
AcDbEntity
8
0
100
AcDbSpline
70
0
71
3
72
9
73
5
74
3
42
0.000000001
43
0.0000000001
44
0.0000000001
40
0
40
0
40
0
40
0
40
0.068011358487467338
40
0.13465734040626351
40
0.13465734040626351
40
0.13465734040626351
40
0.13465734040626351
10
-62.912895114364737
20
18.235831038663221
30
0
10
-63.114229775834744
20
18.341053899019553
30
0
10
-63.512857161731489
20
18.549387195701669
30
0
10
-63.941152968174258
20
18.686679675066536
30
0
10
-64.15312948936473
20
18.754629866788221
30
0
11
-62.912895114364737
21
18.235831038663221
31
0
11
-63.524467379989737
21
18.533377425381971
31
0
11
-64.15312948936473
21
18.754629866788221
31
0
0
SPLINE
5
198
100
AcDbEntity
8
0
100
AcDbSpline
70
0
71
3
72
9
73
5
74
3
42
0.000000001
43
0.0000000001
44
0.0000000001
40
0
40
0
40
0
40
0
40
0.031775145029671929
40
0.060576528746157855
40
0.060576528746157855
40
0.060576528746157855
40
0.060576528746157855
10
-14.867701552751068
20
20.260949894883474
30
0
10
-14.952733117416987
20
20.190877769398938
30
0
10
-15.114838342003869
20
20.057291404340507
30
0
10
-15.145073945580791
20
19.850321476923519
30
0
10
-15.159449599626068
20
19.751916691758474
30
0
11
-14.867701552751068
21
20.260949894883474
31
0
11
-15.086512587907318
21
20.030542180039724
31
0
11
-15.159449599626068
21
19.751916691758474
31
0
0
SPLINE
5
199
100
AcDbEntity
8
0
100
AcDbSpline
70
0
71
3
72
9
73
5
74
3
42
0.000000001
43
0.0000000001
44
0.0000000001
40
0
40
0
40
0
40
0
40
0.020308410709742691
40
0.045085771276159016
40
0.045085771276159016
40
0.045085771276159016
40
0.045085771276159016
10
-34.569657554503181
20
18.815287401879051
30
0
10
-34.509803162310241
20
18.783188825015458
30
0
10
-34.37692317111577
20
18.711928246556312
30
0
10
-34.231096800710326
20
18.673068800873597
30
0
10
-34.150956382628181
20
18.651713183129054
30
0
11
-34.569657554503181
21
18.815287401879051
31
0
11
-34.387467613096931
21
18.725565722191551
31
0
11
-34.150956382628181
21
18.651713183129054
31
0
0
SPLINE
5
200
100
AcDbEntity
8
0
100
AcDbSpline
70
0
71
3
72
9
73
5
74
3
42
0.000000001
43
0.0000000001
44
0.0000000001
40
0
40
0
40
0
40
0
40
0.020308410709742691
40
0.045085771276159016
40
0.045085771276159016
40
0.045085771276159016
40
0.045085771276159016
10
-24.580507017842216
20
18.993922274685641
30
0
10
-24.520652625649277
20
18.961823697822048
30
0
10
-24.387772634454802
20
18.890563119362902
30
0
10
-24.241946264049364
20
18.851703673680188
30
0
10
-24.161805845967216
20
18.830348055935641
30
0
11
-24.580507017842216
21
18.993922274685641
31
0
11
-24.398317076435966
21
18.904200594998141
31
0
11
-24.161805845967216
21
18.830348055935641
31
0
0
SPLINE
5
201
100
AcDbEntity
8
0
100
AcDbSpline
70
0
71
3
72
9
73
5
74
3
42
0.000000001
43
0.0000000001
44
0.0000000001
40
0
40
0
40
0
40
0
40
0.039997695860213602
40
0.082172469894449832
40
0.082172469894449832
40
0.082172469894449832
40
0.082172469894449832
10
-25.008973814717216
20
17.547389071560641
30
0
10
-24.908500450772291
20
17.639466780632912
30
0
10
-24.702084948669057
20
17.828633996742912
30
0
10
-24.425719762463849
20
17.87590868337707
30
0
10
-24.283876158467216
20
17.900172274685641
30
0
11
-25.008973814717216
21
17.547389071560641
31
0
11
-24.690980650654716
21
17.790003817654391
31
0
11
-24.283876158467216
21
17.900172274685641
31
0
0
SPLINE
5
202
100
AcDbEntity
8
0
100
AcDbSpline
70
0
71
3
72
9
73
5
74
3
42
0.000000001
43
0.0000000001
44
0.0000000001
40
0
40
0
40
0
40
0
40
0.040647363467803378
40
0.086960671515694823
40
0.086960671515694823
40
0.086960671515694823
40
0.086960671515694823
10
-21.892518736592216
20
24.474879305935641
30
0
10
-21.815346379390967
20
24.360389201019146
30
0
10
-21.650244403958165
20
24.115449909610316
30
0
10
-21.635486100628135
20
23.819504779629849
30
0
10
-21.627626158467216
20
23.661891024685641
30
0
11
-21.892518736592216
21
24.474879305935641
31
0
11
-21.693849302998466
21
24.120265048123141
31
0
11
-21.627626158467216
21
23.661891024685641
31
0
0
SPLINE
5
203
100
AcDbEntity
8
0
100
AcDbSpline
70
0
71
3
72
9
73
5
74
3
42
0.000000001
43
0.0000000001
44
0.0000000001
40
0
40
0
40
0
40
0
40
0.073575760673566165
40
0.12013652472993311
40
0.12013652472993311
40
0.12013652472993311
40
0.12013652472993311
10
-13.694605849626068
20
17.686487004258474
30
0
10
-13.943338202422744
20
17.688987433396385
30
0
10
-14.34947522607472
20
17.693070202833113
30
0
10
-14.722954065255289
20
17.539648950145882
30
0
10
-14.867701552751068
20
17.480188176133474
30
0
11
-13.694605849626068
21
17.686487004258474
31
0
11
-14.428553603532318
21
17.634912297227224
31
0
11
-14.867701552751068
21
17.480188176133474
31
0
0
SPLINE
5
204
100
AcDbEntity
8
0
100
AcDbSpline
70
0
71
3
72
9
73
5
74
3
42
0.000000001
43
0.0000000001
44
0.0000000001
40
0
40
0
40
0
40
0
40
0.023657442294653778
40
0.048145892505525728
40
0.048145892505525728
40
0.048145892505525728
40
0.048145892505525728
10
-14.994654677751067
20
24.389367863633474
30
0
10
-15.042715841480419
20
24.324705620478774
30
0
10
-15.14052639909622
20
24.193109762848977
30
0
10
-15.153069699475877
20
24.029479769465869
30
0
10
-15.159449599626067
20
23.946252629258474
30
0
11
-14.994654677751067
21
24.389367863633474
31
0
11
-15.118250869157317
21
24.187646672227224
31
0
11
-15.159449599626067
21
23.946252629258474
31
0
0
LINE
5
205
100
AcDbEntity
8
0
100
AcDbLine
10
-21.691102720967216
20
15.695582430935641
30
0
11
-22.111024595967216
21
15.695582430935641
31
0
0
SPLINE
5
206
100
AcDbEntity
8
0
100
AcDbSpline
70
0
71
3
72
9
73
5
74
3
42
0.000000001
43
0.0000000001
44
0.0000000001
40
0
40
0
40
0
40
0
40
0.05963308122939915
40
0.1130964116689426
40
0.1130964116689426
40
0.1130964116689426
40
0.1130964116689426
10
-62.962943942489737
20
18.753409163663221
30
0
10
-62.788985569123341
20
18.656337570444499
30
0
10
-62.459066883019858
20
18.472237593691794
30
0
10
-62.165459671402729
20
18.23462887215587
30
0
10
-62.026664645614737
20
18.122305648038221
30
0
11
-62.962943942489737
21
18.753409163663221
31
0
11
-62.451164157333487
21
18.447317855069471
31
0
11
-62.026664645614737
21
18.122305648038221
31
0
0
LINE
5
207
100
AcDbEntity
8
0
100
AcDbLine
10
-24.799012877217216
20
24.296656649685641
30
0
11
-24.799012877217216
21
22.541285555935641
31
0
0
SPLINE
5
208
100
AcDbEntity
8
0
100
AcDbSpline
70
0
71
3
72
9
73
5
74
3
42
0.000000001
43
0.0000000001
44
0.0000000001
40
0
40
0
40
0
40
0
40
0.029327964181718232
40
0.060715897842994943
40
0.060715897842994943
40
0.060715897842994943
40
0.060715897842994943
10
-23.453798033467219
20
16.204615634060641
30
0
10
-23.390443355518041
20
16.282269836815701
30
0
10
-23.259284024771318
20
16.443032602766365
30
0
10
-23.244273024185542
20
16.650395167777567
30
0
10
-23.236512877217216
20
16.757594149685641
30
0
11
-23.453798033467219
21
16.204615634060641
31
0
11
-23.290834166279716
21
16.448451083279391
31
0
11
-23.236512877217216
21
16.757594149685641
31
0
0
SPLINE
5
209
100
AcDbEntity
8
0
100
AcDbSpline
70
0
71
3
72
9
73
5
74
3
42
0.000000001
43
0.0000000001
44
0.0000000001
40
0
40
0
40
0
40
0
40
0.043904094439500184
40
0.092128666250586383
40
0.092128666250586383
40
0.092128666250586383
40
0.092128666250586383
10
-33.674882163878181
20
20.194681933129051
30
0
10
-33.555127005193739
20
20.284349761086382
30
0
10
-33.303831922421253
20
20.472509373549848
30
0
10
-32.989702976739316
20
20.49206353349836
30
0
10
-32.825272788878181
20
20.502299120629054
30
0
11
-33.674882163878181
21
20.194681933129051
31
0
11
-33.301347007628181
21
20.425394823754051
31
0
11
-32.825272788878181
21
20.502299120629054
31
0
0
SPLINE
5
210
100
AcDbEntity
8
0
100
AcDbSpline
70
0
71
3
72
9
73
5
74
3
42
0.000000001
43
0.0000000001
44
0.0000000001
40
0
40
0
40
0
40
0
40
0.026856092965934428
40
0.057289632038068208
40
0.057289632038068208
40
0.057289632038068208
40
0.057289632038068208
10
-22.181825377217216
20
24.179469149685641
30
0
10
-22.254544506869287
20
24.235077793282702
30
0
10
-22.409669535114475
20
24.35370259599889
30
0
10
-22.605264623732083
20
24.365874339794669
30
0
10
-22.709169127217216
20
24.372340243435641
30
0
11
-22.181825377217216
21
24.179469149685641
31
0
11
-22.408876158467216
21
24.322901766873141
31
0
11
-22.709169127217216
21
24.372340243435641
31
0
0
SPLINE
5
211
100
AcDbEntity
8
0
100
AcDbSpline
70
0
71
3
72
9
73
5
74
3
42
0.000000001
43
0.0000000001
44
0.0000000001
40
0
40
0
40
0
40
0
40
0.025377453542111964
40
0.052936195283584425
40
0.052936195283584425
40
0.052936195283584425
40
0.052936195283584425
10
-52.26616928295509
20
22.581243633289088
30
0
10
-52.213856021885121
20
22.650144223186885
30
0
10
-52.104732976922172
20
22.79386766951027
30
0
10
-52.092890929118568
20
22.974346408395348
30
0
10
-52.08672592358009
20
23.068304180164088
30
0
11
-52.26616928295509
21
22.581243633289088
31
0
11
-52.13158676342384
21
22.796392559070338
31
0
11
-52.08672592358009
21
23.068304180164088
31
0
0
SPLINE
5
212
100
AcDbEntity
8
0
100
AcDbSpline
70
0
71
3
72
9
73
5
74
3
42
0.000000001
43
0.0000000001
44
0.0000000001
40
0
40
0
40
0
40
0
40
0.01568665855742318
40
0.030222287057427591
40
0.030222287057427591
40
0.030222287057427591
40
0.030222287057427591
10
-24.560975767842216
20
24.111109774685641
30
0
10
-24.599676700210232
20
24.146410432388791
30
0
10
-24.674238831025711
20
24.214421513685366
30
0
10
-24.758491124599963
20
24.26994987901368
30
0
10
-24.799012877217216
20
24.296656649685641
30
0
11
-24.560975767842216
21
24.111109774685641
31
0
11
-24.679689146748466
21
24.213648837185641
31
0
11
-24.799012877217216
21
24.296656649685641
31
0
0
SPLINE
5
213
100
AcDbEntity
8
0
100
AcDbSpline
70
0
71
3
72
9
73
5
74
3
42
0.000000001
43
0.0000000001
44
0.0000000001
40
0
40
0
40
0
40
0
40
0.029198321835830824
40
0.060662670073828695
40
0.060662670073828695
40
0.060662670073828695
40
0.060662670073828695
10
-53.69683334545509
20
19.905462383289088
30
0
10
-53.624080705221957
20
19.838298735736537
30
0
10
-53.472929230274957
20
19.698758997276787
30
0
10
-53.408965142266702
20
19.502899738658488
30
0
10
-53.37578842358009
20
19.401311992664088
30
0
11
-53.69683334545509
21
19.905462383289088
31
0
11
-53.49877426342384
21
19.690923809070338
31
0
11
-53.37578842358009
21
19.401311992664088
31
0
0
LINE
5
214
100
AcDbEntity
8
0
100
AcDbLine
10
-12.871851943376067
20
24.602990910508478
30
0
11
-12.793726943376067
21
25.042444035508474
31
0
0
SPLINE
5
215
100
AcDbEntity
8
0
100
AcDbSpline
70
0
71
3
72
9
73
5
74
3
42
0.000000001
43
0.0000000001
44
0.0000000001
40
0
40
0
40
0
40
0
40
0.027326987441887524
40
0.057861284619934006
40
0.057861284619934006
40
0.057861284619934006
40
0.057861284619934006
10
-52.17339584545509
20
15.265569805164086
30
0
10
-52.252815388680474
20
15.220261092471695
30
0
10
-52.420975776089492
20
15.124325880936491
30
0
10
-52.607297529365823
20
15.071355256415821
30
0
10
-52.70562240795509
20
15.043401836414086
30
0
11
-52.17339584545509
21
15.265569805164086
31
0
11
-52.41570541576759
21
15.139227031726586
31
0
11
-52.70562240795509
21
15.043401836414086
31
0
0
SPLINE
5
216
100
AcDbEntity
8
0
100
AcDbSpline
70
0
71
3
72
9
73
5
74
3
42
0.000000001
43
0.0000000001
44
0.0000000001
40
0
40
0
40
0
40
0
40
0.018856035850315322
40
0.036994083379207267
40
0.036994083379207267
40
0.036994083379207267
40
0.036994083379207267
10
-23.332948424092216
20
17.140894930935641
30
0
10
-23.366968767757612
20
17.194478581490724
30
0
10
-23.433714049753128
20
17.299605557920593
30
0
10
-23.534015281628228
20
17.373311766377839
30
0
10
-23.583192564717216
20
17.409449618435641
30
0
11
-23.332948424092216
21
17.140894930935641
31
0
11
-23.443727232685966
21
17.293482821560641
31
0
11
-23.583192564717216
21
17.409449618435641
31
0
0
SPLINE
5
217
100
AcDbEntity
8
0
100
AcDbSpline
70
0
71
3
72
9
73
5
74
3
42
0.000000001
43
0.0000000001
44
0.0000000001
40
0
40
0
40
0
40
0
40
0.073727973996833479
40
0.1202599558422858
40
0.1202599558422858
40
0.1202599558422858
40
0.1202599558422858
10
-13.694605849626068
20
19.036584660508474
30
0
10
-13.44534594406408
20
19.0339965776489
30
0
10
-13.038770480083139
20
19.029775076452868
30
0
10
-12.664936424049873
20
19.183430034802473
30
0
10
-12.520289443376068
20
19.242883488633474
30
0
11
-13.694605849626068
21
19.036584660508474
31
0
11
-12.959132216813568
21
19.088159367539724
31
0
11
-12.520289443376068
21
19.242883488633474
31
0
0
SPLINE
5
218
100
AcDbEntity
8
0
100
AcDbSpline
70
0
71
3
72
9
73
5
74
3
42
0.000000001
43
0.0000000001
44
0.0000000001
40
0
40
0
40
0
40
0
40
0.035702866672274132
40
0.073099602994558463
40
0.073099602994558463
40
0.073099602994558463
40
0.073099602994558463
10
-25.070008970967216
20
18.919459384060641
30
0
10
-25.131950365767306
20
19.023206835039616
30
0
10
-25.25877187313753
20
19.235623881207772
30
0
10
-25.274410706108572
20
19.482737018620359
30
0
10
-25.282411314717216
20
19.609156649685641
30
0
11
-25.070008970967216
21
18.919459384060641
31
0
11
-25.229310728779716
21
19.238978427029391
31
0
11
-25.282411314717216
21
19.609156649685641
31
0
0
SPLINE
5
219
100
AcDbEntity
8
0
100
AcDbSpline
70
0
71
3
72
9
73
5
74
3
42
0.000000001
43
0.0000000001
44
0.0000000001
40
0
40
0
40
0
40
0
40
0.047125820812999805
40
0.091917517235773821
40
0.091917517235773821
40
0.091917517235773821
40
0.091917517235773821
10
-15.520777724626068
20
19.751916691758474
30
0
10
-15.506947440629318
20
19.913858074625875
30
0
10
-15.479971881462047
20
20.229719943853905
30
0
10
-15.257900204236323
20
20.455084239865727
30
0
10
-15.149683974626068
20
20.564904973008474
30
0
11
-15.520777724626068
21
19.751916691758474
31
0
11
-15.428004287126068
21
20.213952824570974
31
0
11
-15.149683974626068
21
20.564904973008474
31
0
0
SPLINE
5
220
100
AcDbEntity
8
0
100
AcDbSpline
70
0
71
3
72
9
73
5
74
3
42
0.000000001
43
0.0000000001
44
0.0000000001
40
0
40
0
40
0
40
0
40
0.031239880473072173
40
0.057412240134412561
40
0.057412240134412561
40
0.057412240134412561
40
0.057412240134412561
10
-53.23540756420509
20
22.599554180164088
30
0
10
-53.147893190572113
20
22.539885760307669
30
0
10
-52.987060429430144
20
22.430227925598899
30
0
10
-52.794585930416609
20
22.405670830444127
30
0
10
-52.70684311108009
20
22.394476055164088
30
0
11
-53.23540756420509
21
22.599554180164088
31
0
11
-52.96349594311134
21
22.445745586414088
31
0
11
-52.70684311108009
21
22.394476055164088
31
0
0
SPLINE
5
221
100
AcDbEntity
8
0
100
AcDbSpline
70
0
71
3
72
9
73
5
74
3
42
0.000000001
43
0.0000000001
44
0.0000000001
40
0
40
0
40
0
40
0
40
0.02831223800255854
40
0.055798345012470885
40
0.055798345012470885
40
0.055798345012470885
40
0.055798345012470885
10
-11.865992568376067
20
23.965783879258474
30
0
10
-11.870914166912128
20
23.870688025646377
30
0
10
-11.880613755235141
20
23.683271147876997
30
0
10
-11.955055297151203
20
23.511062561044461
30
0
10
-11.991724990251067
20
23.426233098008474
30
0
11
-11.865992568376067
21
23.965783879258474
31
0
11
-11.897425673844817
21
23.684411808945974
31
0
11
-11.991724990251067
21
23.426233098008474
31
0
0
LINE
5
222
100
AcDbEntity
8
0
100
AcDbLine
10
-64.71465292686473
20
21.764883773038221
30
0
11
-65.13701620811473
21
21.764883773038221
31
0
0
SPLINE
5
223
100
AcDbEntity
8
0
100
AcDbSpline
70
0
71
3
72
9
73
5
74
3
42
0.000000001
43
0.0000000001
44
0.0000000001
40
0
40
0
40
0
40
0
40
0.022636761998554088
40
0.044906858780112552
40
0.044906858780112552
40
0.044906858780112552
40
0.044906858780112552
10
-42.761752829997306
20
18.746928026879083
30
0
10
-42.684619151381227
20
18.753665815751845
30
0
10
-42.53160118825452
20
18.767032256297476
30
0
10
-42.413718684827195
20
18.86538801421171
30
0
10
-42.355258689372306
20
18.914164355004083
30
0
11
-42.761752829997306
21
18.746928026879083
31
0
11
-42.539279685466056
21
18.788737108910333
31
0
11
-42.355258689372306
21
18.914164355004083
31
0
0
SPLINE
5
224
100
AcDbEntity
8
0
100
AcDbSpline
70
0
71
3
72
9
73
5
74
3
42
0.000000001
43
0.0000000001
44
0.0000000001
40
0
40
0
40
0
40
0
40
0.032344947461061826
40
0.068410269578710631
40
0.068410269578710631
40
0.068410269578710631
40
0.068410269578710631
10
-24.681825377217219
20
16.213160555935641
30
0
10
-24.592310797102584
20
16.149125002883334
30
0
10
-24.402985507140706
20
16.013688411056929
30
0
10
-24.169926507914475
20
16.000425885838034
30
0
10
-24.047059752217219
20
15.993433993435641
30
0
11
-24.681825377217219
21
16.213160555935641
31
0
11
-24.403505064717219
21
16.048365634060641
31
0
11
-24.047059752217219
21
15.993433993435641
31
0
0
SPLINE
5
225
100
AcDbEntity
8
0
100
AcDbSpline
70
0
71
3
72
9
73
5
74
3
42
0.000000001
43
0.0000000001
44
0.0000000001
40
0
40
0
40
0
40
0
40
0.021414295689323203
40
0.043362609163597382
40
0.043362609163597382
40
0.043362609163597382
40
0.043362609163597382
10
-32.610429038878188
20
22.367533495629054
30
0
10
-32.682153931203189
20
22.371372711055887
30
0
10
-32.827392351290058
20
22.379146882126655
30
0
10
-32.963765843061523
20
22.429790479670014
30
0
10
-33.032792320128188
20
22.455424120629054
30
0
11
-32.610429038878188
21
22.367533495629054
31
0
11
-32.823441734190688
21
22.389506151879054
31
0
11
-33.032792320128188
21
22.455424120629054
31
0
0
SPLINE
5
226
100
AcDbEntity
8
0
100
AcDbSpline
70
0
71
3
72
9
73
5
74
3
42
0.000000001
43
0.0000000001
44
0.0000000001
40
0
40
0
40
0
40
0
40
0.025712431466377993
40
0.05158460713935499
40
0.05158460713935499
40
0.05158460713935499
40
0.05158460713935499
10
-23.877382017842216
20
19.126978915310641
30
0
10
-23.915478023809236
20
19.20478268110568
30
0
10
-23.991906715664257
20
19.360873585917528
30
0
10
-24.002622678509717
20
19.534354573990058
30
0
10
-24.007997252217216
20
19.621363680935641
30
0
11
-23.877382017842216
21
19.126978915310641
31
0
11
-23.975343443623466
21
19.364710848904391
31
0
11
-24.007997252217216
21
19.621363680935641
31
0
0
SPLINE
5
227
100
AcDbEntity
8
0
100
AcDbSpline
70
0
71
3
72
9
73
5
74
3
42
0.000000001
43
0.0000000001
44
0.0000000001
40
0
40
0
40
0
40
0
40
0.024371988281620637
40
0.049465158521698416
40
0.049465158521698416
40
0.049465158521698416
40
0.049465158521698416
10
-11.981959365251068
20
19.246545598008474
30
0
10
-12.02540491014696
20
19.176937823789231
30
0
10
-12.113581580039645
20
19.03566253896998
30
0
10
-12.248161169063776
20
18.93747063189528
30
0
10
-12.316432021501068
20
18.887658879258474
30
0
11
-11.981959365251068
21
19.246545598008474
31
0
11
-12.123560927751068
21
19.048181340195974
31
0
11
-12.316432021501068
21
18.887658879258474
31
0
0
SPLINE
5
228
100
AcDbEntity
8
0
100
AcDbSpline
70
0
71
3
72
9
73
5
74
3
42
0.000000001
43
0.0000000001
44
0.0000000001
40
0
40
0
40
0
40
0
40
0.043968745447848588
40
0.087340011393827743
40
0.087340011393827743
40
0.087340011393827743
40
0.087340011393827743
10
-22.848329283467216
20
16.640406649685641
30
0
10
-22.86148470633572
20
16.490633230376542
30
0
10
-22.887616786555945
20
16.193121622626329
30
0
10
-23.0783313549464
20
15.963444161342702
30
0
10
-23.173036314717216
20
15.849391024685641
30
0
11
-22.848329283467216
21
16.640406649685641
31
0
11
-22.929506041279716
21
16.208277743435641
31
0
11
-23.173036314717216
21
15.849391024685641
31
0
0
SPLINE
5
229
100
AcDbEntity
8
0
100
AcDbSpline
70
0
71
3
72
9
73
5
74
3
42
0.000000001
43
0.0000000001
44
0.0000000001
40
0
40
0
40
0
40
0
40
0.073727973996833479
40
0.1202599558422858
40
0.1202599558422858
40
0.1202599558422858
40
0.1202599558422858
10
-53.55156967358009
20
15.414495586414088
30
0
10
-53.302309768018105
20
15.411907503554513
30
0
10
-52.895734304037163
20
15.407686002358483
30
0
10
-52.521900248003902
20
15.561340960708083
30
0
10
-52.37725326733009
20
15.620794414539086
30
0
11
-53.55156967358009
21
15.414495586414088
31
0
11
-52.81609604076759
21
15.466070293445336
31
0
11
-52.37725326733009
21
15.620794414539086
31
0
0
SPLINE
5
230
100
AcDbEntity
8
0
100
AcDbSpline
70
0
71
3
72
9
73
5
74
3
42
0.000000001
43
0.0000000001
44
0.0000000001
40
0
40
0
40
0
40
0
40
0.024371988281620637
40
0.049465158521698416
40
0.049465158521698416
40
0.049465158521698416
40
0.049465158521698416
10
-11.981959365251068
20
16.465783879258474
30
0
10
-12.02540491014696
20
16.396176105039231
30
0
10
-12.113581580039645
20
16.25490082021998
30
0
10
-12.248161169063776
20
16.15670891314528
30
0
10
-12.316432021501068
20
16.106897160508474
30
0
11
-11.981959365251068
21
16.465783879258474
31
0
11
-12.123560927751068
21
16.267419621445974
31
0
11
-12.316432021501068
21
16.106897160508474
31
0
0
SPLINE
5
231
100
AcDbEntity
8
0
100
AcDbSpline
70
0
71
3
72
9
73
5
74
3
42
0.000000001
43
0.0000000001
44
0.0000000001
40
0
40
0
40
0
40
0
40
0.036860749938243162
40
0.076332202473406024
40
0.076332202473406024
40
0.076332202473406024
40
0.076332202473406024
10
-12.108912490251067
20
24.676233098008474
30
0
10
-12.038083743223611
20
24.572945442780643
30
0
10
-11.891409726333135
20
24.359054672108226
30
0
10
-11.874655957660343
20
24.099829470758035
30
0
10
-11.865992568376067
20
23.965783879258474
30
0
11
-12.108912490251067
21
24.676233098008474
31
0
11
-11.926722548844817
21
24.355798527695974
31
0
11
-11.865992568376067
21
23.965783879258474
31
0
0
SPLINE
5
232
100
AcDbEntity
8
0
100
AcDbSpline
70
0
71
3
72
9
73
5
74
3
42
0.000000001
43
0.0000000001
44
0.0000000001
40
0
40
0
40
0
40
0
40
0.061727375019376154
40
0.11065721787774629
40
0.11065721787774629
40
0.11065721787774629
40
0.11065721787774629
10
-23.358583189717216
20
18.327418368435641
30
0
10
-23.565377243367411
20
18.330189968033103
30
0
10
-23.936092094653549
20
18.335158549645875
30
0
10
-24.293205782062554
20
18.433056246569027
30
0
10
-24.451112486592216
20
18.476344149685641
30
0
11
-23.358583189717216
21
18.327418368435641
31
0
11
-23.974733092060966
21
18.364649813748141
31
0
11
-24.451112486592216
21
18.476344149685641
31
0
0
SPLINE
5
233
100
AcDbEntity
8
0
100
AcDbSpline
70
0
71
3
72
9
73
5
74
3
42
0.000000001
43
0.0000000001
44
0.0000000001
40
0
40
0
40
0
40
0
40
0.028896279161864852
40
0.058555864162356197
40
0.058555864162356197
40
0.058555864162356197
40
0.058555864162356197
10
-14.944605849626067
20
23.422570988633474
30
0
10
-14.868045576379984
20
23.360267252688523
30
0
10
-14.712902662120388
20
23.234014004705838
30
0
10
-14.513420529559969
20
23.217375592829463
30
0
10
-14.412379287126067
20
23.208947941758474
30
0
11
-14.944605849626067
21
23.422570988633474
31
0
11
-14.704127334001067
21
23.262353703477224
31
0
11
-14.412379287126067
21
23.208947941758474
31
0
0
SPLINE
5
234
100
AcDbEntity
8
0
100
AcDbSpline
70
0
71
3
72
9
73
5
74
3
42
0.000000001
43
0.0000000001
44
0.0000000001
40
0
40
0
40
0
40
0
40
0.031800971107117659
40
0.060949156536435345
40
0.060949156536435345
40
0.060949156536435345
40
0.060949156536435345
10
-12.520289443376068
20
16.462121769883474
30
0
10
-12.435600252803166
20
16.532691794501581
30
0
10
-12.273286507232781
20
16.667945006195687
30
0
10
-12.24384306445746
20
16.876363974218275
30
0
10
-12.229762099626068
20
16.976037785508474
30
0
11
-12.520289443376068
21
16.462121769883474
31
0
11
-12.302393935563568
21
16.693750187852224
31
0
11
-12.229762099626068
21
16.976037785508474
31
0
0
LINE
5
235
100
AcDbEntity
8
0
100
AcDbLine
10
-13.765406630876067
20
24.219690129258467
30
0
11
-13.379664443376067
21
24.170862004258474
31
0
0
SPLINE
5
236
100
AcDbEntity
8
0
100
AcDbSpline
70
0
71
3
72
9
73
5
74
3
42
0.000000001
43
0.0000000001
44
0.0000000001
40
0
40
0
40
0
40
0
40
0.0036626179659857172
40
0.0087928397895166866
40
0.0087928397895166866
40
0.0087928397895166866
40
0.0087928397895166866
10
-23.624696470967216
20
18.764430087185641
30
0
10
-23.612488172703699
20
18.764585156441708
30
0
10
-23.58317973493304
20
18.764957430901539
30
0
10
-23.55389320389369
20
18.76616622000822
30
0
10
-23.536805845967216
20
18.766871493435641
30
0
11
-23.624696470967216
21
18.764430087185641
31
0
11
-23.588075377217216
21
18.765040438748141
31
0
11
-23.536805845967216
21
18.766871493435641
31
0
0
SPLINE
5
237
100
AcDbEntity
8
0
100
AcDbSpline
70
0
71
3
72
9
73
5
74
3
42
0.000000001
43
0.0000000001
44
0.0000000001
40
0
40
0
40
0
40
0
40
0.049585570984792014
40
0.12408192336965751
40
0.12408192336965751
40
0.12408192336965751
40
0.12408192336965751
10
-12.486109755876068
20
17.459436223008474
30
0
10
-12.639429925574404
20
17.525024266337507
30
0
10
-13.023095196936637
20
17.689150450723172
30
0
10
-13.442689601371489
20
17.687486192340042
30
0
10
-13.694605849626068
20
17.686487004258474
30
0
11
-12.486109755876068
21
17.459436223008474
31
0
11
-12.951807998063568
21
17.629724308945974
31
0
11
-13.694605849626068
21
17.686487004258474
31
0
0
SPLINE
5
238
100
AcDbEntity
8
0
100
AcDbSpline
70
0
71
3
72
9
73
5
74
3
42
0.000000001
43
0.0000000001
44
0.0000000001
40
0
40
0
40
0
40
0
40
0.061840948623542183
40
0.12422611909694933
40
0.12422611909694933
40
0.12422611909694933
40
0.12422611909694933
10
-64.11650839561473
20
19.208731429288221
30
0
10
-63.918505143453849
20
19.149871901520477
30
0
10
-63.520756141667711
20
19.03163486167529
30
0
10
-63.149423598774106
20
18.846421529852467
30
0
10
-62.962943942489737
20
18.753409163663221
30
0
11
-64.11650839561473
21
19.208731429288221
31
0
11
-63.529045016708487
21
19.015555159756971
31
0
11
-62.962943942489737
21
18.753409163663221
31
0
0
LWPOLYLINE
5
239
100
AcDbEntity
8
0
100
AcDbPolyline
90
4
70
1
43
0.0
10
-55.31670639233009
20
21.220159648914088
10
-55.31670639233009
20
20.719671367664088
10
-54.81621811108009
20
20.719671367664088
10
-54.81621811108009
20
21.220159648914088
0
SPLINE
5
240
100
AcDbEntity
8
0
100
AcDbSpline
70
0
71
3
72
9
73
5
74
3
42
0.000000001
43
0.0000000001
44
0.0000000001
40
0
40
0
40
0
40
0
40
0.030714240597892968
40
0.056810785056643991
40
0.056810785056643991
40
0.056810785056643991
40
0.056810785056643991
10
-24.244813658467216
20
17.438746493435641
30
0
10
-24.347344585941247
20
17.418907538710805
30
0
10
-24.536991549987786
20
17.382212293421276
30
0
10
-24.683914896348668
20
17.257840626511808
30
0
10
-24.751405455342216
20
17.200709384060641
30
0
11
-24.244813658467216
21
17.438746493435641
31
0
11
-24.539918638935966
21
17.353602450466891
31
0
11
-24.751405455342216
21
17.200709384060641
31
0
0
SPLINE
5
241
100
AcDbEntity
8
0
100
AcDbSpline
70
0
71
3
72
9
73
5
74
3
42
0.000000001
43
0.0000000001
44
0.0000000001
40
0
40
0
40
0
40
0
40
0.018627350724448599
40
0.037718699781908886
40
0.037718699781908886
40
0.037718699781908886
40
0.037718699781908886
10
-54.28399154858009
20
19.630804180164088
30
0
10
-54.346497168365076
20
19.626911837263201
30
0
10
-54.473065392812444
20
19.619030195074863
30
0
10
-54.589053572833983
20
19.567682518325896
30
0
10
-54.64776107983009
20
19.541692852039088
30
0
11
-54.28399154858009
21
19.630804180164088
31
0
11
-54.46892807201759
21
19.608526348132838
31
0
11
-54.64776107983009
21
19.541692852039088
31
0
0
SPLINE
5
242
100
AcDbEntity
8
0
100
AcDbSpline
70
0
71
3
72
9
73
5
74
3
42
0.000000001
43
0.0000000001
44
0.0000000001
40
0
40
0
40
0
40
0
40
0.035217933053811983
40
0.074215302405028147
40
0.074215302405028147
40
0.074215302405028147
40
0.074215302405028147
10
-25.049257017842216
20
20.295191805935641
30
0
10
-24.960378896750001
20
20.375414149409661
30
0
10
-24.773084638907818
20
20.544467951387965
30
0
10
-24.524409130794712
20
20.590714952829217
30
0
10
-24.393739439717216
20
20.615016024685641
30
0
11
-25.049257017842216
21
20.295191805935641
31
0
11
-24.768800474873466
21
20.508204501248141
31
0
11
-24.393739439717216
21
20.615016024685641
31
0
0
SPLINE
5
243
100
AcDbEntity
8
0
100
AcDbSpline
70
0
71
3
72
9
73
5
74
3
42
0.000000001
43
0.0000000001
44
0.0000000001
40
0
40
0
40
0
40
0
40
0.028810678826863216
40
0.056513530407679105
40
0.056513530407679105
40
0.056513530407679105
40
0.056513530407679105
10
-53.56621811108009
20
18.913030742664088
30
0
10
-53.57407291767754
20
19.011262423530255
30
0
10
-53.589480498115307
20
19.20394858399834
30
0
10
-53.711488223850559
20
19.353591845868205
30
0
10
-53.77129623608009
20
19.426946758289088
30
0
11
-53.56621811108009
21
18.913030742664088
31
0
11
-53.61748764233009
21
19.196539043445338
31
0
11
-53.77129623608009
21
19.426946758289088
31
0
0
SPLINE
5
244
100
AcDbEntity
8
0
100
AcDbSpline
70
0
71
3
72
9
73
5
74
3
42
0.000000001
43
0.0000000001
44
0.0000000001
40
0
40
0
40
0
40
0
40
0.073575760673566165
40
0.12013652472993311
40
0.12013652472993311
40
0.12013652472993311
40
0.12013652472993311
10
-13.694605849626068
20
20.467248723008474
30
0
10
-13.943338202422744
20
20.469749152146385
30
0
10
-14.34947522607472
20
20.473831921583109
30
0
10
-14.722954065255289
20
20.320410668895882
30
0
10
-14.867701552751068
20
20.260949894883474
30
0
11
-13.694605849626068
21
20.467248723008474
31
0
11
-14.428553603532318
21
20.415674015977224
31
0
11
-14.867701552751068
21
20.260949894883474
31
0
0
LINE
5
245
100
AcDbEntity
8
0
100
AcDbLine
10
-23.583192564717219
20
17.409449618435641
30
0
11
-23.529481627217216
21
17.822047274685641
31
0
0
LINE
5
246
100
AcDbEntity
8
0
100
AcDbLine
10
-62.026664645614737
20
18.122305648038221
30
0
11
-62.026664645614737
21
19.875235335538221
31
0
0
SPLINE
5
247
100
AcDbEntity
8
0
100
AcDbSpline
70
0
71
3
72
9
73
5
74
3
42
0.000000001
43
0.0000000001
44
0.0000000001
40
0
40
0
40
0
40
0
40
0.057007138171814083
40
0.10281617802550526
40
0.10281617802550526
40
0.10281617802550526
40
0.10281617802550526
10
-13.694605849626068
20
15.804162785508474
30
0
10
-13.885434284291943
20
15.806774788869248
30
0
10
-14.229606101017795
20
15.811485711240676
30
0
10
-14.56293787642657
20
15.895932591143511
30
0
10
-14.711451552751068
20
15.933557316758474
30
0
11
-13.694605849626068
21
15.804162785508474
31
0
11
-14.263758681657318
21
15.836511418320974
31
0
11
-14.711451552751068
21
15.933557316758474
31
0
0
SPLINE
5
248
100
AcDbEntity
8
0
100
AcDbSpline
70
0
71
3
72
9
73
5
74
3
42
0.000000001
43
0.0000000001
44
0.0000000001
40
0
40
0
40
0
40
0
40
0.028809127156120183
40
0.060647386739141558
40
0.060647386739141558
40
0.060647386739141558
40
0.060647386739141558
10
-15.159449599626068
20
16.971154973008474
30
0
10
-15.144977791118457
20
16.872726823032998
30
0
10
-15.114512537429247
20
16.665521306349621
30
0
10
-14.951865961533972
20
16.532142227096017
30
0
10
-14.866480849626068
20
16.462121769883474
30
0
11
-15.159449599626068
21
16.971154973008474
31
0
11
-15.086207412126068
21
16.692529484727224
31
0
11
-14.866480849626068
21
16.462121769883474
31
0
0
SPLINE
5
249
100
AcDbEntity
8
0
100
AcDbSpline
70
0
71
3
72
9
73
5
74
3
42
0.000000001
43
0.0000000001
44
0.0000000001
40
0
40
0
40
0
40
0
40
0.0039841513477459935
40
0.0070993369325054768
40
0.0070993369325054768
40
0.0070993369325054768
40
0.0070993369325054768
10
-13.379664443376067
20
24.170862004258474
30
0
10
-13.381081650579727
20
24.157650633783696
30
0
10
-13.383606964144345
20
24.134109366860272
30
0
10
-13.384260489339191
20
24.110445094279566
30
0
10
-13.384547255876067
20
24.100061223008474
30
0
11
-13.379664443376067
21
24.170862004258474
31
0
11
-13.383326552751067
21
24.131189152695974
31
0
11
-13.384547255876067
21
24.100061223008474
31
0
0
LINE
5
250
100
AcDbEntity
8
0
100
AcDbLine
10
-14.514918349626067
20
25.086389348008474
30
0
11
-14.456324599626067
21
24.646936223008474
31
0
0
SPLINE
5
251
100
AcDbEntity
8
0
100
AcDbSpline
70
0
71
3
72
9
73
5
74
3
42
0.000000001
43
0.0000000001
44
0.0000000001
40
0
40
0
40
0
40
0
40
0.073727973996833479
40
0.1202599558422858
40
0.1202599558422858
40
0.1202599558422858
40
0.1202599558422858
10
-13.694605849626068
20
16.255822941758474
30
0
10
-13.44534594406408
20
16.2532348588989
30
0
10
-13.038770480083139
20
16.249013357702871
30
0
10
-12.664936424049873
20
16.40266831605247
30
0
10
-12.520289443376068
20
16.462121769883474
30
0
11
-13.694605849626068
21
16.255822941758474
31
0
11
-12.959132216813568
21
16.307397648789724
31
0
11
-12.520289443376068
21
16.462121769883474
31
0
0
LINE
5
252
100
AcDbEntity
8
0
100
AcDbLine
10
-43.784702048747299
20
17.230814745629083
30
0
11
-43.730991111247306
21
17.643412401879083
31
0
0
SPLINE
5
253
100
AcDbEntity
8
0
100
AcDbSpline
70
0
71
3
72
9
73
5
74
3
42
0.000000001
43
0.0000000001
44
0.0000000001
40
0
40
0
40
0
40
0
40
0.054333023346914269
40
0.11827026282502708
40
0.11827026282502708
40
0.11827026282502708
40
0.11827026282502708
10
-61.946098239364737
20
17.558340804288221
30
0
10
-62.084380998885742
20
17.67587657442655
30
0
10
-62.385390169833109
20
17.931724410039255
30
0
10
-62.727791814346418
20
18.129118976341751
30
0
10
-62.912895114364737
20
18.235831038663221
30
0
11
-61.946098239364737
21
17.558340804288221
31
0
11
-62.369682223739737
21
17.898611800381971
31
0
11
-62.912895114364737
21
18.235831038663221
31
0
0
SPLINE
5
254
100
AcDbEntity
8
0
100
AcDbSpline
70
0
71
3
72
9
73
5
74
3
42
0.000000001
43
0.0000000001
44
0.0000000001
40
0
40
0
40
0
40
0
40
0.022469974855825688
40
0.044207146833477561
40
0.044207146833477561
40
0.044207146833477561
40
0.044207146833477561
10
-12.786402724626067
20
23.370080754258474
30
0
10
-12.709750116793249
20
23.37643300386771
30
0
10
-12.558944737108726
20
23.388930340113081
30
0
10
-12.443015743750072
20
23.485949510409647
30
0
10
-12.386012099626067
20
23.533654973008474
30
0
11
-12.786402724626067
21
23.370080754258474
31
0
11
-12.565455459001067
21
23.410974308945974
31
0
11
-12.386012099626067
21
23.533654973008474
31
0
0
LINE
5
255
100
AcDbEntity
8
0
100
AcDbLine
10
-41.892612204997306
20
15.516947558129083
30
0
11
-42.312534079997306
21
15.516947558129083
31
0
0
SPLINE
5
256
100
AcDbEntity
8
0
100
AcDbSpline
70
0
71
3
72
9
73
5
74
3
42
0.000000001
43
0.0000000001
44
0.0000000001
40
0
40
0
40
0
40
0
40
0.022348203948733596
40
0.046370016270699449
40
0.046370016270699449
40
0.046370016270699449
40
0.046370016270699449
10
-53.04619857983009
20
19.325628398914088
30
0
10
-53.093178767617331
20
19.265562488934492
30
0
10
-53.190657387245679
20
19.140932463655616
30
0
10
-53.201641245777552
20
18.982762872514503
30
0
10
-53.20733139233009
20
18.900823711414088
30
0
11
-53.04619857983009
21
19.325628398914088
31
0
11
-53.16704818920509
21
19.137640117664088
31
0
11
-53.20733139233009
21
18.900823711414088
31
0
0
SPLINE
5
257
100
AcDbEntity
8
0
100
AcDbSpline
70
0
71
3
72
9
73
5
74
3
42
0.000000001
43
0.0000000001
44
0.0000000001
40
0
40
0
40
0
40
0
40
0.025377453542111964
40
0.052936195283584425
40
0.052936195283584425
40
0.052936195283584425
40
0.052936195283584425
10
-22.170839049092216
20
23.184596102810641
30
0
10
-22.118525788022247
20
23.253496692708438
30
0
10
-22.009402743059297
20
23.397220139031823
30
0
10
-21.9975606952557
20
23.577698877916902
30
0
10
-21.991395689717216
20
23.671656649685641
30
0
11
-22.170839049092216
21
23.184596102810641
31
0
11
-22.036256529560966
21
23.399745028591891
31
0
11
-21.991395689717216
21
23.671656649685641
31
0
0
SPLINE
5
258
100
AcDbEntity
8
0
100
AcDbSpline
70
0
71
3
72
9
73
5
74
3
42
0.000000001
43
0.0000000001
44
0.0000000001
40
0
40
0
40
0
40
0
40
0.021414295689323203
40
0.043362609163597382
40
0.043362609163597382
40
0.043362609163597382
40
0.043362609163597382
10
-62.536918551864737
20
21.769766585538221
30
0
10
-62.608643444189738
20
21.773605800965058
30
0
10
-62.753881864276607
20
21.781379972035818
30
0
10
-62.890255356048073
20
21.832023569579185
30
0
10
-62.959281833114737
20
21.857657210538221
30
0
11
-62.536918551864737
21
21.769766585538221
31
0
11
-62.749931247177237
21
21.791739241788221
31
0
11
-62.959281833114737
21
21.857657210538221
31
0
0
SPLINE
5
259
100
AcDbEntity
8
0
100
AcDbSpline
70
0
71
3
72
9
73
5
74
3
42
0.000000001
43
0.0000000001
44
0.0000000001
40
0
40
0
40
0
40
0
40
0.044036199045198086
40
0.10229324055586266
40
0.10229324055586266
40
0.10229324055586266
40
0.10229324055586266
10
-22.351503111592216
20
18.477564852810641
30
0
10
-22.492424980587565
20
18.433984432708435
30
0
10
-22.819777362429768
20
18.332749937141163
30
0
10
-23.16307289199338
20
18.329352973690746
30
0
10
-23.358583189717216
20
18.327418368435641
30
0
11
-22.351503111592216
21
18.477564852810641
31
0
11
-22.777223326435966
21
18.364954989529391
31
0
11
-23.358583189717216
21
18.327418368435641
31
0
0
SPLINE
5
260
100
AcDbEntity
8
0
100
AcDbSpline
70
0
71
3
72
9
73
5
74
3
42
0.000000001
43
0.0000000001
44
0.0000000001
40
0
40
0
40
0
40
0
40
0.041371853504943219
40
0.078866334205373478
40
0.078866334205373478
40
0.078866334205373478
40
0.078866334205373478
10
-12.793726943376067
20
25.042444035508474
30
0
10
-12.65695784451896
20
25.009582807727941
30
0
10
-12.396237655655689
20
24.946940108574314
30
0
10
-12.20149613086696
20
24.763461936955231
30
0
10
-12.108912490251067
20
24.676233098008474
30
0
11
-12.793726943376067
21
25.042444035508474
31
0
11
-12.401576064469817
21
24.910608098008474
31
0
11
-12.108912490251067
21
24.676233098008474
31
0
0
SPLINE
5
261
100
AcDbEntity
8
0
100
AcDbSpline
70
0
71
3
72
9
73
5
74
3
42
0.000000001
43
0.0000000001
44
0.0000000001
40
0
40
0
40
0
40
0
40
0.0036626179659857172
40
0.0087928397895166866
40
0.0087928397895166866
40
0.0087928397895166866
40
0.0087928397895166866
10
-33.613847007628181
20
18.585795214379054
30
0
10
-33.601638709364664
20
18.585950283635118
30
0
10
-33.572330271594012
20
18.586322558094952
30
0
10
-33.543043740554658
20
18.587531347201633
30
0
10
-33.525956382628181
20
18.588236620629054
30
0
11
-33.613847007628181
21
18.585795214379054
31
0
11
-33.577225913878181
21
18.586405565941554
31
0
11
-33.525956382628181
21
18.588236620629054
31
0
0
SPLINE
5
262
100
AcDbEntity
8
0
100
AcDbSpline
70
0
71
3
72
9
73
5
74
3
42
0.000000001
43
0.0000000001
44
0.0000000001
40
0
40
0
40
0
40
0
40
0.020345980305160057
40
0.039863039244216518
40
0.039863039244216518
40
0.039863039244216518
40
0.039863039244216518
10
-23.236512877217216
20
16.757594149685641
30
0
10
-23.240186161718963
20
16.826046635286577
30
0
10
-23.247383076394598
20
16.960162764317836
30
0
10
-23.30482479369671
20
17.08149185724627
30
0
10
-23.332948424092216
20
17.140894930935641
30
0
11
-23.236512877217216
21
16.757594149685641
31
0
11
-23.260621763935966
21
16.959620516873141
31
0
11
-23.332948424092216
21
17.140894930935641
31
0
0
SPLINE
5
263
100
AcDbEntity
8
0
100
AcDbSpline
70
0
71
3
72
9
73
5
74
3
42
0.000000001
43
0.0000000001
44
0.0000000001
40
0
40
0
40
0
40
0
40
0.02155954043491742
40
0.043333998166649665
40
0.043333998166649665
40
0.043333998166649665
40
0.043333998166649665
10
-43.153598533122306
20
18.909281542504083
30
0
10
-43.097103632311345
20
18.861928764924272
30
0
10
-42.98355065860315
20
18.766751171365467
30
0
10
-42.835929484585861
20
18.753557553194412
30
0
10
-42.761752829997306
20
18.746928026879083
30
0
11
-43.153598533122306
21
18.909281542504083
31
0
11
-42.975681052653556
21
18.787516405785333
31
0
11
-42.761752829997306
21
18.746928026879083
31
0
0
LINE
5
264
100
AcDbEntity
8
0
100
AcDbLine
10
-43.730991111247306
20
17.643412401879083
30
0
11
-41.892612204997306
21
17.296732714379083
31
0
0
SPLINE
5
265
100
AcDbEntity
8
0
100
AcDbSpline
70
0
71
3
72
9
73
5
74
3
42
0.000000001
43
0.0000000001
44
0.0000000001
40
0
40
0
40
0
40
0
40
0.030714240597892968
40
0.056810785056643991
40
0.056810785056643991
40
0.056810785056643991
40
0.056810785056643991
10
-64.16045370811473
20
16.662344710538221
30
0
10
-64.262984635588765
20
16.642505755813382
30
0
10
-64.452631599635296
20
16.605810510523856
30
0
10
-64.599554945996189
20
16.481438843614384
30
0
10
-64.66704550498973
20
16.424307601163221
30
0
11
-64.16045370811473
21
16.662344710538221
31
0
11
-64.45555868858348
21
16.577200667569471
31
0
11
-64.66704550498973
21
16.424307601163221
31
0
0
LINE
5
266
100
AcDbEntity
8
0
100
AcDbLine
10
-64.19951620811473
20
17.123770491788221
30
0
11
-64.16045370811473
21
16.662344710538221
31
0
0
LINE
5
267
100
AcDbEntity
8
0
100
AcDbLine
10
-63.445121676864737
20
17.045645491788221
30
0
11
-61.606742770614737
21
16.698965804288221
31
0
0
SPLINE
5
268
100
AcDbEntity
8
0
100
AcDbSpline
70
0
71
3
72
9
73
5
74
3
42
0.000000001
43
0.0000000001
44
0.0000000001
40
0
40
0
40
0
40
0
40
0.027677474956065245
40
0.056638318939747898
40
0.056638318939747898
40
0.056638318939747898
40
0.056638318939747898
10
-54.81377670483009
20
18.378362773914088
30
0
10
-54.740521038667332
20
18.318556900835471
30
0
10
-54.590612935025078
20
18.196172033022428
30
0
10
-54.397423464014508
20
18.181028158753652
30
0
10
-54.29863998608009
20
18.173284648914088
30
0
11
-54.81377670483009
21
18.378362773914088
31
0
11
-54.58367416576759
21
18.224554180164088
31
0
11
-54.29863998608009
21
18.173284648914088
31
0
0
SPLINE
5
269
100
AcDbEntity
8
0
100
AcDbSpline
70
0
71
3
72
9
73
5
74
3
42
0.000000001
43
0.0000000001
44
0.0000000001
40
0
40
0
40
0
40
0
40
0.043688862947833855
40
0.084642736463627077
40
0.084642736463627077
40
0.084642736463627077
40
0.084642736463627077
10
-15.523219130876067
20
23.948694035508474
30
0
10
-15.513108459887235
20
24.097292153757472
30
0
10
-15.493520061329008
20
24.385185921488596
30
0
10
-15.324322583341134
20
24.618349809004268
30
0
10
-15.242457412126067
20
24.731164738633474
30
0
11
-15.523219130876067
21
23.948694035508474
31
0
11
-15.453028701188567
21
24.379907414414724
31
0
11
-15.242457412126067
21
24.731164738633474
31
0
0
SPLINE
5
270
100
AcDbEntity
8
0
100
AcDbSpline
70
0
71
3
72
9
73
5
74
3
42
0.000000001
43
0.0000000001
44
0.0000000001
40
0
40
0
40
0
40
0
40
0.023176206972219997
40
0.049370352890658747
40
0.049370352890658747
40
0.049370352890658747
40
0.049370352890658747
10
-53.09136459545509
20
18.001165508289088
30
0
10
-53.150174722503905
20
18.05278825392725
30
0
10
-53.275453062027907
20
18.162755910515568
30
0
10
-53.341007552368112
20
18.316384291825372
30
0
10
-53.37578842358009
20
18.397894023914088
30
0
11
-53.09136459545509
21
18.001165508289088
31
0
11
-53.25463363842384
21
18.165655254382838
31
0
11
-53.37578842358009
21
18.397894023914088
31
0
0
SPLINE
5
271
100
AcDbEntity
8
0
100
AcDbSpline
70
0
71
3
72
9
73
5
74
3
42
0.000000001
43
0.0000000001
44
0.0000000001
40
0
40
0
40
0
40
0
40
0.024213231903991841
40
0.049023140784518013
40
0.049023140784518013
40
0.049023140784518013
40
0.049023140784518013
10
-64.66704550498973
20
16.424307601163221
30
0
10
-64.716532774680331
20
16.358324448740124
30
0
10
-64.816726809029106
20
16.224732147494688
30
0
10
-64.830003895970236
20
16.05816526154166
30
0
10
-64.83672323936473
20
15.973868148038219
30
0
11
-64.66704550498973
21
16.424307601163221
31
0
11
-64.79430380577098
21
16.218313948819471
31
0
11
-64.83672323936473
21
15.973868148038219
31
0
0
SPLINE
5
272
100
AcDbEntity
8
0
100
AcDbSpline
70
0
71
3
72
9
73
5
74
3
42
0.000000001
43
0.0000000001
44
0.0000000001
40
0
40
0
40
0
40
0
40
0.014030255331284103
40
0.031448388618092904
40
0.031448388618092904
40
0.031448388618092904
40
0.031448388618092904
10
-13.716578505876067
20
23.909631535508474
30
0
10
-13.719361815631839
20
23.95641532430442
30
0
10
-13.725600519402883
20
24.06127975737008
30
0
10
-13.751218018135861
20
24.163225849338271
30
0
10
-13.765406630876067
20
24.219690129258474
30
0
11
-13.716578505876067
21
23.909631535508474
31
0
11
-13.728785537126067
21
24.049402043320974
31
0
11
-13.765406630876067
21
24.219690129258474
31
0
0
SPLINE
5
273
100
AcDbEntity
8
0
100
AcDbSpline
70
0
71
3
72
9
73
5
74
3
42
0.000000001
43
0.0000000001
44
0.0000000001
40
0
40
0
40
0
40
0
40
0.032344947461061826
40
0.068410269578710631
40
0.068410269578710631
40
0.068410269578710631
40
0.068410269578710631
10
-44.883334861247306
20
16.034525683129083
30
0
10
-44.793820281132675
20
15.970490130076772
30
0
10
-44.604494991170796
20
15.835053538250371
30
0
10
-44.371435991944566
20
15.821791013031474
30
0
10
-44.248569236247306
20
15.814799120629083
30
0
11
-44.883334861247306
21
16.034525683129083
31
0
11
-44.605014548747306
21
15.869730761254083
31
0
11
-44.248569236247306
21
15.814799120629083
31
0
0
SPLINE
5
274
100
AcDbEntity
8
0
100
AcDbSpline
70
0
71
3
72
9
73
5
74
3
42
0.000000001
43
0.0000000001
44
0.0000000001
40
0
40
0
40
0
40
0
40
0.038322350761809329
40
0.080838277013876123
40
0.080838277013876123
40
0.080838277013876123
40
0.080838277013876123
10
-51.98906967358009
20
19.657659648914088
30
0
10
-51.911510035468247
20
19.552667687609496
30
0
10
-51.747903487692774
20
19.331194602492051
30
0
10
-51.731554793021445
20
19.055557420195136
30
0
10
-51.72295639233009
20
18.910589336414088
30
0
11
-51.98906967358009
21
19.657659648914088
31
0
11
-51.78948471264259
21
19.330511211414088
31
0
11
-51.72295639233009
21
18.910589336414088
31
0
0
LINE
5
275
100
AcDbEntity
8
0
100
AcDbLine
10
-42.312534079997306
20
16.945170214379083
30
0
11
-43.274448142497306
21
17.138041308129083
31
0
0
SPLINE
5
276
100
AcDbEntity
8
0
100
AcDbSpline
70
0
71
3
72
9
73
5
74
3
42
0.000000001
43
0.0000000001
44
0.0000000001
40
0
40
0
40
0
40
0
40
0.027677559078728237
40
0.056332654921324124
40
0.056332654921324124
40
0.056332654921324124
40
0.056332654921324124
10
-53.77129623608009
20
19.426946758289088
30
0
10
-53.844789927599052
20
19.486400144723248
30
0
10
-53.994373015885671
20
19.607406736828175
30
0
10
-54.186341631532585
20
19.622915325885252
30
0
10
-54.28399154858009
20
19.630804180164088
30
0
11
-53.77129623608009
21
19.426946758289088
31
0
11
-54.00200912670509
21
19.579839824695338
31
0
11
-54.28399154858009
21
19.630804180164088
31
0
0
SPLINE
5
277
100
AcDbEntity
8
0
100
AcDbSpline
70
0
71
3
72
9
73
5
74
3
42
0.000000001
43
0.0000000001
44
0.0000000001
40
0
40
0
40
0
40
0
40
0.029327964181718232
40
0.060715897842994943
40
0.060715897842994943
40
0.060715897842994943
40
0.060715897842994943
10
-63.369438083114737
20
15.428213851163219
30
0
10
-63.306083405165559
20
15.505868053918277
30
0
10
-63.174924074418833
20
15.666630819868942
30
0
10
-63.159913073833067
20
15.873993384880144
30
0
10
-63.152152926864737
20
15.981192366788219
30
0
11
-63.369438083114737
21
15.428213851163219
31
0
11
-63.206474215927237
21
15.672049300381969
31
0
11
-63.152152926864737
21
15.981192366788219
31
0
0
SPLINE
5
278
100
AcDbEntity
8
0
100
AcDbSpline
70
0
71
3
72
9
73
5
74
3
42
0.000000001
43
0.0000000001
44
0.0000000001
40
0
40
0
40
0
40
0
40
0.039997695860213602
40
0.082172469894449832
40
0.082172469894449832
40
0.082172469894449832
40
0.082172469894449832
10
-45.210483298747306
20
17.368754198754083
30
0
10
-45.110009934802378
20
17.460831907826353
30
0
10
-44.903594432699151
20
17.64999912393635
30
0
10
-44.627229246493947
20
17.697273810570508
30
0
10
-44.485385642497306
20
17.721537401879083
30
0
11
-45.210483298747306
21
17.368754198754083
31
0
11
-44.892490134684806
21
17.611368944847833
31
0
11
-44.485385642497306
21
17.721537401879083
31
0
0
SPLINE
5
279
100
AcDbEntity
8
0
100
AcDbSpline
70
0
71
3
72
9
73
5
74
3
42
0.000000001
43
0.0000000001
44
0.0000000001
40
0
40
0
40
0
40
0
40
0.057374491571945359
40
0.10332227041477393
40
0.10332227041477393
40
0.10332227041477393
40
0.10332227041477393
10
-53.55156967358009
20
17.296819805164088
30
0
10
-53.359496570262372
20
17.294234067074662
30
0
10
-53.013603672971726
20
17.289577566898746
30
0
10
-52.6787512250649
20
17.20418081028668
30
0
10
-52.52984115795509
20
17.166204570789088
30
0
11
-53.55156967358009
21
17.296819805164088
31
0
11
-52.97875473217384
21
17.264165996570338
31
0
11
-52.52984115795509
21
17.166204570789088
31
0
0
SPLINE
5
280
100
AcDbEntity
8
0
100
AcDbSpline
70
0
71
3
72
9
73
5
74
3
42
0.000000001
43
0.0000000001
44
0.0000000001
40
0
40
0
40
0
40
0
40
0.026922592892985552
40
0.053194736158987316
40
0.053194736158987316
40
0.053194736158987316
40
0.053194736158987316
10
-13.384547255876067
20
24.100061223008474
30
0
10
-13.378747811494808
20
24.009283448509496
30
0
10
-13.367289037261729
20
23.829921089810707
30
0
10
-13.28078568714259
20
23.672458647928707
30
0
10
-13.238062880876067
20
23.594690129258474
30
0
11
-13.384547255876067
21
24.100061223008474
31
0
11
-13.347926162126067
21
23.833337590195974
31
0
11
-13.238062880876067
21
23.594690129258474
31
0
0
SPLINE
5
281
100
AcDbEntity
8
0
100
AcDbSpline
70
0
71
3
72
9
73
5
74
3
42
0.000000001
43
0.0000000001
44
0.0000000001
40
0
40
0
40
0
40
0
40
0.029468494649814332
40
0.057806510362113546
40
0.057806510362113546
40
0.057806510362113546
40
0.057806510362113546
10
-54.29863998608009
20
18.173284648914088
30
0
10
-54.198130290174532
20
18.181374969355048
30
0
10
-54.000966680465169
20
18.197245247018053
30
0
10
-53.848486675685969
20
18.322878245743347
30
0
10
-53.77373764233009
20
18.384466289539088
30
0
11
-54.29863998608009
21
18.173284648914088
31
0
11
-54.00872299389259
21
18.226080059070338
31
0
11
-53.77373764233009
21
18.384466289539088
31
0
0
SPLINE
5
282
100
AcDbEntity
8
0
100
AcDbSpline
70
0
71
3
72
9
73
5
74
3
42
0.000000001
43
0.0000000001
44
0.0000000001
40
0
40
0
40
0
40
0
40
0.029901247010652471
40
0.060200514988472661
40
0.060200514988472661
40
0.060200514988472661
40
0.060200514988472661
10
-64.83672323936473
20
15.973868148038219
30
0
10
-64.826493115687811
20
15.871904298073826
30
0
10
-64.805896693286883
20
15.666619338691465
30
0
10
-64.667248078151687
20
15.513715939652144
30
0
10
-64.59746542686473
20
15.436758773038219
30
0
11
-64.83672323936473
21
15.973868148038219
31
0
11
-64.77690878623973
21
15.680899398038219
31
0
11
-64.59746542686473
21
15.436758773038219
31
0
0
LWPOLYLINE
5
283
100
AcDbEntity
8
0
100
AcDbPolyline
90
4
70
1
43
0.0
10
-15.459742568376067
20
21.560998723008474
10
-14.959254287126067
20
21.560998723008474
10
-14.959254287126067
20
22.061487004258474
10
-15.459742568376067
20
22.061487004258474
0
SPLINE
5
284
100
AcDbEntity
8
0
100
AcDbSpline
70
0
71
3
72
9
73
5
74
3
42
0.000000001
43
0.0000000001
44
0.0000000001
40
0
40
0
40
0
40
0
40
0.024371988281620637
40
0.049465158521698416
40
0.049465158521698416
40
0.049465158521698416
40
0.049465158521698416
10
-51.83892318920509
20
15.624456523914086
30
0
10
-51.882368734100979
20
15.554848749694843
30
0
10
-51.970545403993668
20
15.413573464875592
30
0
10
-52.105124993017796
20
15.315381557800894
30
0
10
-52.17339584545509
20
15.265569805164086
30
0
11
-51.83892318920509
21
15.624456523914086
31
0
11
-51.98052475170509
21
15.426092266101586
31
0
11
-52.17339584545509
21
15.265569805164086
31
0
0
SPLINE
5
285
100
AcDbEntity
8
0
100
AcDbSpline
70
0
71
3
72
9
73
5
74
3
42
0.000000001
43
0.0000000001
44
0.0000000001
40
0
40
0
40
0
40
0
40
0.023512759176627721
40
0.045827975228038699
40
0.045827975228038699
40
0.045827975228038699
40
0.045827975228038699
10
-42.764194236247306
20
18.295267870629083
30
0
10
-42.84365668855407
20
18.300118419376293
30
0
10
-42.998534441033797
20
18.309572470521875
30
0
10
-43.132373169340894
20
18.387794238180938
30
0
10
-43.197543845622306
20
18.425883105004083
30
0
11
-42.764194236247306
21
18.295267870629083
31
0
11
-42.997043357341056
21
18.327921679222833
31
0
11
-43.197543845622306
21
18.425883105004083
31
0
0
LINE
5
286
100
AcDbEntity
8
0
100
AcDbLine
10
-41.892612204997306
20
17.296732714379083
30
0
11
-41.892612204997306
21
15.516947558129083
31
0
0
SPLINE
5
287
100
AcDbEntity
8
0
100
AcDbSpline
70
0
71
3
72
9
73
5
74
3
42
0.000000001
43
0.0000000001
44
0.0000000001
40
0
40
0
40
0
40
0
40
0.033170038455429651
40
0.069475158263869241
40
0.069475158263869241
40
0.069475158263869241
40
0.069475158263869241
10
-55.16655990795509
20
15.479192852039088
30
0
10
-55.228120264902508
20
15.573417645788181
30
0
10
-55.357059384085296
20
15.770772932755822
30
0
10
-55.370643170001735
20
16.006595540844764
30
0
10
-55.37774154858009
20
16.129827617664088
30
0
11
-55.16655990795509
21
15.479192852039088
31
0
11
-55.32494613842384
21
15.770635723132838
31
0
11
-55.37774154858009
21
16.129827617664088
31
0
0
SPLINE
5
288
100
AcDbEntity
8
0
100
AcDbSpline
70
0
71
3
72
9
73
5
74
3
42
0.000000001
43
0.0000000001
44
0.0000000001
40
0
40
0
40
0
40
0
40
0.02444831352916782
40
0.048414484800573018
40
0.048414484800573018
40
0.048414484800573018
40
0.048414484800573018
10
-12.334742568376067
20
23.049035832383474
30
0
10
-12.407876785859642
20
23.01094081269007
30
0
10
-12.552702949698551
20
22.935502040615944
30
0
10
-12.715553807150499
20
22.924076484557581
30
0
10
-12.796168349626067
20
22.918420598008474
30
0
11
-12.334742568376067
21
23.049035832383474
31
0
11
-12.558741591813567
21
22.951074406602224
31
0
11
-12.796168349626067
21
22.918420598008474
31
0
0
SPLINE
5
289
100
AcDbEntity
8
0
100
AcDbSpline
70
0
71
3
72
9
73
5
74
3
42
0.000000001
43
0.0000000001
44
0.0000000001
40
0
40
0
40
0
40
0
40
0.046589548476079809
40
0.12001309738131014
40
0.12001309738131014
40
0.12001309738131014
40
0.12001309738131014
10
-54.72344467358009
20
15.620794414539088
30
0
10
-54.578596679113865
20
15.561326335689945
30
0
10
-54.20547315604972
20
15.408138580679495
30
0
10
-53.7997745264149
20
15.412082631421303
30
0
10
-53.55156967358009
20
15.414495586414088
30
0
11
-54.72344467358009
21
15.620794414539088
31
0
11
-54.28399154858009
21
15.466070293445338
31
0
11
-53.55156967358009
21
15.414495586414088
31
0
0
SPLINE
5
290
100
AcDbEntity
8
0
100
AcDbSpline
70
0
71
3
72
9
73
5
74
3
42
0.000000001
43
0.0000000001
44
0.0000000001
40
0
40
0
40
0
40
0
40
0.032239058990507906
40
0.061783242851193444
40
0.061783242851193444
40
0.061783242851193444
40
0.061783242851193444
10
-53.37578842358009
20
18.397894023914088
30
0
10
-53.415212747846468
20
18.295983515377049
30
0
10
-53.49076590220843
20
18.100681236241471
30
0
10
-53.647513052054634
20
17.962339024729609
30
0
10
-53.72246811108009
20
17.896185039539088
30
0
11
-53.37578842358009
21
18.397894023914088
31
0
11
-53.51616928295509
21
18.107671855945338
31
0
11
-53.72246811108009
21
17.896185039539088
31
0
0
SPLINE
5
291
100
AcDbEntity
8
0
100
AcDbSpline
70
0
71
3
72
9
73
5
74
3
42
0.000000001
43
0.0000000001
44
0.0000000001
40
0
40
0
40
0
40
0
40
0.043968745447848588
40
0.087340011393827743
40
0.087340011393827743
40
0.087340011393827743
40
0.087340011393827743
10
-62.763969333114737
20
15.864004866788219
30
0
10
-62.777124755983245
20
15.714231447479118
30
0
10
-62.803256836203467
20
15.416719839728906
30
0
10
-62.993971404593921
20
15.187042378445279
30
0
10
-63.088676364364737
20
15.072989241788219
30
0
11
-62.763969333114737
21
15.864004866788219
31
0
11
-62.845146090927237
21
15.431875960538219
31
0
11
-63.088676364364737
21
15.072989241788219
31
0
0
SPLINE
5
292
100
AcDbEntity
8
0
100
AcDbSpline
70
0
71
3
72
9
73
5
74
3
42
0.000000001
43
0.0000000001
44
0.0000000001
40
0
40
0
40
0
40
0
40
0.043968745447848588
40
0.087340011393827743
40
0.087340011393827743
40
0.087340011393827743
40
0.087340011393827743
10
-43.049838767497306
20
16.461771776879083
30
0
10
-43.062994190365814
20
16.31199835756998
30
0
10
-43.089126270586036
20
16.014486749819767
30
0
10
-43.279840838976497
20
15.784809288536142
30
0
10
-43.374545798747306
20
15.670756151879083
30
0
11
-43.049838767497306
21
16.461771776879083
31
0
11
-43.131015525309806
21
16.029642870629083
31
0
11
-43.374545798747306
21
15.670756151879083
31
0
0
LINE
5
293
100
AcDbEntity
8
0
100
AcDbLine
10
-42.312534079997306
20
15.516947558129083
30
0
11
-42.312534079997306
21
16.945170214379083
31
0
0
SPLINE
5
294
100
AcDbEntity
8
0
100
AcDbSpline
70
0
71
3
72
9
73
5
74
3
42
0.000000001
43
0.0000000001
44
0.0000000001
40
0
40
0
40
0
40
0
40
0.033722048107625913
40
0.060407083299585926
40
0.060407083299585926
40
0.060407083299585926
40
0.060407083299585926
10
-14.456324599626067
20
24.646936223008474
30
0
10
-14.567828290916651
20
24.621610010767622
30
0
10
-14.767567427356541
20
24.576242582086742
30
0
10
-14.925075117931177
20
24.446626299009541
30
0
10
-14.994654677751067
20
24.389367863633474
30
0
11
-14.456324599626067
21
24.646936223008474
31
0
11
-14.777674697282317
21
24.544702336289724
31
0
11
-14.994654677751067
21
24.389367863633474
31
0
0
LINE
5
295
100
AcDbEntity
8
0
100
AcDbLine
10
-62.026664645614737
20
16.347403304288221
30
0
11
-62.988578708114737
21
16.540274398038221
31
0
0
SPLINE
5
296
100
AcDbEntity
8
0
100
AcDbSpline
70
0
71
3
72
9
73
5
74
3
42
0.000000001
43
0.0000000001
44
0.0000000001
40
0
40
0
40
0
40
0
40
0.030363640683342356
40
0.058861127691966025
40
0.058861127691966025
40
0.058861127691966025
40
0.058861127691966025
10
-13.521266005876067
20
23.411584660508474
30
0
10
-13.550956037007362
20
23.312692367384052
30
0
10
-13.608511345734104
20
23.12098571553511
30
0
10
-13.754527621518044
20
22.984499905983999
30
0
10
-13.825221084001067
20
22.918420598008474
30
0
11
-13.521266005876067
21
23.411584660508474
31
0
11
-13.633875869157317
21
23.129602238633474
31
0
11
-13.825221084001067
21
22.918420598008474
31
0
0
SPLINE
5
297
100
AcDbEntity
8
0
100
AcDbSpline
70
0
71
3
72
9
73
5
74
3
42
0.000000001
43
0.0000000001
44
0.0000000001
40
0
40
0
40
0
40
0
40
0.049585570984792014
40
0.12408192336965751
40
0.12408192336965751
40
0.12408192336965751
40
0.12408192336965751
10
-52.34307357983009
20
16.618108867664084
30
0
10
-52.496393749528423
20
16.683696910993117
30
0
10
-52.880059020890656
20
16.847823095378782
30
0
10
-53.299653425325516
20
16.846158836995656
30
0
10
-53.55156967358009
20
16.845159648914088
30
0
11
-52.34307357983009
21
16.618108867664084
31
0
11
-52.80877182201759
21
16.788396953601584
31
0
11
-53.55156967358009
21
16.845159648914088
31
0
0
SPLINE
5
298
100
AcDbEntity
8
0
100
AcDbSpline
70
0
71
3
72
9
73
5
74
3
42
0.000000001
43
0.0000000001
44
0.0000000001
40
0
40
0
40
0
40
0
40
0.027677474956065245
40
0.056638318939747898
40
0.056638318939747898
40
0.056638318939747898
40
0.056638318939747898
10
-44.919955954997306
20
18.803080370629083
30
0
10
-44.846700288834555
20
18.743274497550466
30
0
10
-44.696792185192287
20
18.62088962973742
30
0
10
-44.503602714181724
20
18.605745755468647
30
0
10
-44.404819236247306
20
18.598002245629083
30
0
11
-44.919955954997306
21
18.803080370629083
31
0
11
-44.689853415934806
21
18.649271776879083
31
0
11
-44.404819236247306
21
18.598002245629083
31
0
0
SPLINE
5
299
100
AcDbEntity
8
0
100
AcDbSpline
70
0
71
3
72
9
73
5
74
3
42
0.000000001
43
0.0000000001
44
0.0000000001
40
0
40
0
40
0
40
0
40
0.02924802203806235
40
0.060430133110966393
40
0.060430133110966393
40
0.060430133110966393
40
0.060430133110966393
10
-43.828647361247306
20
18.320902636254083
30
0
10
-43.913934474339207
20
18.270715457018909
30
0
10
-44.090148496268171
20
18.16702236222779
30
0
10
-44.294493732655589
20
18.154991468910286
30
0
10
-44.399936423747306
20
18.148783495629083
30
0
11
-43.828647361247306
21
18.320902636254083
31
0
11
-44.091098533122306
21
18.191813280785333
31
0
11
-44.399936423747306
21
18.148783495629083
31
0
0
LINE
5
300
100
AcDbEntity
8
0
100
AcDbLine
10
-61.606742770614737
20
16.698965804288221
30
0
11
-61.606742770614737
21
14.919180648038219
31
0
0
SPLINE
5
301
100
AcDbEntity
8
0
100
AcDbSpline
70
0
71
3
72
9
73
5
74
3
42
0.000000001
43
0.0000000001
44
0.0000000001
40
0
40
0
40
0
40
0
40
0.040448594855226699
40
0.082462700055327909
40
0.082462700055327909
40
0.082462700055327909
40
0.082462700055327909
10
-15.242457412126067
20
24.731164738633474
30
0
10
-15.140586997697177
20
24.823911573980538
30
0
10
-14.932903406718836
20
25.012994890513049
30
0
10
-14.655998996134706
20
25.061616841580552
30
0
10
-14.514918349626067
20
25.086389348008474
30
0
11
-15.242457412126067
21
24.731164738633474
31
0
11
-14.920191787126067
21
24.975610539414724
31
0
11
-14.514918349626067
21
25.086389348008474
31
0
0
SPLINE
5
302
100
AcDbEntity
8
0
100
AcDbSpline
70
0
71
3
72
9
73
5
74
3
42
0.000000001
43
0.0000000001
44
0.0000000001
40
0
40
0
40
0
40
0
40
0.024213231903991841
40
0.049023140784518013
40
0.049023140784518013
40
0.049023140784518013
40
0.049023140784518013
10
-44.952914939372306
20
17.022074511254083
30
0
10
-45.002402209062907
20
16.956091358830989
30
0
10
-45.102596243411675
20
16.822499057585549
30
0
10
-45.115873330352805
20
16.655932171632521
30
0
10
-45.122592673747306
20
16.571635058129083
30
0
11
-44.952914939372306
21
17.022074511254083
31
0
11
-45.080173240153556
21
16.816080858910333
31
0
11
-45.122592673747306
21
16.571635058129083
31
0
0
LINE
5
303
100
AcDbEntity
8
0
100
AcDbLine
10
-63.49883261436473
20
16.633047835538221
30
0
11
-63.445121676864737
21
17.045645491788221
31
0
0
SPLINE
5
304
100
AcDbEntity
8
0
100
AcDbSpline
70
0
71
3
72
9
73
5
74
3
42
0.000000001
43
0.0000000001
44
0.0000000001
40
0
40
0
40
0
40
0
40
0.023512759176627721
40
0.045827975228038699
40
0.045827975228038699
40
0.045827975228038699
40
0.045827975228038699
10
-52.65801498608009
20
17.870550273914088
30
0
10
-52.737477438386847
20
17.875400822661298
30
0
10
-52.892355190866581
20
17.88485487380688
30
0
10
-53.026193919173679
20
17.963076641465939
30
0
10
-53.09136459545509
20
18.001165508289088
30
0
11
-52.65801498608009
21
17.870550273914088
31
0
11
-52.89086410717384
21
17.903204082507838
31
0
11
-53.09136459545509
21
18.001165508289088
31
0
0
SPLINE
5
305
100
AcDbEntity
8
0
100
AcDbSpline
70
0
71
3
72
9
73
5
74
3
42
0.000000001
43
0.0000000001
44
0.0000000001
40
0
40
0
40
0
40
0
40
0.037012236599079942
40
0.073814019130931385
40
0.073814019130931385
40
0.073814019130931385
40
0.073814019130931385
10
-51.99517318920509
20
18.156194805164088
30
0
10
-52.090659194515787
20
18.072882010936397
30
0
10
-52.281088265287337
20
17.906730144633695
30
0
10
-52.532611788701956
20
17.88258728593442
30
0
10
-52.65801498608009
20
17.870550273914088
30
0
11
-51.99517318920509
21
18.156194805164088
31
0
11
-52.29699203686134
21
17.941961406726588
31
0
11
-52.65801498608009
21
17.870550273914088
31
0
0
SPLINE
5
306
100
AcDbEntity
8
0
100
AcDbSpline
70
0
71
3
72
9
73
5
74
3
42
0.000000001
43
0.0000000001
44
0.0000000001
40
0
40
0
40
0
40
0
40
0.018856035850315322
40
0.036994083379207267
40
0.036994083379207267
40
0.036994083379207267
40
0.036994083379207267
10
-63.248588473739737
20
16.364493148038221
30
0
10
-63.282608817405126
20
16.418076798593301
30
0
10
-63.349354099400649
20
16.52320377502317
30
0
10
-63.449655331275743
20
16.596909983480415
30
0
10
-63.498832614364737
20
16.633047835538221
30
0
11
-63.248588473739737
21
16.364493148038221
31
0
11
-63.359367282333487
21
16.517081038663221
31
0
11
-63.498832614364737
21
16.633047835538221
31
0
0
SPLINE
5
307
100
AcDbEntity
8
0
100
AcDbSpline
70
0
71
3
72
9
73
5
74
3
42
0.000000001
43
0.0000000001
44
0.0000000001
40
0
40
0
40
0
40
0
40
0.037910853718036673
40
0.071962468039240876
40
0.071962468039240876
40
0.071962468039240876
40
0.071962468039240876
10
-54.56841537670509
20
15.092229961414088
30
0
10
-54.68793278597186
20
15.138171424241591
30
0
10
-54.914801001825317
20
15.225377612606255
30
0
10
-55.085695205996792
20
15.397667657936802
30
0
10
-55.16655990795509
20
15.479192852039088
30
0
11
-54.56841537670509
21
15.092229961414088
31
0
11
-54.91143295483009
21
15.253667949695338
31
0
11
-55.16655990795509
21
15.479192852039088
31
0
0
SPLINE
5
308
100
AcDbEntity
8
0
100
AcDbSpline
70
0
71
3
72
9
73
5
74
3
42
0.000000001
43
0.0000000001
44
0.0000000001
40
0
40
0
40
0
40
0
40
0.023032908329467704
40
0.048187761424364629
40
0.048187761424364629
40
0.048187761424364629
40
0.048187761424364629
10
-13.218531630876067
20
23.042932316758474
30
0
10
-13.279495587406394
20
23.091079915560428
30
0
10
-13.407039905768057
20
23.191810790317394
30
0
10
-13.482089044614815
20
23.336207208327497
30
0
10
-13.521266005876067
20
23.411584660508474
30
0
11
-13.218531630876067
21
23.042932316758474
31
0
11
-13.389430068376067
21
23.197351262070974
31
0
11
-13.521266005876067
21
23.411584660508474
31
0
0
SPLINE
5
309
100
AcDbEntity
8
0
100
AcDbSpline
70
0
71
3
72
9
73
5
74
3
42
0.000000001
43
0.0000000001
44
0.0000000001
40
0
40
0
40
0
40
0
40
0.043009348676446596
40
0.085576064803221025
40
0.085576064803221025
40
0.085576064803221025
40
0.085576064803221025
10
-54.29375717358009
20
17.724065898914088
30
0
10
-54.440375924848809
20
17.737313257068067
30
0
10
-54.73210449424262
20
17.763671637623535
30
0
10
-54.954579439326821
20
17.954067432914265
30
0
10
-55.06524154858009
20
18.048772930164088
30
0
11
-54.29375717358009
21
17.724065898914088
31
0
11
-54.71612045483009
21
17.805242656726588
31
0
11
-55.06524154858009
21
18.048772930164088
31
0
0
SPLINE
5
310
100
AcDbEntity
8
0
100
AcDbSpline
70
0
71
3
72
9
73
5
74
3
42
0.000000001
43
0.0000000001
44
0.0000000001
40
0
40
0
40
0
40
0
40
0.044139443862776191
40
0.088466948315295307
40
0.088466948315295307
40
0.088466948315295307
40
0.088466948315295307
10
-14.402613662126067
20
22.742639348008474
30
0
10
-14.55302766551055
20
22.757001596204599
30
0
10
-14.854496526438661
20
22.785787284415989
30
0
10
-15.082864620289559
20
22.98474559678672
30
0
10
-15.197291396501067
20
23.084436223008474
30
0
11
-14.402613662126067
21
22.742639348008474
31
0
11
-14.835658095719817
21
22.828088566758474
31
0
11
-15.197291396501067
21
23.084436223008474
31
0
0
SPLINE
5
311
100
AcDbEntity
8
0
100
AcDbSpline
70
0
71
3
72
9
73
5
74
3
42
0.000000001
43
0.0000000001
44
0.0000000001
40
0
40
0
40
0
40
0
40
0.031800971107117659
40
0.060949156536435345
40
0.060949156536435345
40
0.060949156536435345
40
0.060949156536435345
10
-52.37725326733009
20
15.620794414539086
30
0
10
-52.292564076757188
20
15.691364439157194
30
0
10
-52.130250331186801
20
15.826617650851302
30
0
10
-52.100806888411483
20
16.035036618873889
30
0
10
-52.08672592358009
20
16.134710430164084
30
0
11
-52.37725326733009
21
15.620794414539086
31
0
11
-52.15935775951759
21
15.852422832507836
31
0
11
-52.08672592358009
21
16.134710430164084
31
0
0
SPLINE
5
312
100
AcDbEntity
8
0
100
AcDbSpline
70
0
71
3
72
9
73
5
74
3
42
0.000000001
43
0.0000000001
44
0.0000000001
40
0
40
0
40
0
40
0
40
0.029327964181718232
40
0.060715897842994943
40
0.060715897842994943
40
0.060715897842994943
40
0.060715897842994943
10
-43.655307517497306
20
16.025980761254083
30
0
10
-43.591952839548128
20
16.103634964009139
30
0
10
-43.460793508801402
20
16.264397729959803
30
0
10
-43.445782508215636
20
16.471760294971006
30
0
10
-43.438022361247306
20
16.578959276879083
30
0
11
-43.655307517497306
21
16.025980761254083
31
0
11
-43.492343650309806
21
16.269816210472833
31
0
11
-43.438022361247306
21
16.578959276879083
31
0
0
SPLINE
5
313
100
AcDbEntity
8
0
100
AcDbSpline
70
0
71
3
72
9
73
5
74
3
42
0.000000001
43
0.0000000001
44
0.0000000001
40
0
40
0
40
0
40
0
40
0.073575760673566165
40
0.12013652472993311
40
0.12013652472993311
40
0.12013652472993311
40
0.12013652472993311
10
-53.55156967358009
20
16.845159648914088
30
0
10
-53.80030202637677
20
16.847660078051998
30
0
10
-54.206439050028749
20
16.851742847488723
30
0
10
-54.579917889209312
20
16.698321594801492
30
0
10
-54.72466537670509
20
16.638860820789088
30
0
11
-53.55156967358009
21
16.845159648914088
31
0
11
-54.28551742748634
21
16.793584941882838
31
0
11
-54.72466537670509
21
16.638860820789088
31
0
0
SPLINE
5
314
100
AcDbEntity
8
0
100
AcDbSpline
70
0
71
3
72
9
73
5
74
3
42
0.000000001
43
0.0000000001
44
0.0000000001
40
0
40
0
40
0
40
0
40
0.022636761998554088
40
0.044906858780112552
40
0.044906858780112552
40
0.044906858780112552
40
0.044906858780112552
10
-52.65557357983009
20
18.322210430164088
30
0
10
-52.578439901214011
20
18.328948219036846
30
0
10
-52.425421938087304
20
18.342314659582478
30
0
10
-52.307539434659979
20
18.440670417496715
30
0
10
-52.24907943920509
20
18.489446758289088
30
0
11
-52.65557357983009
21
18.322210430164088
31
0
11
-52.43310043529884
21
18.364019512195338
31
0
11
-52.24907943920509
21
18.489446758289088
31
0
0
SPLINE
5
315
100
AcDbEntity
8
0
100
AcDbSpline
70
0
71
3
72
9
73
5
74
3
42
0.000000001
43
0.0000000001
44
0.0000000001
40
0
40
0
40
0
40
0
40
0.032239058990507906
40
0.061783242851193444
40
0.061783242851193444
40
0.061783242851193444
40
0.061783242851193444
10
-43.481967673747306
20
18.822611620629083
30
0
10
-43.521391998013684
20
18.720701112092044
30
0
10
-43.596945152375646
20
18.525398832956466
30
0
10
-43.75369230222185
20
18.387056621444607
30
0
10
-43.828647361247306
20
18.320902636254083
30
0
11
-43.481967673747306
21
18.822611620629083
31
0
11
-43.622348533122306
21
18.532389452660333
31
0
11
-43.828647361247306
21
18.320902636254083
31
0
0
LINE
5
316
100
AcDbEntity
8
0
100
AcDbLine
10
-44.485385642497306
20
17.721537401879083
30
0
11
-44.446323142497306
21
17.260111620629083
31
0
0
SPLINE
5
317
100
AcDbEntity
8
0
100
AcDbSpline
70
0
71
3
72
9
73
5
74
3
42
0.000000001
43
0.0000000001
44
0.0000000001
40
0
40
0
40
0
40
0
40
0.057007138171814083
40
0.10281617802550526
40
0.10281617802550526
40
0.10281617802550526
40
0.10281617802550526
10
-53.55156967358009
20
14.962835430164088
30
0
10
-53.742398108245965
20
14.965447433524863
30
0
10
-54.086569924971819
20
14.970158355896288
30
0
10
-54.419901700380592
20
15.054605235799123
30
0
10
-54.56841537670509
20
15.092229961414088
30
0
11
-53.55156967358009
21
14.962835430164088
31
0
11
-54.12072250561134
21
14.995184062976588
31
0
11
-54.56841537670509
21
15.092229961414088
31
0
0
SPLINE
5
318
100
AcDbEntity
8
0
100
AcDbSpline
70
0
71
3
72
9
73
5
74
3
42
0.000000001
43
0.0000000001
44
0.0000000001
40
0
40
0
40
0
40
0
40
0.037068846807255362
40
0.072128377748903794
40
0.072128377748903794
40
0.072128377748903794
40
0.072128377748903794
10
-62.988578708114737
20
16.540274398038221
30
0
10
-62.923082582133453
20
16.433265791461118
30
0
10
-62.795640545955976
20
16.225048977010161
30
0
10
-62.774328504033654
20
15.982096891422914
30
0
10
-62.763969333114737
20
15.864004866788219
30
0
11
-62.988578708114737
21
16.540274398038221
31
0
11
-62.820121676864737
21
16.210074202725721
31
0
11
-62.763969333114737
21
15.864004866788219
31
0
0
SPLINE
5
319
100
AcDbEntity
8
0
100
AcDbSpline
70
0
71
3
72
9
73
5
74
3
42
0.000000001
43
0.0000000001
44
0.0000000001
40
0
40
0
40
0
40
0
40
0.023841319574000458
40
0.046550089041450346
40
0.046550089041450346
40
0.046550089041450346
40
0.046550089041450346
10
-12.227320693376067
20
23.956018254258474
30
0
10
-12.23335673519574
20
24.037175222787702
30
0
10
-12.245142084714315
20
24.195633906236147
30
0
10
-12.341464195118128
20
24.321743604828221
30
0
10
-12.388453505876067
20
24.383264348008474
30
0
11
-12.227320693376067
21
23.956018254258474
31
0
11
-12.267603896501067
21
24.191003605820974
31
0
11
-12.388453505876067
21
24.383264348008474
31
0
0
SPLINE
5
320
100
AcDbEntity
8
0
100
AcDbSpline
70
0
71
3
72
9
73
5
74
3
42
0.000000001
43
0.0000000001
44
0.0000000001
40
0
40
0
40
0
40
0
40
0.027193559568742684
40
0.052250052352303983
40
0.052250052352303983
40
0.052250052352303983
40
0.052250052352303983
10
-51.72295639233009
20
16.129827617664084
30
0
10
-51.726947252877117
20
16.03836681373712
30
0
10
-51.734615343256593
20
15.862632858008103
30
0
10
-51.805115071345412
20
15.701653914975262
30
0
10
-51.83892318920509
20
15.624456523914086
30
0
11
-51.72295639233009
21
16.129827617664084
31
0
11
-51.75194809154884
21
15.859441875476586
31
0
11
-51.83892318920509
21
15.624456523914086
31
0
0
SPLINE
5
321
100
AcDbEntity
8
0
100
AcDbSpline
70
0
71
3
72
9
73
5
74
3
42
0.000000001
43
0.0000000001
44
0.0000000001
40
0
40
0
40
0
40
0
40
0.06443962765019863
40
0.15168167104901079
40
0.15168167104901079
40
0.15168167104901079
40
0.15168167104901079
10
-55.00664779858009
20
16.942815898914088
30
0
10
-54.814745809934081
20
17.04548747664283
30
0
10
-54.363035963417552
20
17.287161692447931
30
0
10
-53.847873359626007
20
17.293293183745696
30
0
10
-53.55156967358009
20
17.296819805164088
30
0
11
-55.00664779858009
21
16.942815898914088
31
0
11
-54.41948959545509
21
17.208318828601588
31
0
11
-53.55156967358009
21
17.296819805164088
31
0
0
SPLINE
5
322
100
AcDbEntity
8
0
100
AcDbSpline
70
0
71
3
72
9
73
5
74
3
42
0.000000001
43
0.0000000001
44
0.0000000001
40
0
40
0
40
0
40
0
40
0.037922348919340626
40
0.071925683047581568
40
0.071925683047581568
40
0.071925683047581568
40
0.071925683047581568
10
-52.52984115795509
20
17.166204570789088
30
0
10
-52.410401367122361
20
17.119951829692866
30
0
10
-52.183865069041872
20
17.032226251215533
30
0
10
-52.013471837486676
20
16.859621157097735
30
0
10
-51.93291732983009
20
16.778020977039084
30
0
11
-52.52984115795509
21
17.166204570789088
31
0
11
-52.18712875561134
21
17.003851055164088
31
0
11
-51.93291732983009
21
16.778020977039084
31
0
0
SPLINE
5
323
100
AcDbEntity
8
0
100
AcDbSpline
70
0
71
3
72
9
73
5
74
3
42
0.000000001
43
0.0000000001
44
0.0000000001
40
0
40
0
40
0
40
0
40
0.028809127156120183
40
0.060647386739141558
40
0.060647386739141558
40
0.060647386739141558
40
0.060647386739141558
10
-55.01641342358009
20
16.129827617664088
30
0
10
-55.001941615072482
20
16.031399467688612
30
0
10
-54.971476361383267
20
15.824193951005235
30
0
10
-54.808829785487994
20
15.69081487175163
30
0
10
-54.72344467358009
20
15.620794414539088
30
0
11
-55.01641342358009
21
16.129827617664088
31
0
11
-54.94317123608009
21
15.851202129382838
31
0
11
-54.72344467358009
21
15.620794414539088
31
0
0
SPLINE
5
324
100
AcDbEntity
8
0
100
AcDbSpline
70
0
71
3
72
9
73
5
74
3
42
0.000000001
43
0.0000000001
44
0.0000000001
40
0
40
0
40
0
40
0
40
0.031775145029671929
40
0.060576528746157855
40
0.060576528746157855
40
0.060576528746157855
40
0.060576528746157855
10
-54.72466537670509
20
16.638860820789088
30
0
10
-54.809696941371008
20
16.568788695304551
30
0
10
-54.971802165957897
20
16.435202330246121
30
0
10
-55.002037769534823
20
16.228232402829132
30
0
10
-55.01641342358009
20
16.129827617664088
30
0
11
-54.72466537670509
21
16.638860820789088
31
0
11
-54.94347641186134
21
16.408453105945338
31
0
11
-55.01641342358009
21
16.129827617664088
31
0
0
SPLINE
5
325
100
AcDbEntity
8
0
100
AcDbSpline
70
0
71
3
72
9
73
5
74
3
42
0.000000001
43
0.0000000001
44
0.0000000001
40
0
40
0
40
0
40
0
40
0.023430902824159969
40
0.045572872694274964
40
0.045572872694274964
40
0.045572872694274964
40
0.045572872694274964
10
-52.63115951733009
20
19.489202617664088
30
0
10
-52.711119244182925
20
19.483191747845183
30
0
10
-52.866640116762184
20
19.471500665896929
30
0
10
-52.987485040396052
20
19.373326942070975
30
0
10
-53.04619857983009
20
19.325628398914088
30
0
11
-52.63115951733009
21
19.489202617664088
31
0
11
-52.86187240795509
21
19.448309062976588
31
0
11
-53.04619857983009
21
19.325628398914088
31
0
0
LINE
5
326
100
AcDbEntity
8
0
100
AcDbLine
10
-61.606742770614737
20
14.919180648038219
30
0
11
-62.026664645614737
21
14.919180648038219
31
0
0
SPLINE
5
327
100
AcDbEntity
8
0
100
AcDbSpline
70
0
71
3
72
9
73
5
74
3
42
0.000000001
43
0.0000000001
44
0.0000000001
40
0
40
0
40
0
40
0
40
0.029095033898998403
40
0.057814409852243509
40
0.057814409852243509
40
0.057814409852243509
40
0.057814409852243509
10
-15.159449599626067
20
23.946252629258474
30
0
10
-15.150732722527312
20
23.847152621370846
30
0
10
-15.133411515514164
20
23.65023212654464
30
0
10
-15.007267859039725
20
23.498128595974393
30
0
10
-14.944605849626067
20
23.422570988633474
30
0
11
-15.159449599626067
21
23.946252629258474
31
0
11
-15.105738662126067
21
23.660302922227224
31
0
11
-14.944605849626067
21
23.422570988633474
31
0
0
SPLINE
5
328
100
AcDbEntity
8
0
100
AcDbSpline
70
0
71
3
72
9
73
5
74
3
42
0.000000001
43
0.0000000001
44
0.0000000001
40
0
40
0
40
0
40
0
40
0.022657118155847884
40
0.04692977996460608
40
0.04692977996460608
40
0.04692977996460608
40
0.04692977996460608
10
-53.09014389233009
20
19.806585430164088
30
0
10
-53.023850219346052
20
19.845024992418587
30
0
10
-52.886535867856765
20
19.924645012322738
30
0
10
-52.727871253156607
20
19.933725056613095
30
0
10
-52.64580795483009
20
19.938421367664088
30
0
11
-53.09014389233009
21
19.806585430164088
31
0
11
-52.88628647045509
21
19.905462383289088
31
0
11
-52.64580795483009
21
19.938421367664088
31
0
0
SPLINE
5
329
100
AcDbEntity
8
0
100
AcDbSpline
70
0
71
3
72
9
73
5
74
3
42
0.000000001
43
0.0000000001
44
0.0000000001
40
0
40
0
40
0
40
0
40
0.02706666610841876
40
0.054216335810003832
40
0.054216335810003832
40
0.054216335810003832
40
0.054216335810003832
10
-24.161805845967216
20
18.830348055935641
30
0
10
-24.073438760552165
20
18.811121994572474
30
0
10
-23.896433600100451
20
18.772610912528084
30
0
10
-23.715367916065667
20
18.767159810791185
30
0
10
-23.624696470967216
20
18.764430087185641
30
0
11
-24.161805845967216
21
18.830348055935641
31
0
11
-23.895692564717216
21
18.780909579373141
31
0
11
-23.624696470967216
21
18.764430087185641
31
0
0
SPLINE
5
330
100
AcDbEntity
8
0
100
AcDbSpline
70
0
71
3
72
9
73
5
74
3
42
0.000000001
43
0.0000000001
44
0.0000000001
40
0
40
0
40
0
40
0
40
0.044865873923676955
40
0.085751058194843091
40
0.085751058194843091
40
0.085751058194843091
40
0.085751058194843091
10
-65.19805136436473
20
15.973868148038219
30
0
10
-65.188928179200772
20
16.126495870569094
30
0
10
-65.171491256357157
20
16.418209540053297
30
0
10
-65.004319543145471
20
16.657091116621039
30
0
10
-64.92461386436473
20
16.770987288663221
30
0
11
-65.19805136436473
21
15.973868148038219
31
0
11
-65.12969198936473
21
16.417288558194471
31
0
11
-64.92461386436473
21
16.770987288663221
31
0
0
SPLINE
5
331
100
AcDbEntity
8
0
100
AcDbSpline
70
0
71
3
72
9
73
5
74
3
42
0.000000001
43
0.0000000001
44
0.0000000001
40
0
40
0
40
0
40
0
40
0.021640900978504522
40
0.042923537018464117
40
0.042923537018464117
40
0.042923537018464117
40
0.042923537018464117
10
-52.24541732983009
20
19.323186992664088
30
0
10
-52.301455782442588
20
19.371607244713832
30
0
10
-52.412604971543317
20
19.467646151937011
30
0
10
-52.558714507274338
20
19.482057223498334
30
0
10
-52.63115951733009
20
19.489202617664088
30
0
11
-52.24541732983009
21
19.323186992664088
31
0
11
-52.42241928295509
21
19.447698711414088
31
0
11
-52.63115951733009
21
19.489202617664088
31
0
0
SPLINE
5
332
100
AcDbEntity
8
0
100
AcDbSpline
70
0
71
3
72
9
73
5
74
3
42
0.000000001
43
0.0000000001
44
0.0000000001
40
0
40
0
40
0
40
0
40
0.026350263179590345
40
0.051502709627026536
40
0.051502709627026536
40
0.051502709627026536
40
0.051502709627026536
10
-11.991724990251067
20
23.426233098008474
30
0
10
-12.036572363873439
20
23.349406794169504
30
0
10
-12.124228462238211
20
23.199246517159406
30
0
10
-12.265667700458261
20
23.098323661123779
30
0
10
-12.334742568376067
20
23.049035832383474
30
0
11
-11.991724990251067
21
23.426233098008474
31
0
11
-12.140345595719817
21
23.208642765977224
31
0
11
-12.334742568376067
21
23.049035832383474
31
0
0
SPLINE
5
333
100
AcDbEntity
8
0
100
AcDbSpline
70
0
71
3
72
9
73
5
74
3
42
0.000000001
43
0.0000000001
44
0.0000000001
40
0
40
0
40
0
40
0
40
0.027746588073004799
40
0.054602837090655873
40
0.054602837090655873
40
0.054602837090655873
40
0.054602837090655873
10
-22.213563658467216
20
19.017115634060641
30
0
10
-22.148769671618517
20
19.086868790322974
30
0
10
-22.021260822636982
20
19.22413684713522
30
0
10
-22.001241926459578
20
19.410213504005466
30
0
10
-21.991395689717216
20
19.501734774685641
30
0
11
-22.213563658467216
21
19.017115634060641
31
0
11
-22.046937681904716
21
19.238978427029391
31
0
11
-21.991395689717216
21
19.501734774685641
31
0
0
SPLINE
5
334
100
AcDbEntity
8
0
100
AcDbSpline
70
0
71
3
72
9
73
5
74
3
42
0.000000001
43
0.0000000001
44
0.0000000001
40
0
40
0
40
0
40
0
40
0.044286463353198892
40
0.091367639363914704
40
0.091367639363914704
40
0.091367639363914704
40
0.091367639363914704
10
-43.374545798747306
20
15.670756151879083
30
0
10
-43.492973461279234
20
15.5767863914594
30
0
10
-43.737302205135606
20
15.382916876238365
30
0
10
-44.048927936189173
20
15.360197618840864
30
0
10
-44.209506736247306
20
15.348490526879083
30
0
11
-43.374545798747306
21
15.670756151879083
31
0
11
-43.745639548747306
21
15.429056933129083
31
0
11
-44.209506736247306
21
15.348490526879083
31
0
0
SPLINE
5
335
100
AcDbEntity
8
0
100
AcDbSpline
70
0
71
3
72
9
73
5
74
3
42
0.000000001
43
0.0000000001
44
0.0000000001
40
0
40
0
40
0
40
0
40
0.032344947461061826
40
0.068410269578710631
40
0.068410269578710631
40
0.068410269578710631
40
0.068410269578710631
10
-64.59746542686473
20
15.436758773038219
30
0
10
-64.507950846750106
20
15.372723219985911
30
0
10
-64.31862555678822
20
15.237286628159508
30
0
10
-64.085566557561989
20
15.224024102940612
30
0
10
-63.962699801864737
20
15.217032210538219
30
0
11
-64.59746542686473
21
15.436758773038219
31
0
11
-64.31914511436473
21
15.271963851163219
31
0
11
-63.962699801864737
21
15.217032210538219
31
0
0
SPLINE
5
336
100
AcDbEntity
8
0
100
AcDbSpline
70
0
71
3
72
9
73
5
74
3
42
0.000000001
43
0.0000000001
44
0.0000000001
40
0
40
0
40
0
40
0
40
0.019630489949727957
40
0.039370551292894782
40
0.039370551292894782
40
0.039370551292894782
40
0.039370551292894782
10
-54.91997787670509
20
19.276800273914088
30
0
10
-54.94810484913765
20
19.216994058121848
30
0
10
-55.004515790163865
20
19.097047806524856
30
0
10
-55.012440194357772
20
18.9647268921806
30
0
10
-55.01641342358009
20
18.898382305164088
30
0
11
-54.91997787670509
21
19.276800273914088
31
0
11
-54.99230453686134
21
19.094305156726588
31
0
11
-55.01641342358009
21
18.898382305164088
31
0
0
SPLINE
5
337
100
AcDbEntity
8
0
100
AcDbSpline
70
0
71
3
72
9
73
5
74
3
42
0.000000001
43
0.0000000001
44
0.0000000001
40
0
40
0
40
0
40
0
40
0.052150067650393588
40
0.10653006275606593
40
0.10653006275606593
40
0.10653006275606593
40
0.10653006275606593
10
-64.76348105186473
20
15.033926741788219
30
0
10
-64.890215183913369
20
15.161152556681825
30
0
10
-65.149102576562314
20
15.421044339290182
30
0
10
-65.181508987359251
20
15.787039826592654
30
0
10
-65.19805136436473
20
15.973868148038219
30
0
11
-64.76348105186473
21
15.033926741788219
31
0
11
-65.08940878623973
21
15.441031233975719
31
0
11
-65.19805136436473
21
15.973868148038219
31
0
0
SPLINE
5
338
100
AcDbEntity
8
0
100
AcDbSpline
70
0
71
3
72
9
73
5
74
3
42
0.000000001
43
0.0000000001
44
0.0000000001
40
0
40
0
40
0
40
0
40
0.018856035850315322
40
0.036994083379207267
40
0.036994083379207267
40
0.036994083379207267
40
0.036994083379207267
10
-43.534457908122306
20
16.962260058129083
30
0
10
-43.568478251787695
20
17.015843708684166
30
0
10
-43.635223533783218
20
17.120970685114031
30
0
10
-43.735524765658312
20
17.194676893571277
30
0
10
-43.784702048747306
20
17.230814745629083
30
0
11
-43.534457908122306
21
16.962260058129083
31
0
11
-43.645236716716056
21
17.114847948754083
31
0
11
-43.784702048747306
21
17.230814745629083
31
0
0
SPLINE
5
339
100
AcDbEntity
8
0
100
AcDbSpline
70
0
71
3
72
9
73
5
74
3
42
0.000000001
43
0.0000000001
44
0.0000000001
40
0
40
0
40
0
40
0
40
0.034042259226423302
40
0.064227291242485302
40
0.064227291242485302
40
0.064227291242485302
40
0.064227291242485302
10
-63.962699801864737
20
15.217032210538219
30
0
10
-63.846489961033932
20
15.223515077855394
30
0
10
-63.627237671030514
20
15.235746258062823
30
0
10
-63.451860467676291
20
15.366679082615262
30
0
10
-63.369438083114737
20
15.428213851163219
30
0
11
-63.962699801864737
21
15.217032210538219
31
0
11
-63.626396090927237
21
15.269827620694469
31
0
11
-63.369438083114737
21
15.428213851163219
31
0
0
SPLINE
5
340
100
AcDbEntity
8
0
100
AcDbSpline
70
0
71
3
72
9
73
5
74
3
42
0.000000001
43
0.0000000001
44
0.0000000001
40
0
40
0
40
0
40
0
40
0.02924802203806235
40
0.060430133110966393
40
0.060430133110966393
40
0.060430133110966393
40
0.060430133110966393
10
-53.72246811108009
20
17.896185039539088
30
0
10
-53.807755224171991
20
17.845997860303914
30
0
10
-53.983969246100955
20
17.742304765512795
30
0
10
-54.188314482488373
20
17.730273872195291
30
0
10
-54.29375717358009
20
17.724065898914088
30
0
11
-53.72246811108009
21
17.896185039539088
31
0
11
-53.98491928295509
21
17.767095684070338
31
0
11
-54.29375717358009
21
17.724065898914088
31
0
0
SPLINE
5
341
100
AcDbEntity
8
0
100
AcDbSpline
70
0
71
3
72
9
73
5
74
3
42
0.000000001
43
0.0000000001
44
0.0000000001
40
0
40
0
40
0
40
0
40
0.028057407245193754
40
0.054846157293077277
40
0.054846157293077277
40
0.054846157293077277
40
0.054846157293077277
10
-14.412379287126067
20
23.208947941758474
30
0
10
-14.316691281506218
20
23.216398228609819
30
0
10
-14.129641945071674
20
23.230961926565108
30
0
10
-13.984166782876237
20
23.349032243395364
30
0
10
-13.913111709001067
20
23.406701848008474
30
0
11
-14.412379287126067
21
23.208947941758474
31
0
11
-14.136195205094817
21
23.258386418320974
31
0
11
-13.913111709001067
21
23.406701848008474
31
0
0
SPLINE
5
342
100
AcDbEntity
8
0
100
AcDbSpline
70
0
71
3
72
9
73
5
74
3
42
0.000000001
43
0.0000000001
44
0.0000000001
40
0
40
0
40
0
40
0
40
0.019994394291629389
40
0.041799753769379069
40
0.041799753769379069
40
0.041799753769379069
40
0.041799753769379069
10
-24.786805845967216
20
19.987574618435641
30
0
10
-24.825949939792839
20
19.931977709199064
30
0
10
-24.907783550732564
20
19.815748275962353
30
0
10
-24.916523754253941
20
19.673563483452856
30
0
10
-24.921083189717216
20
19.599391024685641
30
0
11
-24.786805845967216
21
19.987574618435641
31
0
11
-24.887513853779716
21
19.814845126248141
31
0
11
-24.921083189717216
21
19.599391024685641
31
0
0
SPLINE
5
343
100
AcDbEntity
8
0
100
AcDbSpline
70
0
71
3
72
9
73
5
74
3
42
0.000000001
43
0.0000000001
44
0.0000000001
40
0
40
0
40
0
40
0
40
0.037327040221817889
40
0.085129502228995096
40
0.085129502228995096
40
0.085129502228995096
40
0.085129502228995096
10
-52.70562240795509
20
15.043401836414086
30
0
10
-52.82806923769229
20
15.019993823526214
30
0
10
-53.10732624824287
20
14.966608597334353
30
0
10
-53.391819311177471
20
14.964192264702266
30
0
10
-53.55156967358009
20
14.962835430164088
30
0
11
-52.70562240795509
21
15.043401836414086
31
0
11
-53.07396957592384
21
14.982977031726586
31
0
11
-53.55156967358009
21
14.962835430164088
31
0
0
SPLINE
5
344
100
AcDbEntity
8
0
100
AcDbSpline
70
0
71
3
72
9
73
5
74
3
42
0.000000001
43
0.0000000001
44
0.0000000001
40
0
40
0
40
0
40
0
40
0.044865873923676955
40
0.085751058194843091
40
0.085751058194843091
40
0.085751058194843091
40
0.085751058194843091
10
-45.483920798747306
20
16.571635058129083
30
0
10
-45.474797613583334
20
16.724262780659956
30
0
10
-45.457360690739733
20
17.015976450144162
30
0
10
-45.290188977528047
20
17.254858026711904
30
0
10
-45.210483298747306
20
17.368754198754083
30
0
11
-45.483920798747306
21
16.571635058129083
31
0
11
-45.415561423747306
21
17.015055468285333
31
0
11
-45.210483298747306
21
17.368754198754083
31
0
0
SPLINE
5
345
100
AcDbEntity
8
0
100
AcDbSpline
70
0
71
3
72
9
73
5
74
3
42
0.000000001
43
0.0000000001
44
0.0000000001
40
0
40
0
40
0
40
0
40
0.033072734504358235
40
0.069192257557490144
40
0.069192257557490144
40
0.069192257557490144
40
0.069192257557490144
10
-51.93291732983009
20
16.778020977039084
30
0
10
-51.871711217748135
20
16.683975283998429
30
0
10
-51.743660449200142
20
16.487220043992966
30
0
10
-51.73005740852291
20
16.252405015054503
30
0
10
-51.72295639233009
20
16.129827617664084
30
0
11
-51.93291732983009
21
16.778020977039084
31
0
11
-51.77544662670509
21
16.487188457507834
31
0
11
-51.72295639233009
21
16.129827617664084
31
0
0
SPLINE
5
346
100
AcDbEntity
8
0
100
AcDbSpline
70
0
71
3
72
9
73
5
74
3
42
0.000000001
43
0.0000000001
44
0.0000000001
40
0
40
0
40
0
40
0
40
0.04430462912318716
40
0.09278975251110283
40
0.09278975251110283
40
0.09278975251110283
40
0.09278975251110283
10
-45.171420798747306
20
18.473490526879083
30
0
10
-45.262516051300629
20
18.593939422727807
30
0
10
-45.453302118279247
20
18.846202526092533
30
0
10
-45.473412557341881
20
19.162637165665785
30
0
10
-45.483920798747306
20
19.327982714379083
30
0
11
-45.171420798747306
21
18.473490526879083
31
0
11
-45.405795798747306
21
18.849467089379083
31
0
11
-45.483920798747306
21
19.327982714379083
31
0
0
SPLINE
5
347
100
AcDbEntity
8
0
100
AcDbSpline
70
0
71
3
72
9
73
5
74
3
42
0.000000001
43
0.0000000001
44
0.0000000001
40
0
40
0
40
0
40
0
40
0.023360204394871922
40
0.045657091312122006
40
0.045657091312122006
40
0.045657091312122006
40
0.045657091312122006
10
-52.08428451733009
20
18.905706523914088
30
0
10
-52.09035057185622
20
18.985288674076717
30
0
10
-52.102206564240618
20
19.140830527879501
30
0
10
-52.198427376793006
20
19.263352652131335
30
0
10
-52.24541732983009
20
19.323186992664088
30
0
11
-52.08428451733009
21
18.905706523914088
31
0
11
-52.12456772045509
21
19.135809062976588
31
0
11
-52.24541732983009
21
19.323186992664088
31
0
0
SPLINE
5
348
100
AcDbEntity
8
0
100
AcDbSpline
70
0
71
3
72
9
73
5
74
3
42
0.000000001
43
0.0000000001
44
0.0000000001
40
0
40
0
40
0
40
0
40
0.034042259226423302
40
0.064227291242485302
40
0.064227291242485302
40
0.064227291242485302
40
0.064227291242485302
10
-44.248569236247306
20
15.814799120629083
30
0
10
-44.132359395416501
20
15.821281987946257
30
0
10
-43.913107105413083
20
15.833513168153686
30
0
10
-43.737729902058859
20
15.964445992706125
30
0
10
-43.655307517497306
20
16.025980761254083
30
0
11
-44.248569236247306
21
15.814799120629083
31
0
11
-43.912265525309806
21
15.867594530785333
31
0
11
-43.655307517497306
21
16.025980761254083
31
0
0
SPLINE
5
349
100
AcDbEntity
8
0
100
AcDbSpline
70
0
71
3
72
9
73
5
74
3
42
0.000000001
43
0.0000000001
44
0.0000000001
40
0
40
0
40
0
40
0
40
0.029901247010652471
40
0.060200514988472661
40
0.060200514988472661
40
0.060200514988472661
40
0.060200514988472661
10
-45.122592673747306
20
16.571635058129083
30
0
10
-45.112362550070387
20
16.469671208164691
30
0
10
-45.091766127669459
20
16.264386248782326
30
0
10
-44.953117512534249
20
16.111482849743005
30
0
10
-44.883334861247306
20
16.034525683129083
30
0
11
-45.122592673747306
21
16.571635058129083
31
0
11
-45.062778220622306
21
16.278666308129083
31
0
11
-44.883334861247306
21
16.034525683129083
31
0
0
SPLINE
5
350
100
AcDbEntity
8
0
100
AcDbSpline
70
0
71
3
72
9
73
5
74
3
42
0.000000001
43
0.0000000001
44
0.0000000001
40
0
40
0
40
0
40
0
40
0.04583817441978344
40
0.089980561572196138
40
0.089980561572196138
40
0.089980561572196138
40
0.089980561572196138
10
-63.923637301864737
20
14.750723616788219
30
0
10
-64.078932123710345
20
14.761608568982073
30
0
10
-64.383776621899869
20
14.78297578361239
30
0
10
-64.638513176416282
20
14.951334057557785
30
0
10
-64.76348105186473
20
15.033926741788219
30
0
11
-63.923637301864737
21
14.750723616788219
31
0
11
-64.37651816123973
21
14.821524398038219
31
0
11
-64.76348105186473
21
15.033926741788219
31
0
0
SPLINE
5
351
100
AcDbEntity
8
0
100
AcDbSpline
70
0
71
3
72
9
73
5
74
3
42
0.000000001
43
0.0000000001
44
0.0000000001
40
0
40
0
40
0
40
0
40
0.026723433078581941
40
0.050159423045603377
40
0.050159423045603377
40
0.050159423045603377
40
0.050159423045603377
10
-53.37578842358009
20
19.401311992664088
30
0
10
-53.341140512716251
20
19.484861427669227
30
0
10
-53.276106981524521
20
19.641682276372336
30
0
10
-53.149362652225484
20
19.754073072401642
30
0
10
-53.09014389233009
20
19.806585430164088
30
0
11
-53.37578842358009
21
19.401311992664088
31
0
11
-53.25432846264259
21
19.639349102039088
31
0
11
-53.09014389233009
21
19.806585430164088
31
0
0
SPLINE
5
352
100
AcDbEntity
8
0
100
AcDbSpline
70
0
71
3
72
9
73
5
74
3
42
0.000000001
43
0.0000000001
44
0.0000000001
40
0
40
0
40
0
40
0
40
0.029190506161544949
40
0.056970689544848366
40
0.056970689544848366
40
0.056970689544848366
40
0.056970689544848366
10
-45.122592673747306
20
19.323099901879083
30
0
10
-45.115017363457142
20
19.223591904468837
30
0
10
-45.100232739704531
20
19.029383582204215
30
0
10
-44.979048232939562
20
18.877259485257404
30
0
10
-44.919955954997306
20
18.803080370629083
30
0
11
-45.122592673747306
21
19.323099901879083
31
0
11
-45.071933494059806
21
19.035624315941583
31
0
11
-44.919955954997306
21
18.803080370629083
31
0
0
SPLINE
5
353
100
AcDbEntity
8
0
100
AcDbSpline
70
0
71
3
72
9
73
5
74
3
42
0.000000001
43
0.0000000001
44
0.0000000001
40
0
40
0
40
0
40
0
40
0.027965892986804349
40
0.056524933293431424
40
0.056524933293431424
40
0.056524933293431424
40
0.056524933293431424
10
-52.08672592358009
20
16.134710430164084
30
0
10
-52.097848425204845
20
16.230843922527448
30
0
10
-52.120329333026802
20
16.425149866759863
30
0
10
-52.26830789067192
20
16.553340807932251
30
0
10
-52.34307357983009
20
16.618108867664084
30
0
11
-52.08672592358009
21
16.134710430164084
31
0
11
-52.15081283764259
21
16.406927227039084
31
0
11
-52.34307357983009
21
16.618108867664084
31
0
0
SPLINE
5
354
100
AcDbEntity
8
0
100
AcDbSpline
70
0
71
3
72
9
73
5
74
3
42
0.000000001
43
0.0000000001
44
0.0000000001
40
0
40
0
40
0
40
0
40
0.032377784117726814
40
0.061925514107918619
40
0.061925514107918619
40
0.061925514107918619
40
0.061925514107918619
10
-54.28155014233009
20
20.082464336414088
30
0
10
-54.171893739592527
20
20.076534294077582
30
0
10
-53.962165702304418
20
20.065192538291132
30
0
10
-53.782541127169232
20
19.957058492488294
30
0
10
-53.69683334545509
20
19.905462383289088
30
0
11
-54.28155014233009
21
20.082464336414088
31
0
11
-53.96081039623634
21
20.038213848132838
31
0
11
-53.69683334545509
21
19.905462383289088
31
0
0
LINE
5
355
100
AcDbEntity
8
0
100
AcDbLine
10
-62.026664645614737
20
14.919180648038219
30
0
11
-62.026664645614737
21
16.347403304288221
31
0
0
SPLINE
5
356
100
AcDbEntity
8
0
100
AcDbSpline
70
0
71
3
72
9
73
5
74
3
42
0.000000001
43
0.0000000001
44
0.0000000001
40
0
40
0
40
0
40
0
40
0.020345980305160057
40
0.039863039244216518
40
0.039863039244216518
40
0.039863039244216518
40
0.039863039244216518
10
-63.152152926864737
20
15.981192366788219
30
0
10
-63.155826211366488
20
16.049644852389157
30
0
10
-63.163023126042113
20
16.183760981420413
30
0
10
-63.220464843344224
20
16.305090074348847
30
0
10
-63.248588473739737
20
16.364493148038221
30
0
11
-63.152152926864737
21
15.981192366788219
31
0
11
-63.176261813583487
21
16.183218733975721
31
0
11
-63.248588473739737
21
16.364493148038221
31
0
0
SPLINE
5
357
100
AcDbEntity
8
0
100
AcDbSpline
70
0
71
3
72
9
73
5
74
3
42
0.000000001
43
0.0000000001
44
0.0000000001
40
0
40
0
40
0
40
0
40
0.02155954043491742
40
0.043333998166649665
40
0.043333998166649665
40
0.043333998166649665
40
0.043333998166649665
10
-53.04741928295509
20
18.484563945789088
30
0
10
-52.990924382144129
20
18.437211168209277
30
0
10
-52.877371408435934
20
18.342033574650468
30
0
10
-52.729750234418646
20
18.328839956479417
30
0
10
-52.65557357983009
20
18.322210430164088
30
0
11
-53.04741928295509
21
18.484563945789088
31
0
11
-52.86950180248634
21
18.362798809070338
31
0
11
-52.65557357983009
21
18.322210430164088
31
0
0
SPLINE
5
358
100
AcDbEntity
8
0
100
AcDbSpline
70
0
71
3
72
9
73
5
74
3
42
0.000000001
43
0.0000000001
44
0.0000000001
40
0
40
0
40
0
40
0
40
0.019128704251482255
40
0.038434202324442453
40
0.038434202324442453
40
0.038434202324442453
40
0.038434202324442453
10
-54.64776107983009
20
19.541692852039088
30
0
10
-54.703121875000882
20
19.508244148298118
30
0
10
-54.814355128150858
20
19.441037596815626
30
0
10
-54.884662491369873
20
19.331713674900946
30
0
10
-54.91997787670509
20
19.276800273914088
30
0
11
-54.64776107983009
21
19.541692852039088
31
0
11
-54.80370590404884
21
19.430914043445338
31
0
11
-54.91997787670509
21
19.276800273914088
31
0
0
SPLINE
5
359
100
AcDbEntity
8
0
100
AcDbSpline
70
0
71
3
72
9
73
5
74
3
42
0.000000001
43
0.0000000001
44
0.0000000001
40
0
40
0
40
0
40
0
40
0.047125820812999805
40
0.091917517235773821
40
0.091917517235773821
40
0.091917517235773821
40
0.091917517235773821
10
-55.37774154858009
20
16.129827617664088
30
0
10
-55.363911264583336
20
16.291769000531488
30
0
10
-55.336935705416074
20
16.607630869759518
30
0
10
-55.114864028190347
20
16.832995165771337
30
0
10
-55.00664779858009
20
16.942815898914088
30
0
11
-55.37774154858009
21
16.129827617664088
31
0
11
-55.28496811108009
21
16.591863750476588
31
0
11
-55.00664779858009
21
16.942815898914088
31
0
0
SPLINE
5
360
100
AcDbEntity
8
0
100
AcDbSpline
70
0
71
3
72
9
73
5
74
3
42
0.000000001
43
0.0000000001
44
0.0000000001
40
0
40
0
40
0
40
0
40
0.039997695860213602
40
0.082172469894449832
40
0.082172469894449832
40
0.082172469894449832
40
0.082172469894449832
10
-64.92461386436473
20
16.770987288663221
30
0
10
-64.824140500419801
20
16.863064997735492
30
0
10
-64.617724998316575
20
17.052232213845489
30
0
10
-64.341359812111378
20
17.099506900479646
30
0
10
-64.19951620811473
20
17.123770491788221
30
0
11
-64.92461386436473
21
16.770987288663221
31
0
11
-64.60662070030223
21
17.013602034756971
31
0
11
-64.19951620811473
21
17.123770491788221
31
0
0
SPLINE
5
361
100
AcDbEntity
8
0
100
AcDbSpline
70
0
71
3
72
9
73
5
74
3
42
0.000000001
43
0.0000000001
44
0.0000000001
40
0
40
0
40
0
40
0
40
0.042841343126226665
40
0.081767192918218046
40
0.081767192918218046
40
0.081767192918218046
40
0.081767192918218046
10
-41.829135642497306
20
19.335306933129083
30
0
10
-41.838141551918625
20
19.189232113535837
30
0
10
-41.855330273824187
20
18.910433012420292
30
0
10
-42.02200551392756
20
18.687189197138029
30
0
10
-42.101352439372306
20
18.580912401879083
30
0
11
-41.829135642497306
21
19.335306933129083
31
0
11
-41.897189841716056
21
18.912333300316583
31
0
11
-42.101352439372306
21
18.580912401879083
31
0
0
SPLINE
5
362
100
AcDbEntity
8
0
100
AcDbSpline
70
0
71
3
72
9
73
5
74
3
42
0.000000001
43
0.0000000001
44
0.0000000001
40
0
40
0
40
0
40
0
40
0.022472420120789021
40
0.045698402330465862
40
0.045698402330465862
40
0.045698402330465862
40
0.045698402330465862
10
-42.355258689372306
20
18.914164355004083
30
0
10
-42.307197177456679
20
18.973981607353572
30
0
10
-42.209462518869579
20
19.09562194913596
30
0
10
-42.196865923487856
20
19.251301019359801
30
0
10
-42.190463767497306
20
19.330424120629083
30
0
11
-42.355258689372306
21
18.914164355004083
31
0
11
-42.231662497966056
21
19.101847460472833
31
0
11
-42.190463767497306
21
19.330424120629083
31
0
0
SPLINE
5
363
100
AcDbEntity
8
0
100
AcDbSpline
70
0
71
3
72
9
73
5
74
3
42
0.000000001
43
0.0000000001
44
0.0000000001
40
0
40
0
40
0
40
0
40
0.048490050097130068
40
0.092843179390001432
40
0.092843179390001432
40
0.092843179390001432
40
0.092843179390001432
10
-55.37774154858009
20
18.903265117664088
30
0
10
-55.367162634883925
20
19.068643427625798
30
0
10
-55.346907345807566
20
19.385290823704668
30
0
10
-55.155473025515882
20
19.637345508607549
30
0
10
-55.06402084545509
20
19.757757305164088
30
0
11
-55.37774154858009
21
18.903265117664088
31
0
11
-55.29931137279884
21
19.381780742664088
31
0
11
-55.06402084545509
21
19.757757305164088
31
0
0
SPLINE
5
364
100
AcDbEntity
8
0
100
AcDbSpline
70
0
71
3
72
9
73
5
74
3
42
0.000000001
43
0.0000000001
44
0.0000000001
40
0
40
0
40
0
40
0
40
0.042842473532778765
40
0.086601286043456932
40
0.086601286043456932
40
0.086601286043456932
40
0.086601286043456932
10
-55.06402084545509
20
19.757757305164088
30
0
10
-54.952176952702288
20
19.852460524810297
30
0
10
-54.726096986962496
20
20.043892529956846
30
0
10
-54.430774040150361
20
20.069516690119855
30
0
10
-54.28155014233009
20
20.082464336414088
30
0
11
-55.06402084545509
21
19.757757305164088
31
0
11
-54.71154281811134
21
20.001287578601588
31
0
11
-54.28155014233009
21
20.082464336414088
31
0
0
SPLINE
5
365
100
AcDbEntity
8
0
100
AcDbSpline
70
0
71
3
72
9
73
5
74
3
42
0.000000001
43
0.0000000001
44
0.0000000001
40
0
40
0
40
0
40
0
40
0.044286463353198892
40
0.091367639363914704
40
0.091367639363914704
40
0.091367639363914704
40
0.091367639363914704
10
-63.088676364364737
20
15.072989241788219
30
0
10
-63.207104026896666
20
14.979019481368539
30
0
10
-63.45143277075303
20
14.785149966147504
30
0
10
-63.763058501806604
20
14.762430708750003
30
0
10
-63.923637301864737
20
14.750723616788219
30
0
11
-63.088676364364737
21
15.072989241788219
31
0
11
-63.459770114364737
21
14.831290023038219
31
0
11
-63.923637301864737
21
14.750723616788219
31
0
0
SPLINE
5
366
100
AcDbEntity
8
0
100
AcDbSpline
70
0
71
3
72
9
73
5
74
3
42
0.000000001
43
0.0000000001
44
0.0000000001
40
0
40
0
40
0
40
0
40
0.022198176703025662
40
0.046029259473233955
40
0.046029259473233955
40
0.046029259473233955
40
0.046029259473233955
10
-12.386012099626067
20
23.533654973008474
30
0
10
-12.339743178761385
20
23.593581905635137
30
0
10
-12.243801778144604
20
23.717844018159525
30
0
10
-12.232942797171283
20
23.874771158239017
30
0
10
-12.227320693376067
20
23.956018254258474
30
0
11
-12.386012099626067
21
23.533654973008474
31
0
11
-12.266993544938567
21
23.721032902695974
31
0
11
-12.227320693376067
21
23.956018254258474
31
0
0
SPLINE
5
367
100
AcDbEntity
8
0
100
AcDbSpline
70
0
71
3
72
9
73
5
74
3
42
0.000000001
43
0.0000000001
44
0.0000000001
40
0
40
0
40
0
40
0
40
0.022373360440584855
40
0.044519115514470034
40
0.044519115514470034
40
0.044519115514470034
40
0.044519115514470034
10
-12.796168349626067
20
22.918420598008474
30
0
10
-12.871586196621031
20
22.92350167347999
30
0
10
-13.021654660906393
20
22.933612134376325
30
0
10
-13.153130031530599
20
23.006616668617241
30
0
10
-13.218531630876067
20
23.042932316758474
30
0
11
-12.796168349626067
21
22.918420598008474
31
0
11
-13.017725966813567
21
22.949548527695974
31
0
11
-13.218531630876067
21
23.042932316758474
31
0
0
LINE
5
368
100
AcDbEntity
8
0
100
AcDbLine
10
-61.604301364364737
20
17.558340804288221
30
0
11
-61.946098239364737
21
17.558340804288221
31
0
0
LINE
5
369
100
AcDbEntity
8
0
100
AcDbLine
10
-61.604301364364737
20
19.875235335538221
30
0
11
-61.604301364364737
21
17.558340804288221
31
0
0
SPLINE
5
370
100
AcDbEntity
8
0
100
AcDbSpline
70
0
71
3
72
9
73
5
74
3
42
0.000000001
43
0.0000000001
44
0.0000000001
40
0
40
0
40
0
40
0
40
0.018627350724448599
40
0.037718699781908886
40
0.037718699781908886
40
0.037718699781908886
40
0.037718699781908886
10
-44.390170798747306
20
20.055521776879083
30
0
10
-44.452676418532292
20
20.051629433978199
30
0
10
-44.579244642979667
20
20.043747791789862
30
0
10
-44.695232823001199
20
19.992400115040894
30
0
10
-44.753940329997306
20
19.966410448754083
30
0
11
-44.390170798747306
21
20.055521776879083
31
0
11
-44.575107322184806
21
20.033243944847833
31
0
11
-44.753940329997306
21
19.966410448754083
31
0
0
SPLINE
5
371
100
AcDbEntity
8
0
100
AcDbSpline
70
0
71
3
72
9
73
5
74
3
42
0.000000001
43
0.0000000001
44
0.0000000001
40
0
40
0
40
0
40
0
40
0.023445167876639347
40
0.04551294328834056
40
0.04551294328834056
40
0.04551294328834056
40
0.04551294328834056
10
-53.20733139233009
20
18.900823711414088
30
0
10
-53.201512736238968
20
18.820880215371737
30
0
10
-53.190217267335392
20
18.66568986566763
30
0
10
-53.094048468160047
20
18.54370871663502
30
0
10
-53.04741928295509
20
18.484563945789088
30
0
11
-53.20733139233009
21
18.900823711414088
31
0
11
-53.16735336498634
21
18.669805645007838
31
0
11
-53.04741928295509
21
18.484563945789088
31
0
0
SPLINE
5
372
100
AcDbEntity
8
0
100
AcDbSpline
70
0
71
3
72
9
73
5
74
3
42
0.000000001
43
0.0000000001
44
0.0000000001
40
0
40
0
40
0
40
0
40
0.026723433078581941
40
0.050159423045603377
40
0.050159423045603377
40
0.050159423045603377
40
0.050159423045603377
10
-43.481967673747306
20
19.826029589379083
30
0
10
-43.447319762883467
20
19.909579024384222
30
0
10
-43.382286231691737
20
20.066399873087327
30
0
10
-43.2555419023927
20
20.178790669116641
30
0
10
-43.196323142497306
20
20.231303026879083
30
0
11
-43.481967673747306
21
19.826029589379083
31
0
11
-43.360507712809806
21
20.064066698754083
31
0
11
-43.196323142497306
21
20.231303026879083
31
0
0
SPLINE
5
373
100
AcDbEntity
8
0
100
AcDbSpline
70
0
71
3
72
9
73
5
74
3
42
0.000000001
43
0.0000000001
44
0.0000000001
40
0
40
0
40
0
40
0
40
0.048490050097130068
40
0.092843179390001432
40
0.092843179390001432
40
0.092843179390001432
40
0.092843179390001432
10
-45.483920798747306
20
19.327982714379083
30
0
10
-45.473341885051141
20
19.493361024340793
30
0
10
-45.453086595974781
20
19.810008420419663
30
0
10
-45.26165227568309
20
20.062063105322544
30
0
10
-45.170200095622306
20
20.182474901879083
30
0
11
-45.483920798747306
21
19.327982714379083
31
0
11
-45.405490622966056
21
19.806498339379083
31
0
11
-45.170200095622306
21
20.182474901879083
31
0
0
SPLINE
5
374
100
AcDbEntity
8
0
100
AcDbSpline
70
0
71
3
72
9
73
5
74
3
42
0.000000001
43
0.0000000001
44
0.0000000001
40
0
40
0
40
0
40
0
40
0.028810678826863216
40
0.056513530407679105
40
0.056513530407679105
40
0.056513530407679105
40
0.056513530407679105
10
-43.672397361247306
20
19.337748339379083
30
0
10
-43.680252167844756
20
19.435980020245246
30
0
10
-43.695659748282523
20
19.628666180713338
30
0
10
-43.817667474017775
20
19.7783094425832
30
0
10
-43.877475486247306
20
19.851664355004083
30
0
11
-43.672397361247306
21
19.337748339379083
31
0
11
-43.723666892497306
21
19.621256640160333
31
0
11
-43.877475486247306
21
19.851664355004083
31
0
0
SPLINE
5
375
100
AcDbEntity
8
0
100
AcDbSpline
70
0
71
3
72
9
73
5
74
3
42
0.000000001
43
0.0000000001
44
0.0000000001
40
0
40
0
40
0
40
0
40
0.023360204394871922
40
0.045657091312122006
40
0.045657091312122006
40
0.045657091312122006
40
0.045657091312122006
10
-42.190463767497306
20
19.330424120629083
30
0
10
-42.196529822023436
20
19.410006270791712
30
0
10
-42.208385814407833
20
19.565548124594496
30
0
10
-42.304606626960222
20
19.68807024884633
30
0
10
-42.351596579997306
20
19.747904589379083
30
0
11
-42.190463767497306
21
19.330424120629083
31
0
11
-42.230746970622306
21
19.560526659691583
31
0
11
-42.351596579997306
21
19.747904589379083
31
0
0
SPLINE
5
376
100
AcDbEntity
8
0
100
AcDbSpline
70
0
71
3
72
9
73
5
74
3
42
0.000000001
43
0.0000000001
44
0.0000000001
40
0
40
0
40
0
40
0
40
0.021640900978504522
40
0.042923537018464117
40
0.042923537018464117
40
0.042923537018464117
40
0.042923537018464117
10
-42.351596579997306
20
19.747904589379083
30
0
10
-42.407635032609804
20
19.796324841428827
30
0
10
-42.518784221710533
20
19.892363748652009
30
0
10
-42.664893757441561
20
19.906774820213325
30
0
10
-42.737338767497306
20
19.913920214379083
30
0
11
-42.351596579997306
21
19.747904589379083
31
0
11
-42.528598533122306
21
19.872416308129083
31
0
11
-42.737338767497306
21
19.913920214379083
31
0
0
SPLINE
5
377
100
AcDbEntity
8
0
100
AcDbSpline
70
0
71
3
72
9
73
5
74
3
42
0.000000001
43
0.0000000001
44
0.0000000001
40
0
40
0
40
0
40
0
40
0.057374491571945359
40
0.10332227041477393
40
0.10332227041477393
40
0.10332227041477393
40
0.10332227041477393
10
-13.694605849626068
20
20.918908879258474
30
0
10
-13.502532746308351
20
20.916323141169045
30
0
10
-13.156639849017706
20
20.911666640993136
30
0
10
-12.821787401110882
20
20.826269884381063
30
0
10
-12.672877334001068
20
20.788293644883474
30
0
11
-13.694605849626068
21
20.918908879258474
31
0
11
-13.121790908219818
21
20.886255070664724
31
0
11
-12.672877334001068
21
20.788293644883474
31
0
0
SPLINE
5
378
100
AcDbEntity
8
0
100
AcDbSpline
70
0
71
3
72
9
73
5
74
3
42
0.000000001
43
0.0000000001
44
0.0000000001
40
0
40
0
40
0
40
0
40
0.028958464194534982
40
0.05536997795212923
40
0.05536997795212923
40
0.05536997795212923
40
0.05536997795212923
10
-21.991395689717216
20
23.671656649685641
30
0
10
-21.997764749546441
20
23.770537036028347
30
0
10
-22.009942698623814
20
23.959601096018339
30
0
10
-22.126315485731315
20
24.108462275111858
30
0
10
-22.181825377217216
20
24.179469149685641
30
0
11
-21.991395689717216
21
23.671656649685641
31
0
11
-22.039003111592216
21
23.957301180935641
31
0
11
-22.181825377217216
21
24.179469149685641
31
0
0
LINE
5
379
100
AcDbEntity
8
0
100
AcDbLine
10
-24.799012877217216
20
22.541285555935641
30
0
11
-25.221376158467216
21
22.541285555935641
31
0
0
SPLINE
5
380
100
AcDbEntity
8
0
100
AcDbSpline
70
0
71
3
72
9
73
5
74
3
42
0.000000001
43
0.0000000001
44
0.0000000001
40
0
40
0
40
0
40
0
40
0.027746588073004799
40
0.054602837090655873
40
0.054602837090655873
40
0.054602837090655873
40
0.054602837090655873
10
-32.202714195128181
20
18.838480761254054
30
0
10
-32.137920208279482
20
18.908233917516387
30
0
10
-32.010411359297947
20
19.045501974328634
30
0
10
-31.990392463120539
20
19.231578631198879
30
0
10
-31.980546226378181
20
19.323099901879054
30
0
11
-32.202714195128181
21
18.838480761254054
31
0
11
-32.036088218565681
21
19.060343554222804
31
0
11
-31.980546226378181
21
19.323099901879054
31
0
0
SPLINE
5
381
100
AcDbEntity
8
0
100
AcDbSpline
70
0
71
3
72
9
73
5
74
3
42
0.000000001
43
0.0000000001
44
0.0000000001
40
0
40
0
40
0
40
0
40
0.043908008000620849
40
0.088960315924614647
40
0.088960315924614647
40
0.088960315924614647
40
0.088960315924614647
10
-21.959657408467216
20
20.359889071560641
30
0
10
-21.862819480505394
20
20.245097151005254
30
0
10
-21.666619901949087
20
20.012521682811482
30
0
10
-21.640735058867815
20
19.709105321123349
30
0
10
-21.627626158467216
20
19.555445712185641
30
0
11
-21.959657408467216
21
20.359889071560641
31
0
11
-21.710633970967216
21
19.998255770779391
31
0
11
-21.627626158467216
21
19.555445712185641
31
0
0
SPLINE
5
382
100
AcDbEntity
8
0
100
AcDbSpline
70
0
71
3
72
9
73
5
74
3
42
0.000000001
43
0.0000000001
44
0.0000000001
40
0
40
0
40
0
40
0
40
0.03507255818006582
40
0.0790885235365483
40
0.0790885235365483
40
0.0790885235365483
40
0.0790885235365483
10
-64.35576620811473
20
23.790030257413221
30
0
10
-64.26989971351388
20
23.71051465311643
30
0
10
-64.076271001163491
20
23.531207181170352
30
0
10
-63.907629720808217
20
23.328110571478962
30
0
10
-63.813774020614737
20
23.215079085538221
30
0
11
-64.35576620811473
21
23.790030257413221
31
0
11
-64.10308066123973
21
23.546805159756971
31
0
11
-63.813774020614737
21
23.215079085538221
31
0
0
SPLINE
5
383
100
AcDbEntity
8
0
100
AcDbSpline
70
0
71
3
72
9
73
5
74
3
42
0.000000001
43
0.0000000001
44
0.0000000001
40
0
40
0
40
0
40
0
40
0.045875188336648408
40
0.086197086274523271
40
0.086197086274523271
40
0.086197086274523271
40
0.086197086274523271
10
-52.75811264233009
20
24.220647930164088
30
0
10
-52.603000490645286
20
24.198108090994303
30
0
10
-52.311552847468619
20
24.155756908754476
30
0
10
-52.091014157658307
20
23.962111629195416
30
0
10
-51.98784897045509
20
23.871526836414088
30
0
11
-52.75811264233009
21
24.220647930164088
31
0
11
-52.31286117748634
21
24.110174297351588
31
0
11
-51.98784897045509
21
23.871526836414088
31
0
0
SPLINE
5
384
100
AcDbEntity
8
0
100
AcDbSpline
70
0
71
3
72
9
73
5
74
3
42
0.000000001
43
0.0000000001
44
0.0000000001
40
0
40
0
40
0
40
0
40
0.042786308424910116
40
0.067895599773231077
40
0.067895599773231077
40
0.067895599773231077
40
0.067895599773231077
10
-64.02617636436473
20
22.826895491788221
30
0
10
-64.11756577472687
20
22.936464494976235
30
0
10
-64.262587372940899
20
23.110334442206227
30
0
10
-64.418832807303957
20
23.274132028961191
30
0
10
-64.47661581748973
20
23.334707991788221
30
0
11
-64.02617636436473
21
22.826895491788221
31
0
11
-64.30480185264598
21
23.151602523038221
31
0
11
-64.47661581748973
21
23.334707991788221
31
0
0
SPLINE
5
385
100
AcDbEntity
8
0
100
AcDbSpline
70
0
71
3
72
9
73
5
74
3
42
0.000000001
43
0.0000000001
44
0.0000000001
40
0
40
0
40
0
40
0
40
0.03507255818006582
40
0.0790885235365483
40
0.0790885235365483
40
0.0790885235365483
40
0.0790885235365483
10
-24.440126158467216
20
24.566432040310641
30
0
10
-24.354259663866365
20
24.486916436013853
30
0
10
-24.160630951515977
20
24.307608964067775
30
0
10
-23.991989671160692
20
24.104512354376382
30
0
10
-23.898133970967216
20
23.991480868435641
30
0
11
-24.440126158467216
21
24.566432040310641
31
0
11
-24.187440611592216
21
24.323206942654391
31
0
11
-23.898133970967216
21
23.991480868435641
31
0
0
SPLINE
5
386
100
AcDbEntity
8
0
100
AcDbSpline
70
0
71
3
72
9
73
5
74
3
42
0.000000001
43
0.0000000001
44
0.0000000001
40
0
40
0
40
0
40
0
40
0.037910853718036673
40
0.071962468039240876
40
0.071962468039240876
40
0.071962468039240876
40
0.071962468039240876
10
-34.462235679503181
20
15.516947558129051
30
0
10
-34.581753088769943
20
15.562889020956554
30
0
10
-34.808621304623401
20
15.650095209321218
30
0
10
-34.979515508794883
20
15.822385254651767
30
0
10
-35.060380210753181
20
15.903910448754051
30
0
11
-34.462235679503181
21
15.516947558129051
31
0
11
-34.805253257628181
21
15.678385546410301
31
0
11
-35.060380210753181
21
15.903910448754051
31
0
0
SPLINE
5
387
100
AcDbEntity
8
0
100
AcDbSpline
70
0
71
3
72
9
73
5
74
3
42
0.000000001
43
0.0000000001
44
0.0000000001
40
0
40
0
40
0
40
0
40
0.027965892986804349
40
0.056524933293431424
40
0.056524933293431424
40
0.056524933293431424
40
0.056524933293431424
10
-31.980546226378181
20
16.559428026879054
30
0
10
-31.991668728002928
20
16.655561519242418
30
0
10
-32.014149635824893
20
16.849867463474833
30
0
10
-32.162128193470004
20
16.978058404647221
30
0
10
-32.236893882628181
20
17.042826464379054
30
0
11
-31.980546226378181
21
16.559428026879054
31
0
11
-32.044633140440681
21
16.831644823754054
31
0
11
-32.236893882628181
21
17.042826464379054
31
0
0
SPLINE
5
388
100
AcDbEntity
8
0
100
AcDbSpline
70
0
71
3
72
9
73
5
74
3
42
0.000000001
43
0.0000000001
44
0.0000000001
40
0
40
0
40
0
40
0
40
0.041799413300918777
40
0.083661522194777183
40
0.083661522194777183
40
0.083661522194777183
40
0.083661522194777183
10
-24.007997252217216
20
19.621363680935641
30
0
10
-23.994529312303243
20
19.763817402754324
30
0
10
-23.967573231701831
20
20.048938514954244
30
0
10
-23.779725752749034
20
20.265136702937522
30
0
10
-23.685731627217216
20
20.373316805935641
30
0
11
-24.007997252217216
21
19.621363680935641
31
0
11
-23.927430845967216
21
20.031519930935641
31
0
11
-23.685731627217216
21
20.373316805935641
31
0
0
SPLINE
5
389
100
AcDbEntity
8
0
100
AcDbSpline
70
0
71
3
72
9
73
5
74
3
42
0.000000001
43
0.0000000001
44
0.0000000001
40
0
40
0
40
0
40
0
40
0.019630489949727957
40
0.039370551292894782
40
0.039370551292894782
40
0.039370551292894782
40
0.039370551292894782
10
-45.026157126872306
20
19.701517870629083
30
0
10
-45.054284099304866
20
19.641711654836843
30
0
10
-45.110695040331088
20
19.521765403239854
30
0
10
-45.118619444524988
20
19.389444488895595
30
0
10
-45.122592673747306
20
19.323099901879083
30
0
11
-45.026157126872306
21
19.701517870629083
31
0
11
-45.098483787028556
21
19.519022753441583
31
0
11
-45.122592673747306
21
19.323099901879083
31
0
0
SPLINE
5
390
100
AcDbEntity
8
0
100
AcDbSpline
70
0
71
3
72
9
73
5
74
3
42
0.000000001
43
0.0000000001
44
0.0000000001
40
0
40
0
40
0
40
0
40
0.037327040221817889
40
0.085129502228995096
40
0.085129502228995096
40
0.085129502228995096
40
0.085129502228995096
10
-32.599442710753181
20
15.468119433129054
30
0
10
-32.72188954049038
20
15.444711420241184
30
0
10
-33.001146551040968
20
15.391326194049322
30
0
10
-33.285639613975562
20
15.388909861417233
30
0
10
-33.445389976378181
20
15.387553026879052
30
0
11
-32.599442710753181
21
15.468119433129054
31
0
11
-32.967789878721931
21
15.407694628441552
31
0
11
-33.445389976378181
21
15.387553026879052
31
0
0
SPLINE
5
391
100
AcDbEntity
8
0
100
AcDbSpline
70
0
71
3
72
9
73
5
74
3
42
0.000000001
43
0.0000000001
44
0.0000000001
40
0
40
0
40
0
40
0
40
0.025377453542111964
40
0.052936195283584425
40
0.052936195283584425
40
0.052936195283584425
40
0.052936195283584425
10
-32.159989585753188
20
23.005961230004054
30
0
10
-32.107676324683212
20
23.074861819901852
30
0
10
-31.998553279720269
20
23.218585266225233
30
0
10
-31.986711231916665
20
23.399064005110311
30
0
10
-31.980546226378188
20
23.493021776879054
30
0
11
-32.159989585753188
21
23.005961230004054
31
0
11
-32.025407066221938
21
23.221110155785304
31
0
11
-31.980546226378188
21
23.493021776879054
31
0
0
SPLINE
5
392
100
AcDbEntity
8
0
100
AcDbSpline
70
0
71
3
72
9
73
5
74
3
42
0.000000001
43
0.0000000001
44
0.0000000001
40
0
40
0
40
0
40
0
40
0.073575760673566165
40
0.12013652472993311
40
0.12013652472993311
40
0.12013652472993311
40
0.12013652472993311
10
-33.445389976378181
20
17.269877245629054
30
0
10
-33.694122329174853
20
17.272377674766965
30
0
10
-34.100259352826832
20
17.276460444203693
30
0
10
-34.473738192007403
20
17.123039191516458
30
0
10
-34.618485679503181
20
17.063578417504051
30
0
11
-33.445389976378181
21
17.269877245629054
31
0
11
-34.179337730284431
21
17.218302538597804
31
0
11
-34.618485679503181
21
17.063578417504051
31
0
0
SPLINE
5
393
100
AcDbEntity
8
0
100
AcDbSpline
70
0
71
3
72
9
73
5
74
3
42
0.000000001
43
0.0000000001
44
0.0000000001
40
0
40
0
40
0
40
0
40
0.038432585568779126
40
0.092554157413460431
40
0.092554157413460431
40
0.092554157413460431
40
0.092554157413460431
10
-23.480653502217216
20
22.925807040310641
30
0
10
-23.572654257615582
20
23.015054585801682
30
0
10
-23.794212403425448
20
23.229982393855607
30
0
10
-23.993816613524949
20
23.465548594343492
30
0
10
-24.110536314717216
20
23.603297274685641
30
0
11
-23.480653502217216
21
22.925807040310641
31
0
11
-23.752870299092216
21
23.197108309841891
31
0
11
-24.110536314717216
21
23.603297274685641
31
0
0
SPLINE
5
394
100
AcDbEntity
8
0
100
AcDbSpline
70
0
71
3
72
9
73
5
74
3
42
0.000000001
43
0.0000000001
44
0.0000000001
40
0
40
0
40
0
40
0
40
0.02830982013886792
40
0.055825000665641993
40
0.055825000665641993
40
0.055825000665641993
40
0.055825000665641993
10
-33.608964195128181
20
19.335306933129054
30
0
10
-33.6005810141993
20
19.238590031118505
30
0
10
-33.584049963184498
20
19.04787101232457
30
0
10
-33.457644313851546
20
18.904341279783722
30
0
10
-33.395341148253181
20
18.833597948754054
30
0
11
-33.608964195128181
21
19.335306933129054
31
0
11
-33.555558433409431
21
19.057291796410304
31
0
11
-33.395341148253181
21
18.833597948754054
31
0
0
SPLINE
5
395
100
AcDbEntity
8
0
100
AcDbSpline
70
0
71
3
72
9
73
5
74
3
42
0.000000001
43
0.0000000001
44
0.0000000001
40
0
40
0
40
0
40
0
40
0.046589548476079809
40
0.12001309738131014
40
0.12001309738131014
40
0.12001309738131014
40
0.12001309738131014
10
-34.617264976378181
20
16.045512011254051
30
0
10
-34.472416981911955
20
15.986043932404911
30
0
10
-34.099293458847811
20
15.832856177394463
30
0
10
-33.693594829212984
20
15.836800228136267
30
0
10
-33.445389976378181
20
15.839213183129052
30
0
11
-34.617264976378181
21
16.045512011254051
31
0
11
-34.177811851378181
21
15.890787890160302
31
0
11
-33.445389976378181
21
15.839213183129052
31
0
0
SPLINE
5
396
100
AcDbEntity
8
0
100
AcDbSpline
70
0
71
3
72
9
73
5
74
3
42
0.000000001
43
0.0000000001
44
0.0000000001
40
0
40
0
40
0
40
0
40
0.039116678812488044
40
0.078654318366362275
40
0.078654318366362275
40
0.078654318366362275
40
0.078654318366362275
10
-52.00860092358009
20
22.243108867664088
30
0
10
-52.109885445809532
20
22.155524131435939
30
0
10
-52.313544480749798
20
21.97941210105764
30
0
10
-52.581775457025223
20
21.95505808082607
30
0
10
-52.71660873608009
20
21.942815898914088
30
0
11
-52.00860092358009
21
22.243108867664088
31
0
11
-52.32842514233009
21
22.017889141101588
31
0
11
-52.71660873608009
21
21.942815898914088
31
0
0
LINE
5
397
100
AcDbEntity
8
0
100
AcDbLine
10
-22.709169127217219
20
24.372340243435641
30
0
11
-22.662782408467216
21
24.824000399685641
31
0
0
SPLINE
5
398
100
AcDbEntity
8
0
100
AcDbSpline
70
0
71
3
72
9
73
5
74
3
42
0.000000001
43
0.0000000001
44
0.0000000001
40
0
40
0
40
0
40
0
40
0.031936554377790805
40
0.066906929315846325
40
0.066906929315846325
40
0.066906929315846325
40
0.066906929315846325
10
-22.230653502217216
20
20.011988680935641
30
0
10
-22.318957953466175
20
20.075327903645807
30
0
10
-22.503955358261265
20
20.20802327355511
30
0
10
-22.731722956131193
20
20.221979374662837
30
0
10
-22.850770689717216
20
20.229273837185641
30
0
11
-22.230653502217216
21
20.011988680935641
31
0
11
-22.505311705342216
21
20.174952548123141
31
0
11
-22.850770689717216
21
20.229273837185641
31
0
0
LINE
5
399
100
AcDbEntity
8
0
100
AcDbLine
10
-55.31670639233009
20
21.937933086414088
30
0
11
-55.31670639233009
21
24.303655742664088
31
0
0
LINE
5
400
100
AcDbEntity
8
0
100
AcDbLine
10
-24.393739439717216
20
20.615016024685641
30
0
11
-24.354676939717216
21
20.192652743435641
31
0
0
SPLINE
5
401
100
AcDbEntity
8
0
100
AcDbSpline
70
0
71
3
72
9
73
5
74
3
42
0.000000001
43
0.0000000001
44
0.0000000001
40
0
40
0
40
0
40
0
40
0.028049954322362961
40
0.057713605394815196
40
0.057713605394815196
40
0.057713605394815196
40
0.057713605394815196
10
-31.980546226378181
20
19.323099901879054
30
0
10
-31.99158476999466
20
19.418555353043942
30
0
10
-32.014296897903797
20
19.614957749211925
30
0
10
-32.150036545948886
20
19.759210664372379
30
0
10
-32.219804038878181
20
19.833353808129054
30
0
11
-31.980546226378181
21
19.323099901879054
31
0
11
-32.040360679503181
21
19.597147753441554
31
0
11
-32.219804038878181
21
19.833353808129054
31
0
0
SPLINE
5
402
100
AcDbEntity
8
0
100
AcDbSpline
70
0
71
3
72
9
73
5
74
3
42
0.000000001
43
0.0000000001
44
0.0000000001
40
0
40
0
40
0
40
0
40
0.023430902824159969
40
0.045572872694274964
40
0.045572872694274964
40
0.045572872694274964
40
0.045572872694274964
10
-42.737338767497306
20
19.913920214379083
30
0
10
-42.81729849435014
20
19.907909344560178
30
0
10
-42.9728193669294
20
19.896218262611924
30
0
10
-43.093664290563268
20
19.79804453878597
30
0
10
-43.152377829997306
20
19.750345995629083
30
0
11
-42.737338767497306
21
19.913920214379083
31
0
11
-42.968051658122306
21
19.873026659691583
31
0
11
-43.152377829997306
21
19.750345995629083
31
0
0
SPLINE
5
403
100
AcDbEntity
8
0
100
AcDbSpline
70
0
71
3
72
9
73
5
74
3
42
0.000000001
43
0.0000000001
44
0.0000000001
40
0
40
0
40
0
40
0
40
0.026857202647328857
40
0.04849095858721747
40
0.04849095858721747
40
0.04849095858721747
40
0.04849095858721747
10
-24.354676939717216
20
20.192652743435641
30
0
10
-24.443975142096654
20
20.173947951182136
30
0
10
-24.60520397483679
20
20.140176254313424
30
0
10
-24.730780939701908
20
20.034652835707121
30
0
10
-24.786805845967216
20
19.987574618435641
30
0
11
-24.354676939717216
21
20.192652743435641
31
0
11
-24.611634947529716
21
20.114527743435641
31
0
11
-24.786805845967216
21
19.987574618435641
31
0
0
SPLINE
5
404
100
AcDbEntity
8
0
100
AcDbSpline
70
0
71
3
72
9
73
5
74
3
42
0.000000001
43
0.0000000001
44
0.0000000001
40
0
40
0
40
0
40
0
40
0.057007138171814083
40
0.10281617802550526
40
0.10281617802550526
40
0.10281617802550526
40
0.10281617802550526
10
-33.445389976378181
20
15.387553026879052
30
0
10
-33.636218411044048
20
15.390165030239828
30
0
10
-33.980390227769902
20
15.394875952611255
30
0
10
-34.313722003178675
20
15.479322832514089
30
0
10
-34.462235679503181
20
15.516947558129051
30
0
11
-33.445389976378181
21
15.387553026879052
31
0
11
-34.014542808409431
21
15.419901659691552
31
0
11
-34.462235679503181
21
15.516947558129051
31
0
0
LINE
5
405
100
AcDbEntity
8
0
100
AcDbLine
10
-34.788163413878188
20
22.362650683129051
30
0
11
-35.210526695128188
21
22.362650683129051
31
0
0
SPLINE
5
406
100
AcDbEntity
8
0
100
AcDbSpline
70
0
71
3
72
9
73
5
74
3
42
0.000000001
43
0.0000000001
44
0.0000000001
40
0
40
0
40
0
40
0
40
0.040647363467803378
40
0.086960671515694823
40
0.086960671515694823
40
0.086960671515694823
40
0.086960671515694823
10
-51.98784897045509
20
23.871526836414088
30
0
10
-51.910676613253841
20
23.757036731497593
30
0
10
-51.745574637821043
20
23.512097440088763
30
0
10
-51.73081633449101
20
23.216152310108296
30
0
10
-51.72295639233009
20
23.058538555164088
30
0
11
-51.98784897045509
21
23.871526836414088
31
0
11
-51.78917953686134
21
23.516912578601588
31
0
11
-51.72295639233009
21
23.058538555164088
31
0
0
SPLINE
5
407
100
AcDbEntity
8
0
100
AcDbSpline
70
0
71
3
72
9
73
5
74
3
42
0.000000001
43
0.0000000001
44
0.0000000001
40
0
40
0
40
0
40
0
40
0.033745611510356495
40
0.067279597803178631
40
0.067279597803178631
40
0.067279597803178631
40
0.067279597803178631
10
-21.627626158467216
20
19.555445712185641
30
0
10
-21.635359985494823
20
19.441716956787076
30
0
10
-21.650779139233876
20
19.214972660879937
30
0
10
-21.760784678861597
20
19.016127719295611
30
0
10
-21.815614439717216
20
18.917017977810641
30
0
11
-21.627626158467216
21
19.555445712185641
31
0
11
-21.674623228779716
21
19.221278231716891
31
0
11
-21.815614439717216
21
18.917017977810641
31
0
0
SPLINE
5
408
100
AcDbEntity
8
0
100
AcDbSpline
70
0
71
3
72
9
73
5
74
3
42
0.000000001
43
0.0000000001
44
0.0000000001
40
0
40
0
40
0
40
0
40
0.038432585568779126
40
0.092554157413460431
40
0.092554157413460431
40
0.092554157413460431
40
0.092554157413460431
10
-53.57598373608009
20
22.322454570789088
30
0
10
-53.66798449147845
20
22.411702116280129
30
0
10
-53.889542637288329
20
22.626629924334054
30
0
10
-54.089146847387823
20
22.862196124821939
30
0
10
-54.20586654858009
20
22.999944805164088
30
0
11
-53.57598373608009
21
22.322454570789088
31
0
11
-53.84820053295509
21
22.593755840320338
31
0
11
-54.20586654858009
21
22.999944805164088
31
0
0
SPLINE
5
409
100
AcDbEntity
8
0
100
AcDbSpline
70
0
71
3
72
9
73
5
74
3
42
0.000000001
43
0.0000000001
44
0.0000000001
40
0
40
0
40
0
40
0
40
0.015598513087911343
40
0.031101202477658269
40
0.031101202477658269
40
0.031101202477658269
40
0.031101202477658269
10
-35.210526695128188
20
24.728373339379051
30
0
10
-35.158213881072882
20
24.727486776329805
30
0
10
-35.053909617394638
20
24.725719096503632
30
0
10
-34.954768663007627
20
24.693275584456412
30
0
10
-34.905350913878188
20
24.677103808129051
30
0
11
-35.210526695128188
21
24.728373339379051
31
0
11
-35.054887046690688
21
24.717997362816551
31
0
11
-34.905350913878188
21
24.677103808129051
31
0
0
SPLINE
5
410
100
AcDbEntity
8
0
100
AcDbSpline
70
0
71
3
72
9
73
5
74
3
42
0.000000001
43
0.0000000001
44
0.0000000001
40
0
40
0
40
0
40
0
40
0.04030606170370158
40
0.076991313324047558
40
0.076991313324047558
40
0.076991313324047558
40
0.076991313324047558
10
-34.440263023253181
20
18.297709276879051
30
0
10
-34.565807216860897
20
18.350898464343643
30
0
10
-34.805617606105123
20
18.452498700745853
30
0
10
-34.977337467542576
20
18.647777145578395
30
0
10
-35.059159507628181
20
18.740824511254051
30
0
11
-34.440263023253181
21
18.297709276879051
31
0
11
-34.798234214659431
21
18.482950976097801
31
0
11
-35.059159507628181
21
18.740824511254051
31
0
0
SPLINE
5
411
100
AcDbEntity
8
0
100
AcDbSpline
70
0
71
3
72
9
73
5
74
3
42
0.000000001
43
0.0000000001
44
0.0000000001
40
0
40
0
40
0
40
0
40
0.03507255818006582
40
0.0790885235365483
40
0.0790885235365483
40
0.0790885235365483
40
0.0790885235365483
10
-54.53545639233009
20
23.963079570789088
30
0
10
-54.44958989772924
20
23.883563966492297
30
0
10
-54.255961185378851
20
23.704256494546222
30
0
10
-54.08731990502357
20
23.501159884854829
30
0
10
-53.99346420483009
20
23.388128398914088
30
0
11
-54.53545639233009
21
23.963079570789088
31
0
11
-54.28277084545509
21
23.719854473132838
31
0
11
-53.99346420483009
21
23.388128398914088
31
0
0
SPLINE
5
412
100
AcDbEntity
8
0
100
AcDbSpline
70
0
71
3
72
9
73
5
74
3
42
0.000000001
43
0.0000000001
44
0.0000000001
40
0
40
0
40
0
40
0
40
0.034307092543659663
40
0.064483422537192747
40
0.064483422537192747
40
0.064483422537192747
40
0.064483422537192747
10
-22.814149595967216
20
18.815699618435641
30
0
10
-22.697274461656029
20
18.821720749403845
30
0
10
-22.477596601741539
20
18.833038034069695
30
0
10
-22.297734016115506
20
18.95843402700762
30
0
10
-22.213563658467216
20
19.017115634060641
30
0
11
-22.814149595967216
21
18.815699618435641
31
0
11
-22.474794127217216
21
18.866053622341891
31
0
11
-22.213563658467216
21
19.017115634060641
31
0
0
SPLINE
5
413
100
AcDbEntity
8
0
100
AcDbSpline
70
0
71
3
72
9
73
5
74
3
42
0.000000001
43
0.0000000001
44
0.0000000001
40
0
40
0
40
0
40
0
40
0.041799413300918777
40
0.083661522194777183
40
0.083661522194777183
40
0.083661522194777183
40
0.083661522194777183
10
-33.997147788878181
20
19.442728808129054
30
0
10
-33.983679848964201
20
19.585182529947733
30
0
10
-33.956723768362799
20
19.870303642147658
30
0
10
-33.768876289409995
20
20.086501830130928
30
0
10
-33.674882163878181
20
20.194681933129051
30
0
11
-33.997147788878181
21
19.442728808129054
31
0
11
-33.916581382628181
21
19.852885058129054
31
0
11
-33.674882163878181
21
20.194681933129051
31
0
0
SPLINE
5
414
100
AcDbEntity
8
0
100
AcDbSpline
70
0
71
3
72
9
73
5
74
3
42
0.000000001
43
0.0000000001
44
0.0000000001
40
0
40
0
40
0
40
0
40
0.022348203948733596
40
0.046370016270699449
40
0.046370016270699449
40
0.046370016270699449
40
0.046370016270699449
10
-43.152377829997306
20
19.750345995629083
30
0
10
-43.199358017784554
20
19.690280085649491
30
0
10
-43.296836637412895
20
19.565650060370611
30
0
10
-43.307820495944767
20
19.407480469229498
30
0
10
-43.313510642497306
20
19.325541308129083
30
0
11
-43.152377829997306
21
19.750345995629083
31
0
11
-43.273227439372306
21
19.562357714379083
31
0
11
-43.313510642497306
21
19.325541308129083
31
0
0
SPLINE
5
415
100
AcDbEntity
8
0
100
AcDbSpline
70
0
71
3
72
9
73
5
74
3
42
0.000000001
43
0.0000000001
44
0.0000000001
40
0
40
0
40
0
40
0
40
0.017611842137484797
40
0.035460686312641217
40
0.035460686312641217
40
0.035460686312641217
40
0.035460686312641217
10
-34.817460288878181
20
19.065531542504051
30
0
10
-34.783771188282181
20
19.016850597032441
30
0
10
-34.715939633861922
20
18.918833608048793
30
0
10
-34.618635026564945
20
18.849956251556414
30
0
10
-34.569657554503181
20
18.815287401879051
30
0
11
-34.817460288878181
21
19.065531542504051
31
0
11
-34.709122886534431
21
18.926676562035301
31
0
11
-34.569657554503181
21
18.815287401879051
31
0
0
SPLINE
5
416
100
AcDbEntity
8
0
100
AcDbSpline
70
0
71
3
72
9
73
5
74
3
42
0.000000001
43
0.0000000001
44
0.0000000001
40
0
40
0
40
0
40
0
40
0.031239880473072173
40
0.057412240134412561
40
0.057412240134412561
40
0.057412240134412561
40
0.057412240134412561
10
-33.129227867003188
20
23.024271776879054
30
0
10
-33.04171349337021
20
22.964603357022632
30
0
10
-32.880880732228242
20
22.854945522313862
30
0
10
-32.688406233214707
20
22.830388427159093
30
0
10
-32.600663413878188
20
22.819193651879054
30
0
11
-33.129227867003188
21
23.024271776879054
31
0
11
-32.857316245909438
21
22.870463183129054
31
0
11
-32.600663413878188
21
22.819193651879054
31
0
0
SPLINE
5
417
100
AcDbEntity
8
0
100
AcDbSpline
70
0
71
3
72
9
73
5
74
3
42
0.000000001
43
0.0000000001
44
0.0000000001
40
0
40
0
40
0
40
0
40
0.04669189453125
40
0.088069994372390534
40
0.088069994372390534
40
0.088069994372390534
40
0.088069994372390534
10
-51.72295639233009
20
23.058538555164088
30
0
10
-51.731709144123748
20
22.899255046174133
30
0
10
-51.748218536363012
20
22.598815368555755
30
0
10
-51.925369660264842
20
22.356810496084812
30
0
10
-52.00860092358009
20
22.243108867664088
30
0
11
-51.72295639233009
21
23.058538555164088
31
0
11
-51.79436752514259
21
22.597112773914088
31
0
11
-52.00860092358009
21
22.243108867664088
31
0
0
SPLINE
5
418
100
AcDbEntity
8
0
100
AcDbSpline
70
0
71
3
72
9
73
5
74
3
42
0.000000001
43
0.0000000001
44
0.0000000001
40
0
40
0
40
0
40
0
40
0.01568665855742318
40
0.030222287057427591
40
0.030222287057427591
40
0.030222287057427591
40
0.030222287057427591
10
-34.550126304503188
20
23.932474901879051
30
0
10
-34.588827236871204
20
23.967775559582201
30
0
10
-34.663389367686683
20
24.035786640878776
30
0
10
-34.747641661260936
20
24.09131500620709
30
0
10
-34.788163413878188
20
24.118021776879051
30
0
11
-34.550126304503188
21
23.932474901879051
31
0
11
-34.668839683409438
21
24.035013964379051
31
0
11
-34.788163413878188
21
24.118021776879051
31
0
0
SPLINE
5
419
100
AcDbEntity
8
0
100
AcDbSpline
70
0
71
3
72
9
73
5
74
3
42
0.000000001
43
0.0000000001
44
0.0000000001
40
0
40
0
40
0
40
0
40
0.024526907481812216
40
0.048935361732685402
40
0.048935361732685402
40
0.048935361732685402
40
0.048935361732685402
10
-22.611512877217216
20
22.997828524685641
30
0
10
-22.52791663549198
20
23.005534884406465
30
0
10
-22.36112788190162
20
23.020910385816926
30
0
10
-22.234166218640112
20
23.130122316831763
30
0
10
-22.170839049092216
20
23.184596102810641
30
0
11
-22.611512877217216
21
22.997828524685641
31
0
11
-22.370729185810966
21
23.044520419216891
31
0
11
-22.170839049092216
21
23.184596102810641
31
0
0
SPLINE
5
420
100
AcDbEntity
8
0
100
AcDbSpline
70
0
71
3
72
9
73
5
74
3
42
0.000000001
43
0.0000000001
44
0.0000000001
40
0
40
0
40
0
40
0
40
0.033170038455429651
40
0.069475158263869241
40
0.069475158263869241
40
0.069475158263869241
40
0.069475158263869241
10
-35.060380210753181
20
15.903910448754051
30
0
10
-35.121940567700598
20
15.99813524250315
30
0
10
-35.250879686883387
20
16.195490529470788
30
0
10
-35.264463472799818
20
16.43131313755973
30
0
10
-35.271561851378181
20
16.554545214379051
30
0
11
-35.060380210753181
21
15.903910448754051
31
0
11
-35.218766441221931
21
16.195353319847801
31
0
11
-35.271561851378181
21
16.554545214379051
31
0
0
SPLINE
5
421
100
AcDbEntity
8
0
100
AcDbSpline
70
0
71
3
72
9
73
5
74
3
42
0.000000001
43
0.0000000001
44
0.0000000001
40
0
40
0
40
0
40
0
40
0.06443962765019863
40
0.15168167104901079
40
0.15168167104901079
40
0.15168167104901079
40
0.15168167104901079
10
-34.900468101378181
20
17.367533495629051
30
0
10
-34.708566112732179
20
17.470205073357796
30
0
10
-34.256856266215635
20
17.711879289162894
30
0
10
-33.741693662424098
20
17.718010780460659
30
0
10
-33.445389976378181
20
17.721537401879054
30
0
11
-34.900468101378181
21
17.367533495629051
31
0
11
-34.313309898253181
21
17.633036425316551
31
0
11
-33.445389976378181
21
17.721537401879054
31
0
0
SPLINE
5
422
100
AcDbEntity
8
0
100
AcDbSpline
70
0
71
3
72
9
73
5
74
3
42
0.000000001
43
0.0000000001
44
0.0000000001
40
0
40
0
40
0
40
0
40
0.026856092965934428
40
0.057289632038068208
40
0.057289632038068208
40
0.057289632038068208
40
0.057289632038068208
10
-62.097465426864737
20
23.403067366788221
30
0
10
-62.170184556516816
20
23.458676010385279
30
0
10
-62.325309584761996
20
23.577300813101466
30
0
10
-62.520904673379604
20
23.589472556897245
30
0
10
-62.624809176864737
20
23.595938460538221
30
0
11
-62.097465426864737
21
23.403067366788221
31
0
11
-62.324516208114737
21
23.546499983975721
31
0
11
-62.624809176864737
21
23.595938460538221
31
0
0
SPLINE
5
423
100
AcDbEntity
8
0
100
AcDbSpline
70
0
71
3
72
9
73
5
74
3
42
0.000000001
43
0.0000000001
44
0.0000000001
40
0
40
0
40
0
40
0
40
0.028063729887945747
40
0.056433491625529103
40
0.056433491625529103
40
0.056433491625529103
40
0.056433491625529103
10
-33.395341148253181
20
19.844340136254054
30
0
10
-33.457647349570465
20
19.771284813746522
30
0
10
-33.582939194392829
20
19.62437750857395
30
0
10
-33.600257889169363
20
19.432011517275171
30
0
10
-33.608964195128181
20
19.335306933129054
30
0
11
-33.395341148253181
21
19.844340136254054
31
0
11
-33.555558433409431
21
19.613932421410304
31
0
11
-33.608964195128181
21
19.335306933129054
31
0
0
SPLINE
5
424
100
AcDbEntity
8
0
100
AcDbSpline
70
0
71
3
72
9
73
5
74
3
42
0.000000001
43
0.0000000001
44
0.0000000001
40
0
40
0
40
0
40
0
40
0.028809127156120183
40
0.060647386739141558
40
0.060647386739141558
40
0.060647386739141558
40
0.060647386739141558
10
-34.910233726378181
20
16.554545214379051
30
0
10
-34.895761917870573
20
16.456117064403575
30
0
10
-34.865296664181358
20
16.248911547720198
30
0
10
-34.702650088286077
20
16.115532468466597
30
0
10
-34.617264976378181
20
16.045512011254051
30
0
11
-34.910233726378181
21
16.554545214379051
31
0
11
-34.836991538878181
21
16.275919726097801
31
0
11
-34.617264976378181
21
16.045512011254051
31
0
0
SPLINE
5
425
100
AcDbEntity
8
0
100
AcDbSpline
70
0
71
3
72
9
73
5
74
3
42
0.000000001
43
0.0000000001
44
0.0000000001
40
0
40
0
40
0
40
0
40
0.04030606170370158
40
0.076991313324047558
40
0.076991313324047558
40
0.076991313324047558
40
0.076991313324047558
10
-24.451112486592216
20
18.476344149685641
30
0
10
-24.576656680199932
20
18.529533337150234
30
0
10
-24.816467069444158
20
18.631133573552443
30
0
10
-24.988186930881607
20
18.826412018384985
30
0
10
-25.070008970967216
20
18.919459384060641
30
0
11
-24.451112486592216
21
18.476344149685641
31
0
11
-24.809083677998466
21
18.661585848904391
31
0
11
-25.070008970967216
21
18.919459384060641
31
0
0
SPLINE
5
426
100
AcDbEntity
8
0
100
AcDbSpline
70
0
71
3
72
9
73
5
74
3
42
0.000000001
43
0.0000000001
44
0.0000000001
40
0
40
0
40
0
40
0
40
0.026709785658621889
40
0.05591823285910888
40
0.05591823285910888
40
0.05591823285910888
40
0.05591823285910888
10
-64.83184042686473
20
24.079336898038221
30
0
10
-64.749984204638409
20
24.043327071158949
30
0
10
-64.578614229831402
20
23.967938750549148
30
0
10
-64.43222924733449
20
23.851073761337503
30
0
10
-64.35576620811473
20
23.790030257413221
30
0
11
-64.83184042686473
21
24.079336898038221
31
0
11
-64.59197226280223
21
23.961844222256971
31
0
11
-64.35576620811473
21
23.790030257413221
31
0
0
SPLINE
5
427
100
AcDbEntity
8
0
100
AcDbSpline
70
0
71
3
72
9
73
5
74
3
42
0.000000001
43
0.0000000001
44
0.0000000001
40
0
40
0
40
0
40
0
40
0.027677559078728237
40
0.056332654921324124
40
0.056332654921324124
40
0.056332654921324124
40
0.056332654921324124
10
-43.877475486247306
20
19.851664355004083
30
0
10
-43.950969177766268
20
19.911117741438243
30
0
10
-44.100552266052887
20
20.03212433354317
30
0
10
-44.292520881699808
20
20.047632922600247
30
0
10
-44.390170798747306
20
20.055521776879083
30
0
11
-43.877475486247306
21
19.851664355004083
31
0
11
-44.108188376872306
21
20.004557421410333
31
0
11
-44.390170798747306
21
20.055521776879083
31
0
0
LINE
5
428
100
AcDbEntity
8
0
100
AcDbLine
10
-32.698319663878188
20
24.193705370629054
30
0
11
-32.651932945128188
21
24.645365526879054
31
0
0
SPLINE
5
429
100
AcDbEntity
8
0
100
AcDbSpline
70
0
71
3
72
9
73
5
74
3
42
0.000000001
43
0.0000000001
44
0.0000000001
40
0
40
0
40
0
40
0
40
0.06443962765019863
40
0.15168167104901079
40
0.15168167104901079
40
0.15168167104901079
40
0.15168167104901079
10
-15.149683974626068
20
17.784143254258474
30
0
10
-14.957781985980066
20
17.88681483198722
30
0
10
-14.506072139463527
20
18.128489047792318
30
0
10
-13.990909535671987
20
18.134620539090083
30
0
10
-13.694605849626068
20
18.138147160508474
30
0
11
-15.149683974626068
21
17.784143254258474
31
0
11
-14.562525771501068
21
18.049646183945974
31
0
11
-13.694605849626068
21
18.138147160508474
31
0
0
SPLINE
5
430
100
AcDbEntity
8
0
100
AcDbSpline
70
0
71
3
72
9
73
5
74
3
42
0.000000001
43
0.0000000001
44
0.0000000001
40
0
40
0
40
0
40
0
40
0.028958464194534982
40
0.05536997795212923
40
0.05536997795212923
40
0.05536997795212923
40
0.05536997795212923
10
-31.980546226378188
20
23.493021776879054
30
0
10
-31.986915286207413
20
23.591902163221761
30
0
10
-31.999093235284786
20
23.780966223211749
30
0
10
-32.115466022392283
20
23.929827402305264
30
0
10
-32.170975913878188
20
24.000834276879054
30
0
11
-31.980546226378188
21
23.493021776879054
31
0
11
-32.028153648253188
21
23.778666308129054
31
0
11
-32.170975913878188
21
24.000834276879054
31
0
0
SPLINE
5
431
100
AcDbEntity
8
0
100
AcDbSpline
70
0
71
3
72
9
73
5
74
3
42
0.000000001
43
0.0000000001
44
0.0000000001
40
0
40
0
40
0
40
0
40
0.0294382182578319
40
0.063516201753433171
40
0.063516201753433171
40
0.063516201753433171
40
0.063516201753433171
10
-33.395341148253181
20
18.833597948754054
30
0
10
-33.313218842736241
20
18.77635720835945
30
0
10
-33.136030913766277
20
18.652853999585858
30
0
10
-32.919483223241308
20
18.642578044750053
30
0
10
-32.803300132628181
20
18.637064745629054
30
0
11
-33.395341148253181
21
18.833597948754054
31
0
11
-33.140519370909431
21
18.686198046410304
31
0
11
-32.803300132628181
21
18.637064745629054
31
0
0
SPLINE
5
432
100
AcDbEntity
8
0
100
AcDbSpline
70
0
71
3
72
9
73
5
74
3
42
0.000000001
43
0.0000000001
44
0.0000000001
40
0
40
0
40
0
40
0
40
0.073727973996833479
40
0.1202599558422858
40
0.1202599558422858
40
0.1202599558422858
40
0.1202599558422858
10
-33.445389976378181
20
15.839213183129052
30
0
10
-33.196130070816189
20
15.83662510026948
30
0
10
-32.789554606835253
20
15.832403599073452
30
0
10
-32.415720550801986
20
15.98605855742305
30
0
10
-32.271073570128181
20
16.045512011254054
30
0
11
-33.445389976378181
21
15.839213183129052
31
0
11
-32.709916343565681
21
15.890787890160304
31
0
11
-32.271073570128181
21
16.045512011254054
31
0
0
SPLINE
5
433
100
AcDbEntity
8
0
100
AcDbSpline
70
0
71
3
72
9
73
5
74
3
42
0.000000001
43
0.0000000001
44
0.0000000001
40
0
40
0
40
0
40
0
40
0.047125820812999805
40
0.091917517235773821
40
0.091917517235773821
40
0.091917517235773821
40
0.091917517235773821
10
-35.271561851378181
20
16.554545214379051
30
0
10
-35.257731567381427
20
16.716486597246455
30
0
10
-35.230756008214158
20
17.032348466474481
30
0
10
-35.008684330988437
20
17.257712762486307
30
0
10
-34.900468101378181
20
17.367533495629051
30
0
11
-35.271561851378181
21
16.554545214379051
31
0
11
-35.178788413878181
21
17.016581347191551
31
0
11
-34.900468101378181
21
17.367533495629051
31
0
0
SPLINE
5
434
100
AcDbEntity
8
0
100
AcDbSpline
70
0
71
3
72
9
73
5
74
3
42
0.000000001
43
0.0000000001
44
0.0000000001
40
0
40
0
40
0
40
0
40
0.029190506161544949
40
0.056970689544848366
40
0.056970689544848366
40
0.056970689544848366
40
0.056970689544848366
10
-55.01641342358009
20
18.898382305164088
30
0
10
-55.008838113289926
20
18.798874307753842
30
0
10
-54.994053489537308
20
18.60466598548922
30
0
10
-54.872868982772346
20
18.45254188854241
30
0
10
-54.81377670483009
20
18.378362773914088
30
0
11
-55.01641342358009
21
18.898382305164088
31
0
11
-54.96575424389259
21
18.610906719226588
31
0
11
-54.81377670483009
21
18.378362773914088
31
0
0
SPLINE
5
435
100
AcDbEntity
8
0
100
AcDbSpline
70
0
71
3
72
9
73
5
74
3
42
0.000000001
43
0.0000000001
44
0.0000000001
40
0
40
0
40
0
40
0
40
0.028049954322362961
40
0.057713605394815196
40
0.057713605394815196
40
0.057713605394815196
40
0.057713605394815196
10
-21.991395689717216
20
19.501734774685641
30
0
10
-22.002434233333695
20
19.597190225850532
30
0
10
-22.025146361242829
20
19.793592622018508
30
0
10
-22.160886009287921
20
19.937845537178966
30
0
10
-22.230653502217216
20
20.011988680935641
30
0
11
-21.991395689717216
21
19.501734774685641
31
0
11
-22.051210142842216
21
19.775782626248141
31
0
11
-22.230653502217216
21
20.011988680935641
31
0
0
SPLINE
5
436
100
AcDbEntity
8
0
100
AcDbSpline
70
0
71
3
72
9
73
5
74
3
42
0.000000001
43
0.0000000001
44
0.0000000001
40
0
40
0
40
0
40
0
40
0.015598513087911343
40
0.031101202477658269
40
0.031101202477658269
40
0.031101202477658269
40
0.031101202477658269
10
-65.13701620811473
20
24.130606429288221
30
0
10
-65.084703394059432
20
24.129719866238975
30
0
10
-64.980399130381187
20
24.127952186412802
30
0
10
-64.881258175994176
20
24.095508674365579
30
0
10
-64.83184042686473
20
24.079336898038221
30
0
11
-65.13701620811473
21
24.130606429288221
31
0
11
-64.98137655967723
21
24.120230452725721
31
0
11
-64.83184042686473
21
24.079336898038221
31
0
0
SPLINE
5
437
100
AcDbEntity
8
0
100
AcDbSpline
70
0
71
3
72
9
73
5
74
3
42
0.000000001
43
0.0000000001
44
0.0000000001
40
0
40
0
40
0
40
0
40
0.04430462912318716
40
0.09278975251110283
40
0.09278975251110283
40
0.09278975251110283
40
0.09278975251110283
10
-55.06524154858009
20
18.048772930164088
30
0
10
-55.156336801133421
20
18.169221826012812
30
0
10
-55.347122868112031
20
18.421484929377542
30
0
10
-55.367233307174658
20
18.73791956895079
30
0
10
-55.37774154858009
20
18.903265117664088
30
0
11
-55.06524154858009
21
18.048772930164088
31
0
11
-55.29961654858009
21
18.424749492664088
31
0
11
-55.37774154858009
21
18.903265117664088
31
0
0
SPLINE
5
438
100
AcDbEntity
8
0
100
AcDbSpline
70
0
71
3
72
9
73
5
74
3
42
0.000000001
43
0.0000000001
44
0.0000000001
40
0
40
0
40
0
40
0
40
0.034168309634043242
40
0.070087343517189246
40
0.070087343517189246
40
0.070087343517189246
40
0.070087343517189246
10
-21.815614439717216
20
18.917017977810641
30
0
10
-21.886326099430903
20
18.825793208378819
30
0
10
-22.031372560262735
20
18.638669472351967
30
0
10
-22.243030580012267
20
18.532153288242053
30
0
10
-22.351503111592216
20
18.477564852810641
30
0
11
-21.815614439717216
21
18.917017977810641
31
0
11
-22.043580748310966
21
18.662501376248141
31
0
11
-22.351503111592216
21
18.477564852810641
31
0
0
SPLINE
5
439
100
AcDbEntity
8
0
100
AcDbSpline
70
0
71
3
72
9
73
5
74
3
42
0.000000001
43
0.0000000001
44
0.0000000001
40
0
40
0
40
0
40
0
40
0.025712431466377993
40
0.05158460713935499
40
0.05158460713935499
40
0.05158460713935499
40
0.05158460713935499
10
-33.866532554503181
20
18.948344042504054
30
0
10
-33.904628560470201
20
19.026147808299093
30
0
10
-33.981057252325222
20
19.182238713110937
30
0
10
-33.991773215170682
20
19.355719701183467
30
0
10
-33.997147788878181
20
19.442728808129054
30
0
11
-33.866532554503181
21
18.948344042504054
31
0
11
-33.964493980284431
21
19.186075976097804
31
0
11
-33.997147788878181
21
19.442728808129054
31
0
0
SPLINE
5
440
100
AcDbEntity
8
0
100
AcDbSpline
70
0
71
3
72
9
73
5
74
3
42
0.000000001
43
0.0000000001
44
0.0000000001
40
0
40
0
40
0
40
0
40
0.046849084683965841
40
0.10357133800214779
40
0.10357133800214779
40
0.10357133800214779
40
0.10357133800214779
10
-65.13701620811473
20
19.374747054288221
30
0
10
-64.980933606287309
20
19.363811619077826
30
0
10
-64.635874913696526
20
19.339636170101254
30
0
10
-64.300293904199066
20
19.255054004057349
30
0
10
-64.11650839561473
20
19.208731429288221
30
0
11
-65.13701620811473
21
19.374747054288221
31
0
11
-64.67070761436473
21
19.329581038663221
31
0
11
-64.11650839561473
21
19.208731429288221
31
0
0
SPLINE
5
441
100
AcDbEntity
8
0
100
AcDbSpline
70
0
71
3
72
9
73
5
74
3
42
0.000000001
43
0.0000000001
44
0.0000000001
40
0
40
0
40
0
40
0
40
0.04583817441978344
40
0.089980561572196138
40
0.089980561572196138
40
0.089980561572196138
40
0.089980561572196138
10
-44.209506736247306
20
15.348490526879083
30
0
10
-44.364801558092921
20
15.359375479072934
30
0
10
-44.669646056282431
20
15.380742693703251
30
0
10
-44.924382610798858
20
15.549100967648648
30
0
10
-45.049350486247306
20
15.631693651879083
30
0
11
-44.209506736247306
21
15.348490526879083
31
0
11
-44.662387595622306
21
15.419291308129083
31
0
11
-45.049350486247306
21
15.631693651879083
31
0
0
LINE
5
442
100
AcDbEntity
8
0
100
AcDbLine
10
-65.13701620811473
20
21.764883773038221
30
0
11
-65.13701620811473
21
24.130606429288221
31
0
0
SPLINE
5
443
100
AcDbEntity
8
0
100
AcDbSpline
70
0
71
3
72
9
73
5
74
3
42
0.000000001
43
0.0000000001
44
0.0000000001
40
0
40
0
40
0
40
0
40
0.043904094439500184
40
0.092128666250586383
40
0.092128666250586383
40
0.092128666250586383
40
0.092128666250586383
10
-23.685731627217216
20
20.373316805935641
30
0
10
-23.565976468532771
20
20.462984633892972
30
0
10
-23.314681385760288
20
20.651144246356434
30
0
10
-23.000552440078348
20
20.67069840630495
30
0
10
-22.836122252217216
20
20.680933993435641
30
0
11
-23.685731627217216
21
20.373316805935641
31
0
11
-23.312196470967216
21
20.604029696560641
31
0
11
-22.836122252217216
21
20.680933993435641
31
0
0
SPLINE
5
444
100
AcDbEntity
8
0
100
AcDbSpline
70
0
71
3
72
9
73
5
74
3
42
0.000000001
43
0.0000000001
44
0.0000000001
40
0
40
0
40
0
40
0
40
0.0242973015125287
40
0.052714476506015684
40
0.052714476506015684
40
0.052714476506015684
40
0.052714476506015684
10
-23.043641783467216
20
22.634058993435641
30
0
10
-23.116296784534512
20
22.670512988731648
30
0
10
-23.273926237534948
20
22.749602153328425
30
0
10
-23.408245203509814
20
22.864089510646991
30
0
10
-23.480653502217216
20
22.925807040310641
30
0
11
-23.043641783467216
21
22.634058993435641
31
0
11
-23.256654478779716
21
22.750941317654391
31
0
11
-23.480653502217216
21
22.925807040310641
31
0
0
SPLINE
5
445
100
AcDbEntity
8
0
100
AcDbSpline
70
0
71
3
72
9
73
5
74
3
42
0.000000001
43
0.0000000001
44
0.0000000001
40
0
40
0
40
0
40
0
40
0.021414295689323203
40
0.043362609163597382
40
0.043362609163597382
40
0.043362609163597382
40
0.043362609163597382
10
-52.71660873608009
20
21.942815898914088
30
0
10
-52.788333628405091
20
21.946655114340924
30
0
10
-52.933572048491968
20
21.954429285411688
30
0
10
-53.069945540263433
20
22.005072882955048
30
0
10
-53.13897201733009
20
22.030706523914088
30
0
11
-52.71660873608009
21
21.942815898914088
31
0
11
-52.92962143139259
21
21.964788555164088
31
0
11
-53.13897201733009
21
22.030706523914088
31
0
0
SPLINE
5
446
100
AcDbEntity
8
0
100
AcDbSpline
70
0
71
3
72
9
73
5
74
3
42
0.000000001
43
0.0000000001
44
0.0000000001
40
0
40
0
40
0
40
0
40
0.037327040221817889
40
0.085129502228995096
40
0.085129502228995096
40
0.085129502228995096
40
0.085129502228995096
10
-12.848658584001068
20
18.665490910508474
30
0
10
-12.971105413738268
20
18.642082897620604
30
0
10
-13.250362424288852
20
18.588697671428744
30
0
10
-13.534855487223449
20
18.586281338796656
30
0
10
-13.694605849626068
20
18.584924504258474
30
0
11
-12.848658584001068
21
18.665490910508474
31
0
11
-13.217005751969818
21
18.605066105820974
31
0
11
-13.694605849626068
21
18.584924504258474
31
0
0
SPLINE
5
447
100
AcDbEntity
8
0
100
AcDbSpline
70
0
71
3
72
9
73
5
74
3
42
0.000000001
43
0.0000000001
44
0.0000000001
40
0
40
0
40
0
40
0
40
0.042841343126226665
40
0.081767192918218046
40
0.081767192918218046
40
0.081767192918218046
40
0.081767192918218046
10
-51.72295639233009
20
18.910589336414088
30
0
10
-51.731962301751409
20
18.764514516820842
30
0
10
-51.749151023656964
20
18.485715415705293
30
0
10
-51.915826263760337
20
18.262471600423034
30
0
10
-51.99517318920509
20
18.156194805164088
30
0
11
-51.72295639233009
21
18.910589336414088
31
0
11
-51.79101059154884
21
18.487615703601588
31
0
11
-51.99517318920509
21
18.156194805164088
31
0
0
SPLINE
5
448
100
AcDbEntity
8
0
100
AcDbSpline
70
0
71
3
72
9
73
5
74
3
42
0.000000001
43
0.0000000001
44
0.0000000001
40
0
40
0
40
0
40
0
40
0.0242973015125287
40
0.052714476506015684
40
0.052714476506015684
40
0.052714476506015684
40
0.052714476506015684
10
-33.032792320128188
20
22.455424120629054
30
0
10
-33.105447321195484
20
22.491878115925061
30
0
10
-33.263076774195916
20
22.570967280521831
30
0
10
-33.397395740170779
20
22.685454637840405
30
0
10
-33.469804038878188
20
22.747172167504051
30
0
11
-33.032792320128188
21
22.455424120629054
31
0
11
-33.245805015440688
21
22.572306444847804
31
0
11
-33.469804038878188
21
22.747172167504051
31
0
0
SPLINE
5
449
100
AcDbEntity
8
0
100
AcDbSpline
70
0
71
3
72
9
73
5
74
3
42
0.000000001
43
0.0000000001
44
0.0000000001
40
0
40
0
40
0
40
0
40
0.029901247010652471
40
0.060200514988472661
40
0.060200514988472661
40
0.060200514988472661
40
0.060200514988472661
10
-24.921083189717216
20
16.750269930935641
30
0
10
-24.910853066040303
20
16.648306080971249
30
0
10
-24.890256643639361
20
16.443021121588888
30
0
10
-24.751608028504162
20
16.290117722549567
30
0
10
-24.681825377217219
20
16.213160555935641
30
0
11
-24.921083189717216
21
16.750269930935641
31
0
11
-24.861268736592216
21
16.457301180935641
31
0
11
-24.681825377217219
21
16.213160555935641
31
0
0
SPLINE
5
450
100
AcDbEntity
8
0
100
AcDbSpline
70
0
71
3
72
9
73
5
74
3
42
0.000000001
43
0.0000000001
44
0.0000000001
40
0
40
0
40
0
40
0
40
0.044286463353198892
40
0.091367639363914704
40
0.091367639363914704
40
0.091367639363914704
40
0.091367639363914704
10
-23.173036314717216
20
15.849391024685641
30
0
10
-23.291463977249141
20
15.75542126426596
30
0
10
-23.535792721105512
20
15.561551749044927
30
0
10
-23.84741845215909
20
15.538832491647426
30
0
10
-24.007997252217219
20
15.527125399685641
30
0
11
-23.173036314717216
21
15.849391024685641
31
0
11
-23.544130064717219
21
15.607691805935641
31
0
11
-24.007997252217219
21
15.527125399685641
31
0
0
SPLINE
5
451
100
AcDbEntity
8
0
100
AcDbSpline
70
0
71
3
72
9
73
5
74
3
42
0.000000001
43
0.0000000001
44
0.0000000001
40
0
40
0
40
0
40
0
40
0.0242973015125287
40
0.052714476506015684
40
0.052714476506015684
40
0.052714476506015684
40
0.052714476506015684
10
-53.13897201733009
20
22.030706523914088
30
0
10
-53.211627018397387
20
22.067160519210095
30
0
10
-53.369256471397826
20
22.146249683806865
30
0
10
-53.503575437372682
20
22.260737041125438
30
0
10
-53.57598373608009
20
22.322454570789088
30
0
11
-53.13897201733009
21
22.030706523914088
31
0
11
-53.35198471264259
21
22.147588848132838
31
0
11
-53.57598373608009
21
22.322454570789088
31
0
0
SPLINE
5
452
100
AcDbEntity
8
0
100
AcDbSpline
70
0
71
3
72
9
73
5
74
3
42
0.000000001
43
0.0000000001
44
0.0000000001
40
0
40
0
40
0
40
0
40
0.039116678812488044
40
0.078654318366362275
40
0.078654318366362275
40
0.078654318366362275
40
0.078654318366362275
10
-21.913270689717216
20
22.846461337185641
30
0
10
-22.014555211946657
20
22.758876600957493
30
0
10
-22.218214246886919
20
22.582764570579201
30
0
10
-22.486445223162352
20
22.558410550347624
30
0
10
-22.621278502217216
20
22.546168368435641
30
0
11
-21.913270689717216
21
22.846461337185641
31
0
11
-22.233094908467216
21
22.621241610623141
31
0
11
-22.621278502217216
21
22.546168368435641
31
0
0
SPLINE
5
453
100
AcDbEntity
8
0
100
AcDbSpline
70
0
71
3
72
9
73
5
74
3
42
0.000000001
43
0.0000000001
44
0.0000000001
40
0
40
0
40
0
40
0
40
0.033170038455429651
40
0.069475158263869241
40
0.069475158263869241
40
0.069475158263869241
40
0.069475158263869241
10
-15.309596084001068
20
16.320520207383474
30
0
10
-15.371156440948489
20
16.414745001132573
30
0
10
-15.500095560131275
20
16.612100288100212
30
0
10
-15.513679346047711
20
16.84792289618915
30
0
10
-15.520777724626068
20
16.971154973008474
30
0
11
-15.309596084001068
21
16.320520207383474
31
0
11
-15.467982314469818
21
16.611963078477224
31
0
11
-15.520777724626068
21
16.971154973008474
31
0
0
SPLINE
5
454
100
AcDbEntity
8
0
100
AcDbSpline
70
0
71
3
72
9
73
5
74
3
42
0.000000001
43
0.0000000001
44
0.0000000001
40
0
40
0
40
0
40
0
40
0.037922348919340626
40
0.071925683047581568
40
0.071925683047581568
40
0.071925683047581568
40
0.071925683047581568
10
-12.672877334001068
20
20.788293644883474
30
0
10
-12.553437543168343
20
20.742040903787252
30
0
10
-12.32690124508785
20
20.65431532530992
30
0
10
-12.156508013532658
20
20.481710231192125
30
0
10
-12.075953505876068
20
20.400110051133474
30
0
11
-12.672877334001068
21
20.788293644883474
31
0
11
-12.330164931657318
21
20.625940129258474
31
0
11
-12.075953505876068
21
20.400110051133474
31
0
0
SPLINE
5
455
100
AcDbEntity
8
0
100
AcDbSpline
70
0
71
3
72
9
73
5
74
3
42
0.000000001
43
0.0000000001
44
0.0000000001
40
0
40
0
40
0
40
0
40
0.043908008000620849
40
0.088960315924614647
40
0.088960315924614647
40
0.088960315924614647
40
0.088960315924614647
10
-31.948807945128181
20
20.181254198754054
30
0
10
-31.851970017166359
20
20.066462278198671
30
0
10
-31.655770438610055
20
19.833886810004891
30
0
10
-31.629885595528783
20
19.530470448316763
30
0
10
-31.616776695128181
20
19.376810839379054
30
0
11
-31.948807945128181
21
20.181254198754054
31
0
11
-31.699784507628181
21
19.819620897972804
31
0
11
-31.616776695128181
21
19.376810839379054
31
0
0
SPLINE
5
456
100
AcDbEntity
8
0
100
AcDbSpline
70
0
71
3
72
9
73
5
74
3
42
0.000000001
43
0.0000000001
44
0.0000000001
40
0
40
0
40
0
40
0
40
0.049784534715354725
40
0.095205159667000827
40
0.095205159667000827
40
0.095205159667000827
40
0.095205159667000827
10
-22.836122252217216
20
20.680933993435641
30
0
10
-22.666313713375249
20
20.670186470647817
30
0
10
-22.341581361336548
20
20.649633509193226
30
0
10
-22.083014761959472
20
20.453473427155345
30
0
10
-21.959657408467216
20
20.359889071560641
30
0
11
-22.836122252217216
21
20.680933993435641
31
0
11
-22.344789244404716
21
20.600672762966891
31
0
11
-21.959657408467216
21
20.359889071560641
31
0
0
SPLINE
5
457
100
AcDbEntity
8
0
100
AcDbSpline
70
0
71
3
72
9
73
5
74
3
42
0.000000001
43
0.0000000001
44
0.0000000001
40
0
40
0
40
0
40
0
40
0.01568665855742318
40
0.030222287057427591
40
0.030222287057427591
40
0.030222287057427591
40
0.030222287057427591
10
-54.65630600170509
20
23.507757305164088
30
0
10
-54.695006934073106
20
23.543057962867238
30
0
10
-54.769569064888586
20
23.611069044163813
30
0
10
-54.853821358462838
20
23.666597409492127
30
0
10
-54.89434311108009
20
23.693304180164088
30
0
11
-54.65630600170509
21
23.507757305164088
31
0
11
-54.77501938061134
21
23.610296367664088
31
0
11
-54.89434311108009
21
23.693304180164088
31
0
0
SPLINE
5
458
100
AcDbEntity
8
0
100
AcDbSpline
70
0
71
3
72
9
73
5
74
3
42
0.000000001
43
0.0000000001
44
0.0000000001
40
0
40
0
40
0
40
0
40
0.031239880473072173
40
0.057412240134412561
40
0.057412240134412561
40
0.057412240134412561
40
0.057412240134412561
10
-23.140077330342216
20
23.202906649685641
30
0
10
-23.052562956709238
20
23.143238229829223
30
0
10
-22.89173019556727
20
23.033580395120453
30
0
10
-22.699255696553735
20
23.00902329996568
30
0
10
-22.611512877217216
20
22.997828524685641
30
0
11
-23.140077330342216
21
23.202906649685641
31
0
11
-22.868165709248466
21
23.049098055935641
31
0
11
-22.611512877217216
21
22.997828524685641
31
0
0
LINE
5
459
100
AcDbEntity
8
0
100
AcDbLine
10
-22.111024595967216
20
15.695582430935641
30
0
11
-22.111024595967216
21
17.123805087185641
31
0
0
SPLINE
5
460
100
AcDbEntity
8
0
100
AcDbSpline
70
0
71
3
72
9
73
5
74
3
42
0.000000001
43
0.0000000001
44
0.0000000001
40
0
40
0
40
0
40
0
40
0.033745611510356495
40
0.067279597803178631
40
0.067279597803178631
40
0.067279597803178631
40
0.067279597803178631
10
-31.616776695128181
20
19.376810839379054
30
0
10
-31.624510522155784
20
19.263082083980485
30
0
10
-31.639929675894841
20
19.036337788073347
30
0
10
-31.749935215522562
20
18.837492846489027
30
0
10
-31.804764976378181
20
18.738383105004054
30
0
11
-31.616776695128181
21
19.376810839379054
31
0
11
-31.663773765440681
21
19.042643358910304
31
0
11
-31.804764976378181
21
18.738383105004054
31
0
0
LINE
5
461
100
AcDbEntity
8
0
100
AcDbLine
10
-22.111024595967216
20
17.123805087185641
30
0
11
-23.072938658467216
21
17.316676180935641
31
0
0
SPLINE
5
462
100
AcDbEntity
8
0
100
AcDbSpline
70
0
71
3
72
9
73
5
74
3
42
0.000000001
43
0.0000000001
44
0.0000000001
40
0
40
0
40
0
40
0
40
0.019994394291629389
40
0.041799753769379069
40
0.041799753769379069
40
0.041799753769379069
40
0.041799753769379069
10
-34.775956382628181
20
19.808939745629051
30
0
10
-34.815100476453807
20
19.753342836392473
30
0
10
-34.896934087393532
20
19.637113403155762
30
0
10
-34.905674290914902
20
19.494928610646266
30
0
10
-34.910233726378181
20
19.420756151879051
30
0
11
-34.775956382628181
21
19.808939745629051
31
0
11
-34.876664390440681
21
19.636210253441551
31
0
11
-34.910233726378181
21
19.420756151879051
31
0
0
SPLINE
5
463
100
AcDbEntity
8
0
100
AcDbSpline
70
0
71
3
72
9
73
5
74
3
42
0.000000001
43
0.0000000001
44
0.0000000001
40
0
40
0
40
0
40
0
40
0.031401772298499712
40
0.060434785368064667
40
0.060434785368064667
40
0.060434785368064667
40
0.060434785368064667
10
-22.850770689717216
20
20.229273837185641
30
0
10
-22.957835966653349
20
20.222108174884067
30
0
10
-23.163890165457826
20
20.208317384380297
30
0
10
-23.327562187262703
20
20.083120085825339
30
0
10
-23.406190611592216
20
20.022975009060641
30
0
11
-22.850770689717216
21
20.229273837185641
31
0
11
-23.160524107685966
21
20.177699130154391
31
0
11
-23.406190611592216
21
20.022975009060641
31
0
0
SPLINE
5
464
100
AcDbEntity
8
0
100
AcDbSpline
70
0
71
3
72
9
73
5
74
3
42
0.000000001
43
0.0000000001
44
0.0000000001
40
0
40
0
40
0
40
0
40
0.024551007520896933
40
0.053844321920413274
40
0.053844321920413274
40
0.053844321920413274
40
0.053844321920413274
10
-12.388453505876067
20
24.383264348008474
30
0
10
-12.452938766523109
20
24.435672425035847
30
0
10
-12.594365350765962
20
24.550611796395234
30
0
10
-12.774080316002657
20
24.584535275664795
30
0
10
-12.871851943376067
20
24.602990910508474
30
0
11
-12.388453505876067
21
24.383264348008474
31
0
11
-12.589869521501067
21
24.523645207383474
31
0
11
-12.871851943376067
21
24.602990910508474
31
0
0
SPLINE
5
465
100
AcDbEntity
8
0
100
AcDbSpline
70
0
71
3
72
9
73
5
74
3
42
0.000000001
43
0.0000000001
44
0.0000000001
40
0
40
0
40
0
40
0
40
0.042786308424910116
40
0.067895599773231077
40
0.067895599773231077
40
0.067895599773231077
40
0.067895599773231077
10
-34.099686851378188
20
23.424662401879051
30
0
10
-34.191076261740321
20
23.534231405067064
30
0
10
-34.336097859954357
20
23.708101352297057
30
0
10
-34.492343294317401
20
23.87189893905202
30
0
10
-34.550126304503188
20
23.932474901879051
30
0
11
-34.099686851378188
21
23.424662401879051
31
0
11
-34.378312339659438
21
23.749369433129051
31
0
11
-34.550126304503188
21
23.932474901879051
31
0
0
SPLINE
5
466
100
AcDbEntity
8
0
100
AcDbSpline
70
0
71
3
72
9
73
5
74
3
42
0.000000001
43
0.0000000001
44
0.0000000001
40
0
40
0
40
0
40
0
40
0.029468494649814332
40
0.057806510362113546
40
0.057806510362113546
40
0.057806510362113546
40
0.057806510362113546
10
-44.404819236247306
20
18.598002245629083
30
0
10
-44.304309540341734
20
18.606092566070043
30
0
10
-44.107145930632392
20
18.621962843733048
30
0
10
-43.954665925853185
20
18.747595842458345
30
0
10
-43.879916892497306
20
18.809183886254083
30
0
11
-44.404819236247306
21
18.598002245629083
31
0
11
-44.114902244059806
21
18.650797655785333
31
0
11
-43.879916892497306
21
18.809183886254083
31
0
0
SPLINE
5
467
100
AcDbEntity
8
0
100
AcDbSpline
70
0
71
3
72
9
73
5
74
3
42
0.000000001
43
0.0000000001
44
0.0000000001
40
0
40
0
40
0
40
0
40
0.029125107450860045
40
0.061196410572016552
40
0.061196410572016552
40
0.061196410572016552
40
0.061196410572016552
10
-13.825221084001067
20
22.918420598008474
30
0
10
-13.909504877302323
20
22.867183459068801
30
0
10
-14.086598322472717
20
22.759526208486012
30
0
10
-14.293947722460178
20
22.748446112211159
30
0
10
-14.402613662126067
20
22.742639348008474
30
0
11
-13.825221084001067
21
22.918420598008474
31
0
11
-14.084925673844817
21
22.786584660508474
31
0
11
-14.402613662126067
21
22.742639348008474
31
0
0
SPLINE
5
468
100
AcDbEntity
8
0
100
AcDbSpline
70
0
71
3
72
9
73
5
74
3
42
0.000000001
43
0.0000000001
44
0.0000000001
40
0
40
0
40
0
40
0
40
0.020345980305160057
40
0.039863039244216518
40
0.039863039244216518
40
0.039863039244216518
40
0.039863039244216518
10
-43.438022361247306
20
16.578959276879083
30
0
10
-43.441695645749057
20
16.647411762480019
30
0
10
-43.448892560424682
20
16.781527891511274
30
0
10
-43.506334277726793
20
16.902856984439708
30
0
10
-43.534457908122306
20
16.962260058129083
30
0
11
-43.438022361247306
21
16.578959276879083
31
0
11
-43.462131247966056
21
16.780985644066583
31
0
11
-43.534457908122306
21
16.962260058129083
31
0
0
SPLINE
5
469
100
AcDbEntity
8
0
100
AcDbSpline
70
0
71
3
72
9
73
5
74
3
42
0.000000001
43
0.0000000001
44
0.0000000001
40
0
40
0
40
0
40
0
40
0.061727375019376154
40
0.11065721787774629
40
0.11065721787774629
40
0.11065721787774629
40
0.11065721787774629
10
-33.347733726378181
20
18.148783495629054
30
0
10
-33.554527780028373
20
18.151555095226509
30
0
10
-33.925242631314511
20
18.156523676839281
30
0
10
-34.282356318723515
20
18.254421373762433
30
0
10
-34.440263023253181
20
18.297709276879051
30
0
11
-33.347733726378181
21
18.148783495629054
31
0
11
-33.963883628721931
21
18.186014940941554
31
0
11
-34.440263023253181
21
18.297709276879051
31
0
0
SPLINE
5
470
100
AcDbEntity
8
0
100
AcDbSpline
70
0
71
3
72
9
73
5
74
3
42
0.000000001
43
0.0000000001
44
0.0000000001
40
0
40
0
40
0
40
0
40
0.027965892986804349
40
0.056524933293431424
40
0.056524933293431424
40
0.056524933293431424
40
0.056524933293431424
10
-12.229762099626068
20
19.756799504258474
30
0
10
-12.240884601250819
20
19.852932996621835
30
0
10
-12.263365509072779
20
20.04723894085425
30
0
10
-12.411344066717891
20
20.175429882026641
30
0
10
-12.486109755876068
20
20.240197941758474
30
0
11
-12.229762099626068
21
19.756799504258474
31
0
11
-12.293849013688568
21
20.029016301133474
31
0
11
-12.486109755876068
21
20.240197941758474
31
0
0
SPLINE
5
471
100
AcDbEntity
8
0
100
AcDbSpline
70
0
71
3
72
9
73
5
74
3
42
0.000000001
43
0.0000000001
44
0.0000000001
40
0
40
0
40
0
40
0
40
0.023176206972219997
40
0.049370352890658747
40
0.049370352890658747
40
0.049370352890658747
40
0.049370352890658747
10
-43.197543845622306
20
18.425883105004083
30
0
10
-43.256353972671121
20
18.477505850642245
30
0
10
-43.381632312195123
20
18.587473507230563
30
0
10
-43.447186802535327
20
18.741101888540371
30
0
10
-43.481967673747306
20
18.822611620629083
30
0
11
-43.197543845622306
21
18.425883105004083
31
0
11
-43.360812888591056
21
18.590372851097833
31
0
11
-43.481967673747306
21
18.822611620629083
31
0
0
SPLINE
5
472
100
AcDbEntity
8
0
100
AcDbSpline
70
0
71
3
72
9
73
5
74
3
42
0.000000001
43
0.0000000001
44
0.0000000001
40
0
40
0
40
0
40
0
40
0.024526907481812216
40
0.048935361732685402
40
0.048935361732685402
40
0.048935361732685402
40
0.048935361732685402
10
-52.70684311108009
20
22.394476055164088
30
0
10
-52.623246869354851
20
22.402182414884912
30
0
10
-52.456458115764491
20
22.417557916295369
30
0
10
-52.32949645250298
20
22.526769847310209
30
0
10
-52.26616928295509
20
22.581243633289088
30
0
11
-52.70684311108009
21
22.394476055164088
31
0
11
-52.46605941967384
21
22.441167949695338
31
0
11
-52.26616928295509
21
22.581243633289088
31
0
0
SPLINE
5
473
100
AcDbEntity
8
0
100
AcDbSpline
70
0
71
3
72
9
73
5
74
3
42
0.000000001
43
0.0000000001
44
0.0000000001
40
0
40
0
40
0
40
0
40
0.037068846807255362
40
0.072128377748903794
40
0.072128377748903794
40
0.072128377748903794
40
0.072128377748903794
10
-23.072938658467216
20
17.316676180935641
30
0
10
-23.007442532485936
20
17.209667574358537
30
0
10
-22.880000496308455
20
17.001450759907581
30
0
10
-22.858688454386137
20
16.758498674320336
30
0
10
-22.848329283467216
20
16.640406649685641
30
0
11
-23.072938658467216
21
17.316676180935641
31
0
11
-22.904481627217216
21
16.986475985623141
31
0
11
-22.848329283467216
21
16.640406649685641
31
0
0
SPLINE
5
474
100
AcDbEntity
8
0
100
AcDbSpline
70
0
71
3
72
9
73
5
74
3
42
0.000000001
43
0.0000000001
44
0.0000000001
40
0
40
0
40
0
40
0
40
0.038589727929608839
40
0.073709255534749551
40
0.073709255534749551
40
0.073709255534749551
40
0.073709255534749551
10
-25.282411314717216
20
19.609156649685641
30
0
10
-25.274661598645704
20
19.740397694288237
30
0
10
-25.25985906354417
20
19.991077867802435
30
0
10
-25.117219225489261
20
20.197052898771272
30
0
10
-25.049257017842216
20
20.295191805935641
30
0
11
-25.282411314717216
21
19.609156649685641
31
0
11
-25.224122740498466
21
19.990626376248141
31
0
11
-25.049257017842216
21
20.295191805935641
31
0
0
SPLINE
5
475
100
AcDbEntity
8
0
100
AcDbSpline
70
0
71
3
72
9
73
5
74
3
42
0.000000001
43
0.0000000001
44
0.0000000001
40
0
40
0
40
0
40
0
40
0.026709785658621889
40
0.05591823285910888
40
0.05591823285910888
40
0.05591823285910888
40
0.05591823285910888
10
-24.916200377217216
20
24.855738680935641
30
0
10
-24.834344154990884
20
24.819728854056372
30
0
10
-24.66297418018387
20
24.744340533446572
30
0
10
-24.516589197686965
20
24.627475544234922
30
0
10
-24.440126158467216
20
24.566432040310641
30
0
11
-24.916200377217216
21
24.855738680935641
31
0
11
-24.676332213154716
21
24.738246005154391
31
0
11
-24.440126158467216
21
24.566432040310641
31
0
0
SPLINE
5
476
100
AcDbEntity
8
0
100
AcDbSpline
70
0
71
3
72
9
73
5
74
3
42
0.000000001
43
0.0000000001
44
0.0000000001
40
0
40
0
40
0
40
0
40
0.028063729887945747
40
0.056433491625529103
40
0.056433491625529103
40
0.056433491625529103
40
0.056433491625529103
10
-23.406190611592216
20
20.022975009060641
30
0
10
-23.468496812909496
20
19.949919686553113
30
0
10
-23.593788657731864
20
19.80301238138054
30
0
10
-23.611107352508398
20
19.610646390081762
30
0
10
-23.619813658467216
20
19.513941805935641
30
0
11
-23.406190611592216
21
20.022975009060641
31
0
11
-23.566407896748466
21
19.792567294216891
31
0
11
-23.619813658467216
21
19.513941805935641
31
0
0
SPLINE
5
477
100
AcDbEntity
8
0
100
AcDbSpline
70
0
71
3
72
9
73
5
74
3
42
0.000000001
43
0.0000000001
44
0.0000000001
40
0
40
0
40
0
40
0
40
0.038432585568779126
40
0.092554157413460431
40
0.092554157413460431
40
0.092554157413460431
40
0.092554157413460431
10
-33.469804038878188
20
22.747172167504051
30
0
10
-33.561804794276554
20
22.836419712995095
30
0
10
-33.78336294008642
20
23.051347521049021
30
0
10
-33.982967150185921
20
23.286913721536905
30
0
10
-34.099686851378188
20
23.424662401879051
30
0
11
-33.469804038878188
21
22.747172167504051
31
0
11
-33.742020835753188
21
23.018473437035301
31
0
11
-34.099686851378188
21
23.424662401879051
31
0
0
SPLINE
5
478
100
AcDbEntity
8
0
100
AcDbSpline
70
0
71
3
72
9
73
5
74
3
42
0.000000001
43
0.0000000001
44
0.0000000001
40
0
40
0
40
0
40
0
40
0.031239880473072173
40
0.057412240134412561
40
0.057412240134412561
40
0.057412240134412561
40
0.057412240134412561
10
-63.055717379989737
20
22.426504866788221
30
0
10
-62.968203006356759
20
22.366836446931799
30
0
10
-62.807370245214791
20
22.257178612223033
30
0
10
-62.614895746201256
20
22.23262151706826
30
0
10
-62.527152926864737
20
22.221426741788221
30
0
11
-63.055717379989737
21
22.426504866788221
31
0
11
-62.783805758895987
21
22.272696273038221
31
0
11
-62.527152926864737
21
22.221426741788221
31
0
0
SPLINE
5
479
100
AcDbEntity
8
0
100
AcDbSpline
70
0
71
3
72
9
73
5
74
3
42
0.000000001
43
0.0000000001
44
0.0000000001
40
0
40
0
40
0
40
0
40
0.06443962765019863
40
0.15168167104901079
40
0.15168167104901079
40
0.15168167104901079
40
0.15168167104901079
10
-15.149683974626068
20
20.564904973008474
30
0
10
-14.957781985980066
20
20.66757655073722
30
0
10
-14.506072139463523
20
20.909250766542314
30
0
10
-13.990909535671987
20
20.915382257840083
30
0
10
-13.694605849626068
20
20.918908879258474
30
0
11
-15.149683974626068
21
20.564904973008474
31
0
11
-14.562525771501068
21
20.830407902695974
31
0
11
-13.694605849626068
21
20.918908879258474
31
0
0
SPLINE
5
480
100
AcDbEntity
8
0
100
AcDbSpline
70
0
71
3
72
9
73
5
74
3
42
0.000000001
43
0.0000000001
44
0.0000000001
40
0
40
0
40
0
40
0
40
0.025377453542111964
40
0.052936195283584425
40
0.052936195283584425
40
0.052936195283584425
40
0.052936195283584425
10
-62.086479098739737
20
22.408194319913221
30
0
10
-62.034165837669768
20
22.477094909811015
30
0
10
-61.925042792706819
20
22.6208183561344
30
0
10
-61.913200744903214
20
22.801297095019478
30
0
10
-61.907035739364737
20
22.895254866788221
30
0
11
-62.086479098739737
21
22.408194319913221
31
0
11
-61.951896579208487
21
22.623343245694471
31
0
11
-61.907035739364737
21
22.895254866788221
31
0
0
LINE
5
481
100
AcDbEntity
8
0
100
AcDbLine
10
-23.529481627217216
20
17.822047274685641
30
0
11
-21.691102720967216
21
17.475367587185641
31
0
0
SPLINE
5
482
100
AcDbEntity
8
0
100
AcDbSpline
70
0
71
3
72
9
73
5
74
3
42
0.000000001
43
0.0000000001
44
0.0000000001
40
0
40
0
40
0
40
0
40
0.042786308424910116
40
0.067895599773231077
40
0.067895599773231077
40
0.067895599773231077
40
0.067895599773231077
10
-24.110536314717216
20
23.603297274685641
30
0
10
-24.201925725079349
20
23.712866277873658
30
0
10
-24.346947323293385
20
23.886736225103647
30
0
10
-24.503192757656429
20
24.050533811858614
30
0
10
-24.560975767842216
20
24.111109774685641
30
0
11
-24.110536314717216
21
23.603297274685641
31
0
11
-24.389161802998466
21
23.928004305935641
31
0
11
-24.560975767842216
21
24.111109774685641
31
0
0
SPLINE
5
483
100
AcDbEntity
8
0
100
AcDbSpline
70
0
71
3
72
9
73
5
74
3
42
0.000000001
43
0.0000000001
44
0.0000000001
40
0
40
0
40
0
40
0
40
0.034168309634043242
40
0.070087343517189246
40
0.070087343517189246
40
0.070087343517189246
40
0.070087343517189246
10
-31.804764976378181
20
18.738383105004054
30
0
10
-31.875476636091872
20
18.647158335572232
30
0
10
-32.020523096923696
20
18.460034599545377
30
0
10
-32.232181116673232
20
18.353518415435467
30
0
10
-32.340653648253181
20
18.298929980004054
30
0
11
-31.804764976378181
21
18.738383105004054
31
0
11
-32.032731284971931
21
18.483866503441554
31
0
11
-32.340653648253181
21
18.298929980004054
31
0
0
SPLINE
5
484
100
AcDbEntity
8
0
100
AcDbSpline
70
0
71
3
72
9
73
5
74
3
42
0.000000001
43
0.0000000001
44
0.0000000001
40
0
40
0
40
0
40
0
40
0.047125820812999805
40
0.091917517235773821
40
0.091917517235773821
40
0.091917517235773821
40
0.091917517235773821
10
-15.520777724626068
20
16.971154973008474
30
0
10
-15.506947440629318
20
17.133096355875878
30
0
10
-15.479971881462047
20
17.448958225103905
30
0
10
-15.257900204236323
20
17.674322521115727
30
0
10
-15.149683974626068
20
17.784143254258474
30
0
11
-15.520777724626068
21
16.971154973008474
31
0
11
-15.428004287126068
21
17.433191105820974
31
0
11
-15.149683974626068
21
17.784143254258474
31
0
0
SPLINE
5
485
100
AcDbEntity
8
0
100
AcDbSpline
70
0
71
3
72
9
73
5
74
3
42
0.000000001
43
0.0000000001
44
0.0000000001
40
0
40
0
40
0
40
0
40
0.031800971107117659
40
0.060949156536435345
40
0.060949156536435345
40
0.060949156536435345
40
0.060949156536435345
10
-12.520289443376068
20
19.242883488633474
30
0
10
-12.435600252803166
20
19.313453513251581
30
0
10
-12.273286507232781
20
19.448706724945691
30
0
10
-12.24384306445746
20
19.657125692968275
30
0
10
-12.229762099626068
20
19.756799504258474
30
0
11
-12.520289443376068
21
19.242883488633474
31
0
11
-12.302393935563568
21
19.474511906602224
31
0
11
-12.229762099626068
21
19.756799504258474
31
0
0
SPLINE
5
486
100
AcDbEntity
8
0
100
AcDbSpline
70
0
71
3
72
9
73
5
74
3
42
0.000000001
43
0.0000000001
44
0.0000000001
40
0
40
0
40
0
40
0
40
0.028958464194534982
40
0.05536997795212923
40
0.05536997795212923
40
0.05536997795212923
40
0.05536997795212923
10
-52.08672592358009
20
23.068304180164088
30
0
10
-52.093094983409316
20
23.167184566506794
30
0
10
-52.105272932486685
20
23.356248626496786
30
0
10
-52.221645719594186
20
23.505109805590301
30
0
10
-52.27715561108009
20
23.576116680164088
30
0
11
-52.08672592358009
21
23.068304180164088
31
0
11
-52.13433334545509
21
23.353948711414088
31
0
11
-52.27715561108009
21
23.576116680164088
31
0
0
SPLINE
5
487
100
AcDbEntity
8
0
100
AcDbSpline
70
0
71
3
72
9
73
5
74
3
42
0.000000001
43
0.0000000001
44
0.0000000001
40
0
40
0
40
0
40
0
40
0.039116678812488044
40
0.078654318366362275
40
0.078654318366362275
40
0.078654318366362275
40
0.078654318366362275
10
-31.902421226378188
20
22.667826464379054
30
0
10
-32.003705748607629
20
22.580241728150902
30
0
10
-32.207364783547888
20
22.404129697772607
30
0
10
-32.475595759823321
20
22.379775677541033
30
0
10
-32.610429038878188
20
22.367533495629054
30
0
11
-31.902421226378188
21
22.667826464379054
31
0
11
-32.222245445128188
21
22.442606737816554
31
0
11
-32.610429038878188
21
22.367533495629054
31
0
0
SPLINE
5
488
100
AcDbEntity
8
0
100
AcDbSpline
70
0
71
3
72
9
73
5
74
3
42
0.000000001
43
0.0000000001
44
0.0000000001
40
0
40
0
40
0
40
0
40
0.0294382182578319
40
0.063516201753433171
40
0.063516201753433171
40
0.063516201753433171
40
0.063516201753433171
10
-23.406190611592216
20
19.012232821560641
30
0
10
-23.324068306075276
20
18.95499208116604
30
0
10
-23.146880377105312
20
18.831488872392445
30
0
10
-22.930332686580339
20
18.821212917556636
30
0
10
-22.814149595967216
20
18.815699618435641
30
0
11
-23.406190611592216
21
19.012232821560641
31
0
11
-23.151368834248466
21
18.864832919216891
31
0
11
-22.814149595967216
21
18.815699618435641
31
0
0
SPLINE
5
489
100
AcDbEntity
8
0
100
AcDbSpline
70
0
71
3
72
9
73
5
74
3
42
0.000000001
43
0.0000000001
44
0.0000000001
40
0
40
0
40
0
40
0
40
0.03507255818006582
40
0.0790885235365483
40
0.0790885235365483
40
0.0790885235365483
40
0.0790885235365483
10
-34.429276695128188
20
24.387797167504051
30
0
10
-34.343410200527337
20
24.30828156320726
30
0
10
-34.149781488176949
20
24.128974091261185
30
0
10
-33.98114020782166
20
23.925877481569792
30
0
10
-33.887284507628188
20
23.812845995629051
30
0
11
-34.429276695128188
21
24.387797167504051
31
0
11
-34.176591148253188
21
24.144572069847801
31
0
11
-33.887284507628188
21
23.812845995629051
31
0
0
SPLINE
5
490
100
AcDbEntity
8
0
100
AcDbSpline
70
0
71
3
72
9
73
5
74
3
42
0.000000001
43
0.0000000001
44
0.0000000001
40
0
40
0
40
0
40
0
40
0.030714240597892968
40
0.056810785056643991
40
0.056810785056643991
40
0.056810785056643991
40
0.056810785056643991
10
-44.446323142497306
20
17.260111620629083
30
0
10
-44.548854069971341
20
17.240272665904243
30
0
10
-44.738501034017872
20
17.203577420614717
30
0
10
-44.885424380378758
20
17.079205753705246
30
0
10
-44.952914939372306
20
17.022074511254083
30
0
11
-44.446323142497306
21
17.260111620629083
31
0
11
-44.741428122966056
21
17.174967577660333
31
0
11
-44.952914939372306
21
17.022074511254083
31
0
0
SPLINE
5
491
100
AcDbEntity
8
0
100
AcDbSpline
70
0
71
3
72
9
73
5
74
3
42
0.000000001
43
0.0000000001
44
0.0000000001
40
0
40
0
40
0
40
0
40
0.038589727929608839
40
0.073709255534749551
40
0.073709255534749551
40
0.073709255534749551
40
0.073709255534749551
10
-35.271561851378181
20
19.430521776879051
30
0
10
-35.263812135306672
20
19.561762821481643
30
0
10
-35.249009600205135
20
19.812442994995845
30
0
10
-35.10636976215023
20
20.018418025964682
30
0
10
-35.038407554503181
20
20.116556933129051
30
0
11
-35.271561851378181
21
19.430521776879051
31
0
11
-35.213273277159431
21
19.811991503441551
31
0
11
-35.038407554503181
21
20.116556933129051
31
0
0
SPLINE
5
492
100
AcDbEntity
8
0
100
AcDbSpline
70
0
71
3
72
9
73
5
74
3
42
0.000000001
43
0.0000000001
44
0.0000000001
40
0
40
0
40
0
40
0
40
0.019153397055193894
40
0.037069710715649941
40
0.037069710715649941
40
0.037069710715649941
40
0.037069710715649941
10
-24.921083189717216
20
19.599391024685641
30
0
10
-24.917760354444844
20
19.534842914049257
30
0
10
-24.911329299841441
20
19.409915738904427
30
0
10
-24.855360339563028
20
19.298173172558673
30
0
10
-24.828309752217216
20
19.244166415310641
30
0
11
-24.921083189717216
21
19.599391024685641
31
0
11
-24.897889830342216
21
19.409266512966891
31
0
11
-24.828309752217216
21
19.244166415310641
31
0
0
LINE
5
493
100
AcDbEntity
8
0
100
AcDbLine
10
-24.283876158467216
20
17.900172274685641
30
0
11
-24.244813658467216
21
17.438746493435641
31
0
0
SPLINE
5
494
100
AcDbEntity
8
0
100
AcDbSpline
70
0
71
3
72
9
73
5
74
3
42
0.000000001
43
0.0000000001
44
0.0000000001
40
0
40
0
40
0
40
0
40
0.046589548476079809
40
0.12001309738131014
40
0.12001309738131014
40
0.12001309738131014
40
0.12001309738131014
10
-14.866480849626068
20
16.462121769883474
30
0
10
-14.721632855159843
20
16.402653691034335
30
0
10
-14.348509332095698
20
16.249465936023885
30
0
10
-13.942810702460875
20
16.253409986765689
30
0
10
-13.694605849626068
20
16.255822941758474
30
0
11
-14.866480849626068
21
16.462121769883474
31
0
11
-14.427027724626068
21
16.307397648789724
31
0
11
-13.694605849626068
21
16.255822941758474
31
0
0
SPLINE
5
495
100
AcDbEntity
8
0
100
AcDbSpline
70
0
71
3
72
9
73
5
74
3
42
0.000000001
43
0.0000000001
44
0.0000000001
40
0
40
0
40
0
40
0
40
0.024371988281620637
40
0.049465158521698416
40
0.049465158521698416
40
0.049465158521698416
40
0.049465158521698416
10
-31.732743492003177
20
16.049174120629054
30
0
10
-31.776189036899073
20
15.979566346409813
30
0
10
-31.864365706791755
20
15.83829106159056
30
0
10
-31.998945295815883
20
15.740099154515864
30
0
10
-32.067216148253181
20
15.690287401879054
30
0
11
-31.732743492003177
21
16.049174120629054
31
0
11
-31.874345054503177
21
15.850809862816554
31
0
11
-32.067216148253181
21
15.690287401879054
31
0
0
SPLINE
5
496
100
AcDbEntity
8
0
100
AcDbSpline
70
0
71
3
72
9
73
5
74
3
42
0.000000001
43
0.0000000001
44
0.0000000001
40
0
40
0
40
0
40
0
40
0.015598513087911343
40
0.031101202477658269
40
0.031101202477658269
40
0.031101202477658269
40
0.031101202477658269
10
-25.221376158467216
20
24.907008212185641
30
0
10
-25.16906334441191
20
24.906121649136395
30
0
10
-25.064759080733662
20
24.904353969310225
30
0
10
-24.965618126346655
20
24.871910457263002
30
0
10
-24.916200377217216
20
24.855738680935641
30
0
11
-25.221376158467216
21
24.907008212185641
31
0
11
-25.065736510029716
21
24.896632235623141
31
0
11
-24.916200377217216
21
24.855738680935641
31
0
0
SPLINE
5
497
100
AcDbEntity
8
0
100
AcDbSpline
70
0
71
3
72
9
73
5
74
3
42
0.000000001
43
0.0000000001
44
0.0000000001
40
0
40
0
40
0
40
0
40
0.028809127156120183
40
0.060647386739141558
40
0.060647386739141558
40
0.060647386739141558
40
0.060647386739141558
10
-15.159449599626068
20
19.751916691758474
30
0
10
-15.144977791118457
20
19.653488541782998
30
0
10
-15.114512537429245
20
19.446283025099621
30
0
10
-14.95186596153397
20
19.312903945846017
30
0
10
-14.866480849626068
20
19.242883488633474
30
0
11
-15.159449599626068
21
19.751916691758474
31
0
11
-15.086207412126068
21
19.473291203477224
31
0
11
-14.866480849626068
21
19.242883488633474
31
0
0
SPLINE
5
498
100
AcDbEntity
8
0
100
AcDbSpline
70
0
71
3
72
9
73
5
74
3
42
0.000000001
43
0.0000000001
44
0.0000000001
40
0
40
0
40
0
40
0
40
0.057374491571945359
40
0.10332227041477393
40
0.10332227041477393
40
0.10332227041477393
40
0.10332227041477393
10
-33.445389976378181
20
17.721537401879054
30
0
10
-33.253316873060463
20
17.718951663789625
30
0
10
-32.907423975769817
20
17.714295163613713
30
0
10
-32.572571527862998
20
17.628898407001646
30
0
10
-32.423661460753181
20
17.590922167504054
30
0
11
-33.445389976378181
21
17.721537401879054
31
0
11
-32.872575034971931
21
17.688883593285304
31
0
11
-32.423661460753181
21
17.590922167504054
31
0
0
SPLINE
5
499
100
AcDbEntity
8
0
100
AcDbSpline
70
0
71
3
72
9
73
5
74
3
42
0.000000001
43
0.0000000001
44
0.0000000001
40
0
40
0
40
0
40
0
40
0.044036199045198086
40
0.10229324055586266
40
0.10229324055586266
40
0.10229324055586266
40
0.10229324055586266
10
-32.340653648253181
20
18.298929980004054
30
0
10
-32.48157551724853
20
18.255349559901845
30
0
10
-32.808927899090733
20
18.154115064334576
30
0
10
-33.152223428654338
20
18.150718100884159
30
0
10
-33.347733726378181
20
18.148783495629054
30
0
11
-32.340653648253181
21
18.298929980004054
31
0
11
-32.766373863096931
21
18.186320116722804
31
0
11
-33.347733726378181
21
18.148783495629054
31
0
0
SPLINE
5
500
100
AcDbEntity
8
0
100
AcDbSpline
70
0
71
3
72
9
73
5
74
3
42
0.000000001
43
0.0000000001
44
0.0000000001
40
0
40
0
40
0
40
0
40
0.040647363467803378
40
0.086960671515694823
40
0.086960671515694823
40
0.086960671515694823
40
0.086960671515694823
10
-31.881669273253188
20
24.296244433129054
30
0
10
-31.804496916051939
20
24.181754328212559
30
0
10
-31.639394940619137
20
23.936815036803729
30
0
10
-31.624636637289104
20
23.640869906823262
30
0
10
-31.616776695128188
20
23.483256151879054
30
0
11
-31.881669273253188
21
24.296244433129054
31
0
11
-31.682999839659438
21
23.941630175316554
31
0
11
-31.616776695128188
21
23.483256151879054
31
0
0
SPLINE
5
501
100
AcDbEntity
8
0
100
AcDbSpline
70
0
71
3
72
9
73
5
74
3
42
0.000000001
43
0.0000000001
44
0.0000000001
40
0
40
0
40
0
40
0
40
0.026856092965934428
40
0.057289632038068208
40
0.057289632038068208
40
0.057289632038068208
40
0.057289632038068208
10
-52.27715561108009
20
23.576116680164088
30
0
10
-52.349874740732162
20
23.631725323761149
30
0
10
-52.504999768977349
20
23.750350126477336
30
0
10
-52.700594857594957
20
23.762521870273115
30
0
10
-52.80449936108009
20
23.768987773914088
30
0
11
-52.27715561108009
21
23.576116680164088
31
0
11
-52.50420639233009
21
23.719549297351588
31
0
11
-52.80449936108009
21
23.768987773914088
31
0
0
SPLINE
5
502
100
AcDbEntity
8
0
100
AcDbSpline
70
0
71
3
72
9
73
5
74
3
42
0.000000001
43
0.0000000001
44
0.0000000001
40
0
40
0
40
0
40
0
40
0.031775145029671929
40
0.060576528746157855
40
0.060576528746157855
40
0.060576528746157855
40
0.060576528746157855
10
-34.618485679503181
20
17.063578417504051
30
0
10
-34.703517244169099
20
16.993506292019514
30
0
10
-34.865622468755987
20
16.859919926961084
30
0
10
-34.895858072332906
20
16.652949999544099
30
0
10
-34.910233726378181
20
16.554545214379051
30
0
11
-34.618485679503181
21
17.063578417504051
31
0
11
-34.837296714659431
21
16.833170702660301
31
0
11
-34.910233726378181
21
16.554545214379051
31
0
0
SPLINE
5
503
100
AcDbEntity
8
0
100
AcDbSpline
70
0
71
3
72
9
73
5
74
3
42
0.000000001
43
0.0000000001
44
0.0000000001
40
0
40
0
40
0
40
0
40
0.034307092543659663
40
0.064483422537192747
40
0.064483422537192747
40
0.064483422537192747
40
0.064483422537192747
10
-32.803300132628181
20
18.637064745629054
30
0
10
-32.686424998316994
20
18.643085876597254
30
0
10
-32.466747138402503
20
18.654403161263108
30
0
10
-32.286884552776471
20
18.779799154201029
30
0
10
-32.202714195128181
20
18.838480761254054
30
0
11
-32.803300132628181
21
18.637064745629054
31
0
11
-32.463944663878181
21
18.687418749535304
31
0
11
-32.202714195128181
21
18.838480761254054
31
0
0
SPLINE
5
504
100
AcDbEntity
8
0
100
AcDbSpline
70
0
71
3
72
9
73
5
74
3
42
0.000000001
43
0.0000000001
44
0.0000000001
40
0
40
0
40
0
40
0
40
0.024589859323898122
40
0.049950866465870929
40
0.049950866465870929
40
0.049950866465870929
40
0.049950866465870929
10
-23.536805845967216
20
18.766871493435641
30
0
10
-23.603811058983077
20
18.815406327927498
30
0
10
-23.739922795279988
20
18.913998068722446
30
0
10
-23.831093110686844
20
19.055258368301651
30
0
10
-23.877382017842216
20
19.126978915310641
30
0
11
-23.536805845967216
21
18.766871493435641
31
0
11
-23.726930357685966
21
18.922816317654391
31
0
11
-23.877382017842216
21
19.126978915310641
31
0
0
SPLINE
5
505
100
AcDbEntity
8
0
100
AcDbSpline
70
0
71
3
72
9
73
5
74
3
42
0.000000001
43
0.0000000001
44
0.0000000001
40
0
40
0
40
0
40
0
40
0.024213231903991841
40
0.049023140784518013
40
0.049023140784518013
40
0.049023140784518013
40
0.049023140784518013
10
-24.751405455342216
20
17.200709384060641
30
0
10
-24.80089272503281
20
17.134726231637547
30
0
10
-24.901086759381585
20
17.001133930392108
30
0
10
-24.914363846322711
20
16.834567044439083
30
0
10
-24.921083189717216
20
16.750269930935641
30
0
11
-24.751405455342216
21
17.200709384060641
31
0
11
-24.878663756123466
21
16.994715731716891
31
0
11
-24.921083189717216
21
16.750269930935641
31
0
0
SPLINE
5
506
100
AcDbEntity
8
0
100
AcDbSpline
70
0
71
3
72
9
73
5
74
3
42
0.000000001
43
0.0000000001
44
0.0000000001
40
0
40
0
40
0
40
0
40
0.065027717368355956
40
0.10955165066311773
40
0.10955165066311773
40
0.10955165066311773
40
0.10955165066311773
10
-53.99346420483009
20
23.388128398914088
30
0
10
-53.855699622810533
20
23.220099144983809
30
0
10
-53.623608785642361
20
22.937021668598156
30
0
10
-53.347587864575999
20
22.697073719329339
30
0
10
-53.23540756420509
20
22.599554180164088
30
0
11
-53.99346420483009
21
23.388128398914088
31
0
11
-53.56469223217384
21
22.899236797351588
31
0
11
-53.23540756420509
21
22.599554180164088
31
0
0
LINE
5
507
100
AcDbEntity
8
0
100
AcDbLine
10
-35.210526695128188
20
22.362650683129051
30
0
11
-35.210526695128188
21
24.728373339379051
31
0
0
LINE
5
508
100
AcDbEntity
8
0
100
AcDbLine
10
-65.13701620811473
20
18.923086898038221
30
0
11
-65.13701620811473
21
19.374747054288221
31
0
0
LINE
5
509
100
AcDbEntity
8
0
100
AcDbLine
10
-21.691102720967216
20
17.475367587185641
30
0
11
-21.691102720967216
21
15.695582430935641
31
0
0
SPLINE
5
510
100
AcDbEntity
8
0
100
AcDbSpline
70
0
71
3
72
9
73
5
74
3
42
0.000000001
43
0.0000000001
44
0.0000000001
40
0
40
0
40
0
40
0
40
0.04583817441978344
40
0.089980561572196138
40
0.089980561572196138
40
0.089980561572196138
40
0.089980561572196138
10
-24.007997252217219
20
15.527125399685641
30
0
10
-24.163292074062831
20
15.538010351879494
30
0
10
-24.468136572252345
20
15.559377566509811
30
0
10
-24.722873126768768
20
15.727735840455209
30
0
10
-24.847841002217219
20
15.810328524685641
30
0
11
-24.007997252217219
21
15.527125399685641
31
0
11
-24.460878111592219
21
15.597926180935641
31
0
11
-24.847841002217219
21
15.810328524685641
31
0
0
SPLINE
5
511
100
AcDbEntity
8
0
100
AcDbSpline
70
0
71
3
72
9
73
5
74
3
42
0.000000001
43
0.0000000001
44
0.0000000001
40
0
40
0
40
0
40
0
40
0.042786308424910116
40
0.067895599773231077
40
0.067895599773231077
40
0.067895599773231077
40
0.067895599773231077
10
-54.20586654858009
20
22.999944805164088
30
0
10
-54.297255958942223
20
23.109513808352101
30
0
10
-54.44227755715626
20
23.283383755582093
30
0
10
-54.598522991519303
20
23.447181342337057
30
0
10
-54.65630600170509
20
23.507757305164088
30
0
11
-54.20586654858009
21
22.999944805164088
31
0
11
-54.48449203686134
21
23.324651836414088
31
0
11
-54.65630600170509
21
23.507757305164088
31
0
0
SPLINE
5
512
100
AcDbEntity
8
0
100
AcDbSpline
70
0
71
3
72
9
73
5
74
3
42
0.000000001
43
0.0000000001
44
0.0000000001
40
0
40
0
40
0
40
0
40
0.045875188336648408
40
0.086197086274523271
40
0.086197086274523271
40
0.086197086274523271
40
0.086197086274523271
10
-32.651932945128188
20
24.645365526879054
30
0
10
-32.496820793443383
20
24.62282568770927
30
0
10
-32.205373150266709
20
24.580474505469443
30
0
10
-31.984834460456408
20
24.386829225910379
30
0
10
-31.881669273253188
20
24.296244433129054
30
0
11
-32.651932945128188
21
24.645365526879054
31
0
11
-32.206681480284438
21
24.534891894066554
31
0
11
-31.881669273253188
21
24.296244433129054
31
0
0
SPLINE
5
513
100
AcDbEntity
8
0
100
AcDbSpline
70
0
71
3
72
9
73
5
74
3
42
0.000000001
43
0.0000000001
44
0.0000000001
40
0
40
0
40
0
40
0
40
0.045875188336648408
40
0.086197086274523271
40
0.086197086274523271
40
0.086197086274523271
40
0.086197086274523271
10
-22.662782408467216
20
24.824000399685641
30
0
10
-22.507670256782411
20
24.80146056051586
30
0
10
-22.216222613605741
20
24.75910937827603
30
0
10
-21.99568392379544
20
24.565464098716969
30
0
10
-21.892518736592216
20
24.474879305935641
30
0
11
-22.662782408467216
21
24.824000399685641
31
0
11
-22.217530943623466
21
24.713526766873141
31
0
11
-21.892518736592216
21
24.474879305935641
31
0
0
SPLINE
5
514
100
AcDbEntity
8
0
100
AcDbSpline
70
0
71
3
72
9
73
5
74
3
42
0.000000001
43
0.0000000001
44
0.0000000001
40
0
40
0
40
0
40
0
40
0.027326987441887524
40
0.057861284619934006
40
0.057861284619934006
40
0.057861284619934006
40
0.057861284619934006
10
-12.316432021501068
20
18.887658879258474
30
0
10
-12.395851564726453
20
18.842350166566078
30
0
10
-12.564011952135468
20
18.746414955030875
30
0
10
-12.750333705411798
20
18.693444330510207
30
0
10
-12.848658584001068
20
18.665490910508474
30
0
11
-12.316432021501068
21
18.887658879258474
31
0
11
-12.558741591813568
21
18.761316105820974
31
0
11
-12.848658584001068
21
18.665490910508474
31
0
0
SPLINE
5
515
100
AcDbEntity
8
0
100
AcDbSpline
70
0
71
3
72
9
73
5
74
3
42
0.000000001
43
0.0000000001
44
0.0000000001
40
0
40
0
40
0
40
0
40
0.049784534715354725
40
0.095205159667000827
40
0.095205159667000827
40
0.095205159667000827
40
0.095205159667000827
10
-32.825272788878181
20
20.502299120629054
30
0
10
-32.655464250036218
20
20.49155159784123
30
0
10
-32.330731897997516
20
20.470998636386639
30
0
10
-32.07216529862044
20
20.274838554348754
30
0
10
-31.948807945128181
20
20.181254198754054
30
0
11
-32.825272788878181
21
20.502299120629054
31
0
11
-32.333939781065681
21
20.422037890160304
31
0
11
-31.948807945128181
21
20.181254198754054
31
0
0
SPLINE
5
516
100
AcDbEntity
8
0
100
AcDbSpline
70
0
71
3
72
9
73
5
74
3
42
0.000000001
43
0.0000000001
44
0.0000000001
40
0
40
0
40
0
40
0
40
0.033170038455429651
40
0.069475158263869241
40
0.069475158263869241
40
0.069475158263869241
40
0.069475158263869241
10
-15.309596084001068
20
19.101281926133474
30
0
10
-15.371156440948488
20
19.195506719882573
30
0
10
-15.500095560131275
20
19.392862006850208
30
0
10
-15.513679346047709
20
19.62868461493915
30
0
10
-15.520777724626068
20
19.751916691758474
30
0
11
-15.309596084001068
21
19.101281926133474
31
0
11
-15.467982314469818
21
19.392724797227224
31
0
11
-15.520777724626068
21
19.751916691758474
31
0
0
SPLINE
5
517
100
AcDbEntity
8
0
100
AcDbSpline
70
0
71
3
72
9
73
5
74
3
42
0.000000001
43
0.0000000001
44
0.0000000001
40
0
40
0
40
0
40
0
40
0.034042259226423302
40
0.064227291242485302
40
0.064227291242485302
40
0.064227291242485302
40
0.064227291242485302
10
-24.047059752217219
20
15.993433993435641
30
0
10
-23.93084991138641
20
15.999916860752815
30
0
10
-23.711597621382992
20
16.012148040960245
30
0
10
-23.536220418028762
20
16.143080865512683
30
0
10
-23.453798033467219
20
16.204615634060641
30
0
11
-24.047059752217219
21
15.993433993435641
31
0
11
-23.710756041279719
21
16.046229403591891
31
0
11
-23.453798033467219
21
16.204615634060641
31
0
0
SPLINE
5
518
100
AcDbEntity
8
0
100
AcDbSpline
70
0
71
3
72
9
73
5
74
3
42
0.000000001
43
0.0000000001
44
0.0000000001
40
0
40
0
40
0
40
0
40
0.027193559568742684
40
0.052250052352303983
40
0.052250052352303983
40
0.052250052352303983
40
0.052250052352303983
10
-11.865992568376068
20
19.751916691758474
30
0
10
-11.869983428923092
20
19.66045588783151
30
0
10
-11.877651519302571
20
19.484721932102495
30
0
10
-11.948151247391397
20
19.32374298906965
30
0
10
-11.981959365251068
20
19.246545598008474
30
0
11
-11.865992568376068
21
19.751916691758474
31
0
11
-11.894984267594818
21
19.481530949570974
31
0
11
-11.981959365251068
21
19.246545598008474
31
0
0
SPLINE
5
519
100
AcDbEntity
8
0
100
AcDbSpline
70
0
71
3
72
9
73
5
74
3
42
0.000000001
43
0.0000000001
44
0.0000000001
40
0
40
0
40
0
40
0
40
0.065027717368355956
40
0.10955165066311773
40
0.10955165066311773
40
0.10955165066311773
40
0.10955165066311773
10
-63.813774020614737
20
23.215079085538221
30
0
10
-63.67600943859518
20
23.047049831607943
30
0
10
-63.443918601427008
20
22.763972355222286
30
0
10
-63.167897680360639
20
22.524024405953469
30
0
10
-63.055717379989737
20
22.426504866788221
30
0
11
-63.813774020614737
21
23.215079085538221
31
0
11
-63.385002047958487
21
22.726187483975721
31
0
11
-63.055717379989737
21
22.426504866788221
31
0
0
SPLINE
5
520
100
AcDbEntity
8
0
100
AcDbSpline
70
0
71
3
72
9
73
5
74
3
42
0.000000001
43
0.0000000001
44
0.0000000001
40
0
40
0
40
0
40
0
40
0.017611842137484797
40
0.035460686312641217
40
0.035460686312641217
40
0.035460686312641217
40
0.035460686312641217
10
-24.828309752217216
20
19.244166415310641
30
0
10
-24.794620651621216
20
19.195485469839035
30
0
10
-24.726789097200957
20
19.097468480855383
30
0
10
-24.629484489903987
20
19.028591124363004
30
0
10
-24.580507017842216
20
18.993922274685641
30
0
11
-24.828309752217216
21
19.244166415310641
31
0
11
-24.719972349873466
21
19.105311434841891
31
0
11
-24.580507017842216
21
18.993922274685641
31
0
0
SPLINE
5
521
100
AcDbEntity
8
0
100
AcDbSpline
70
0
71
3
72
9
73
5
74
3
42
0.000000001
43
0.0000000001
44
0.0000000001
40
0
40
0
40
0
40
0
40
0.022472420120789021
40
0.045698402330465862
40
0.045698402330465862
40
0.045698402330465862
40
0.045698402330465862
10
-52.24907943920509
20
18.489446758289088
30
0
10
-52.201017927289463
20
18.549264010638581
30
0
10
-52.103283268702363
20
18.670904352420965
30
0
10
-52.090686673320633
20
18.826583422644802
30
0
10
-52.08428451733009
20
18.905706523914088
30
0
11
-52.24907943920509
21
18.489446758289088
31
0
11
-52.12548324779884
21
18.677129863757838
31
0
11
-52.08428451733009
21
18.905706523914088
31
0
0
SPLINE
5
522
100
AcDbEntity
8
0
100
AcDbSpline
70
0
71
3
72
9
73
5
74
3
42
0.000000001
43
0.0000000001
44
0.0000000001
40
0
40
0
40
0
40
0
40
0.023445167876639347
40
0.04551294328834056
40
0.04551294328834056
40
0.04551294328834056
40
0.04551294328834056
10
-43.313510642497306
20
19.325541308129083
30
0
10
-43.307691986406184
20
19.245597812086732
30
0
10
-43.296396517502615
20
19.090407462382622
30
0
10
-43.200227718327262
20
18.968426313350015
30
0
10
-43.153598533122306
20
18.909281542504083
30
0
11
-43.313510642497306
21
19.325541308129083
31
0
11
-43.273532615153556
21
19.094523241722833
31
0
11
-43.153598533122306
21
18.909281542504083
31
0
0
SPLINE
5
523
100
AcDbEntity
8
0
100
AcDbSpline
70
0
71
3
72
9
73
5
74
3
42
0.000000001
43
0.0000000001
44
0.0000000001
40
0
40
0
40
0
40
0
40
0.031401772298499712
40
0.060434785368064667
40
0.060434785368064667
40
0.060434785368064667
40
0.060434785368064667
10
-32.839921226378181
20
20.050638964379054
30
0
10
-32.946986503314321
20
20.04347330207748
30
0
10
-33.153040702118794
20
20.029682511573704
30
0
10
-33.316712723923672
20
19.904485213018749
30
0
10
-33.395341148253181
20
19.844340136254054
30
0
11
-32.839921226378181
21
20.050638964379054
31
0
11
-33.149674644346931
21
19.999064257347804
31
0
11
-33.395341148253181
21
19.844340136254054
31
0
0
LINE
5
524
100
AcDbEntity
8
0
100
AcDbLine
10
-54.89434311108009
20
23.693304180164088
30
0
11
-54.89434311108009
21
21.937933086414088
31
0
0
SPLINE
5
525
100
AcDbEntity
8
0
100
AcDbSpline
70
0
71
3
72
9
73
5
74
3
42
0.000000001
43
0.0000000001
44
0.0000000001
40
0
40
0
40
0
40
0
40
0.049585570984792014
40
0.12408192336965751
40
0.12408192336965751
40
0.12408192336965751
40
0.12408192336965751
10
-32.236893882628181
20
17.042826464379054
30
0
10
-32.390214052326513
20
17.108414507708083
30
0
10
-32.773879323688753
20
17.272540692093752
30
0
10
-33.1934737281236
20
17.270876433710622
30
0
10
-33.445389976378181
20
17.269877245629054
30
0
11
-32.236893882628181
21
17.042826464379054
31
0
11
-32.702592124815681
21
17.213114550316554
31
0
11
-33.445389976378181
21
17.269877245629054
31
0
0
SPLINE
5
526
100
AcDbEntity
8
0
100
AcDbSpline
70
0
71
3
72
9
73
5
74
3
42
0.000000001
43
0.0000000001
44
0.0000000001
40
0
40
0
40
0
40
0
40
0.065027717368355956
40
0.10955165066311773
40
0.10955165066311773
40
0.10955165066311773
40
0.10955165066311773
10
-23.898133970967216
20
23.991480868435641
30
0
10
-23.760369388947659
20
23.823451614505366
30
0
10
-23.52827855177949
20
23.540374138119709
30
0
10
-23.252257630713125
20
23.300426188850892
30
0
10
-23.140077330342216
20
23.202906649685641
30
0
11
-23.898133970967216
21
23.991480868435641
31
0
11
-23.469361998310966
21
23.502589266873141
31
0
11
-23.140077330342216
21
23.202906649685641
31
0
0
SPLINE
5
527
100
AcDbEntity
8
0
100
AcDbSpline
70
0
71
3
72
9
73
5
74
3
42
0.000000001
43
0.0000000001
44
0.0000000001
40
0
40
0
40
0
40
0
40
0.0242973015125287
40
0.052714476506015684
40
0.052714476506015684
40
0.052714476506015684
40
0.052714476506015684
10
-62.959281833114737
20
21.857657210538221
30
0
10
-63.031936834182034
20
21.894111205834225
30
0
10
-63.189566287182473
20
21.973200370431002
30
0
10
-63.323885253157329
20
22.087687727749568
30
0
10
-63.396293551864737
20
22.149405257413221
30
0
11
-62.959281833114737
21
21.857657210538221
31
0
11
-63.172294528427237
21
21.974539534756971
31
0
11
-63.396293551864737
21
22.149405257413221
31
0
0
SPLINE
5
528
100
AcDbEntity
8
0
100
AcDbSpline
70
0
71
3
72
9
73
5
74
3
42
0.000000001
43
0.0000000001
44
0.0000000001
40
0
40
0
40
0
40
0
40
0.024589859323898122
40
0.049950866465870929
40
0.049950866465870929
40
0.049950866465870929
40
0.049950866465870929
10
-33.525956382628181
20
18.588236620629054
30
0
10
-33.592961595644041
20
18.636771455120911
30
0
10
-33.729073331940953
20
18.735363195915859
30
0
10
-33.820243647347809
20
18.87662349549506
30
0
10
-33.866532554503181
20
18.948344042504054
30
0
11
-33.525956382628181
21
18.588236620629054
31
0
11
-33.716080894346931
21
18.744181444847804
31
0
11
-33.866532554503181
21
18.948344042504054
31
0
0
SPLINE
5
529
100
AcDbEntity
8
0
100
AcDbSpline
70
0
71
3
72
9
73
5
74
3
42
0.000000001
43
0.0000000001
44
0.0000000001
40
0
40
0
40
0
40
0
40
0.026856092965934428
40
0.057289632038068208
40
0.057289632038068208
40
0.057289632038068208
40
0.057289632038068208
10
-32.170975913878188
20
24.000834276879054
30
0
10
-32.243695043530259
20
24.056442920476112
30
0
10
-32.398820071775447
20
24.175067723192303
30
0
10
-32.594415160393055
20
24.187239466988082
30
0
10
-32.698319663878188
20
24.193705370629054
30
0
11
-32.170975913878188
21
24.000834276879054
31
0
11
-32.398026695128188
21
24.144266894066554
31
0
11
-32.698319663878188
21
24.193705370629054
31
0
0
ENDSEC
0
SECTION
2
OBJECTS
0
DICTIONARY
5
C
100
AcDbDictionary
3
ACAD_GROUP
350
D
3
ACAD_MLINESTYLE
350
17
0
DICTIONARY
5
D
100
AcDbDictionary
0
DICTIONARY
5
1A
330
C
100
AcDbDictionary
0
DICTIONARY
5
17
100
AcDbDictionary
0
ENDSEC
0
EOF
