  0
SECTION
  2
HEADER
  9
$ACADVER
  1
AC1024
  9
$ACADMAINTVER
 70
     6
  9
$DWGCODEPAGE
  3
UNDEFINED
  9
$INSBASE
 10
0.0
 20
0.0
 30
0.0
  9
$EXTMIN
 10
1.000000000000000E+20
 20
1.000000000000000E+20
 30
1.000000000000000E+20
  9
$EXTMAX
 10
-1.000000000000000E+20
 20
-1.000000000000000E+20
 30
-1.000000000000000E+20
  9
$LIMMIN
 10
0.0
 20
0.0
  9
$LIMMAX
 10
12.0
 20
9.0
  9
$ORTHOMODE
 70
     0
  9
$REGENMODE
 70
     1
  9
$FILLMODE
 70
     1
  9
$QTEXTMODE
 70
     0
  9
$MIRRTEXT
 70
     1
  9
$LTSCALE
 40
1.0
  9
$ATTMODE
 70
     1
  9
$TEXTSIZE
 40
0.2
  9
$TRACEWID
 40
0.05
  9
$TEXTSTYLE
  7
Standard
  9
$CLAYER
  8
0
  9
$CELTYPE
  6
ByLayer
  9
$CECOLOR
 62
   256
  9
$CELTSCALE
 40
1.0
  9
$DISPSILH
 70
     0
  9
$DIMSCALE
 40
1.0
  9
$DIMASZ
 40
0.18
  9
$DIMEXO
 40
0.0625
  9
$DIMDLI
 40
0.38
  9
$DIMRND
 40
0.0
  9
$DIMDLE
 40
0.0
  9
$DIMEXE
 40
0.18
  9
$DIMTP
 40
0.0
  9
$DIMTM
 40
0.0
  9
$DIMTXT
 40
0.18
  9
$DIMCEN
 40
0.09
  9
$DIMTSZ
 40
0.0
  9
$DIMTOL
 70
     0
  9
$DIMLIM
 70
     0
  9
$DIMTIH
 70
     1
  9
$DIMTOH
 70
     1
  9
$DIMSE1
 70
     0
  9
$DIMSE2
 70
     0
  9
$DIMTAD
 70
     0
  9
$DIMZIN
 70
     0
  9
$DIMBLK
  1

  9
$DIMASO
 70
     1
  9
$DIMSHO
 70
     1
  9
$DIMPOST
  1

  9
$DIMAPOST
  1

  9
$DIMALT
 70
     0
  9
$DIMALTD
 70
     2
  9
$DIMALTF
 40
25.4
  9
$DIMLFAC
 40
1.0
  9
$DIMTOFL
 70
     0
  9
$DIMTVP
 40
0.0
  9
$DIMTIX
 70
     0
  9
$DIMSOXD
 70
     0
  9
$DIMSAH
 70
     0
  9
$DIMBLK1
  1

  9
$DIMBLK2
  1

  9
$DIMSTYLE
  2
Standard
  9
$DIMCLRD
 70
     0
  9
$DIMCLRE
 70
     0
  9
$DIMCLRT
 70
     0
  9
$DIMTFAC
 40
1.0
  9
$DIMGAP
 40
0.09
  9
$DIMJUST
 70
     0
  9
$DIMSD1
 70
     0
  9
$DIMSD2
 70
     0
  9
$DIMTOLJ
 70
     1
  9
$DIMTZIN
 70
     0
  9
$DIMALTZ
 70
     0
  9
$DIMALTTZ
 70
     0
  9
$DIMUPT
 70
     0
  9
$DIMDEC
 70
     4
  9
$DIMTDEC
 70
     4
  9
$DIMALTU
 70
     2
  9
$DIMALTTD
 70
     2
  9
$DIMTXSTY
  7
Standard
  9
$DIMAUNIT
 70
     0
  9
$DIMADEC
 70
     0
  9
$DIMALTRND
 40
0.0
  9
$DIMAZIN
 70
     0
  9
$DIMDSEP
 70
    46
  9
$DIMATFIT
 70
     3
  9
$DIMFRAC
 70
     0
  9
$DIMLDRBLK
  1

  9
$DIMLUNIT
 70
     2
  9
$DIMLWD
 70
    -2
  9
$DIMLWE
 70
    -2
  9
$DIMTMOVE
 70
     0
  9
$DIMFXL
 40
1.0
  9
$DIMFXLON
 70
     0
  9
$DIMJOGANG
 40
0.7853981633974483
  9
$DIMTFILL
 70
     0
  9
$DIMTFILLCLR
 70
     0
  9
$DIMARCSYM
 70
     0
  9
$DIMLTYPE
  6

  9
$DIMLTEX1
  6

  9
$DIMLTEX2
  6

  9
$DIMTXTDIRECTION
 70
     0
  9
$LUNITS
 70
     2
  9
$LUPREC
 70
     4
  9
$SKETCHINC
 40
0.1
  9
$FILLETRAD
 40
0.5
  9
$AUNITS
 70
     0
  9
$AUPREC
 70
     0
  9
$MENU
  1
.
  9
$ELEVATION
 40
0.0
  9
$PELEVATION
 40
0.0
  9
$THICKNESS
 40
0.0
  9
$LIMCHECK
 70
     0
  9
$CHAMFERA
 40
0.5
  9
$CHAMFERB
 40
0.5
  9
$CHAMFERC
 40
1.0
  9
$CHAMFERD
 40
0.0
  9
$SKPOLY
 70
     0
  9
$TDCREATE
 40
2459084.642291655
  9
$TDUCREATE
 40
2459084.267291666
  9
$TDUPDATE
 40
2459084.642291655
  9
$TDUUPDATE
 40
2459084.267291666
  9
$TDINDWG
 40
0.0000000116
  9
$TDUSRTIMER
 40
0.0000000116
  9
$USRTIMER
 70
     1
  9
$ANGBASE
 50
0.0
  9
$ANGDIR
 70
     0
  9
$PDMODE
 70
     0
  9
$PDSIZE
 40
0.0
  9
$PLINEWID
 40
0.0
  9
$SPLFRAME
 70
     0
  9
$SPLINETYPE
 70
     6
  9
$SPLINESEGS
 70
     8
  9
$HANDSEED
  5
9F
  9
$SURFTAB1
 70
     6
  9
$SURFTAB2
 70
     6
  9
$SURFTYPE
 70
     6
  9
$SURFU
 70
     6
  9
$SURFV
 70
     6
  9
$UCSBASE
  2

  9
$UCSNAME
  2

  9
$UCSORG
 10
0.0
 20
0.0
 30
0.0
  9
$UCSXDIR
 10
1.0
 20
0.0
 30
0.0
  9
$UCSYDIR
 10
0.0
 20
1.0
 30
0.0
  9
$UCSORTHOREF
  2

  9
$UCSORTHOVIEW
 70
     0
  9
$UCSORGTOP
 10
0.0
 20
0.0
 30
0.0
  9
$UCSORGBOTTOM
 10
0.0
 20
0.0
 30
0.0
  9
$UCSORGLEFT
 10
0.0
 20
0.0
 30
0.0
  9
$UCSORGRIGHT
 10
0.0
 20
0.0
 30
0.0
  9
$UCSORGFRONT
 10
0.0
 20
0.0
 30
0.0
  9
$UCSORGBACK
 10
0.0
 20
0.0
 30
0.0
  9
$PUCSBASE
  2

  9
$PUCSNAME
  2

  9
$PUCSORG
 10
0.0
 20
0.0
 30
0.0
  9
$PUCSXDIR
 10
1.0
 20
0.0
 30
0.0
  9
$PUCSYDIR
 10
0.0
 20
1.0
 30
0.0
  9
$PUCSORTHOREF
  2

  9
$PUCSORTHOVIEW
 70
     0
  9
$PUCSORGTOP
 10
0.0
 20
0.0
 30
0.0
  9
$PUCSORGBOTTOM
 10
0.0
 20
0.0
 30
0.0
  9
$PUCSORGLEFT
 10
0.0
 20
0.0
 30
0.0
  9
$PUCSORGRIGHT
 10
0.0
 20
0.0
 30
0.0
  9
$PUCSORGFRONT
 10
0.0
 20
0.0
 30
0.0
  9
$PUCSORGBACK
 10
0.0
 20
0.0
 30
0.0
  9
$USERI1
 70
     0
  9
$USERI2
 70
     0
  9
$USERI3
 70
     0
  9
$USERI4
 70
     0
  9
$USERI5
 70
     0
  9
$USERR1
 40
0.0
  9
$USERR2
 40
0.0
  9
$USERR3
 40
0.0
  9
$USERR4
 40
0.0
  9
$USERR5
 40
0.0
  9
$WORLDVIEW
 70
     1
  9
$SHADEDGE
 70
     3
  9
$SHADEDIF
 70
    70
  9
$TILEMODE
 70
     1
  9
$MAXACTVP
 70
    64
  9
$PINSBASE
 10
0.0
 20
0.0
 30
0.0
  9
$PLIMCHECK
 70
     0
  9
$PEXTMIN
 10
1.000000000000000E+20
 20
1.000000000000000E+20
 30
1.000000000000000E+20
  9
$PEXTMAX
 10
-1.000000000000000E+20
 20
-1.000000000000000E+20
 30
-1.000000000000000E+20
  9
$PLIMMIN
 10
0.0
 20
0.0
  9
$PLIMMAX
 10
12.0
 20
9.0
  9
$UNITMODE
 70
     0
  9
$VISRETAIN
 70
     1
  9
$PLINEGEN
 70
     0
  9
$PSLTSCALE
 70
     1
  9
$TREEDEPTH
 70
  3020
  9
$CMLSTYLE
  2
Standard
  9
$CMLJUST
 70
     0
  9
$CMLSCALE
 40
1.0
  9
$PROXYGRAPHICS
 70
     1
  9
$MEASUREMENT
 70
     0
  9
$CELWEIGHT
370
    -1
  9
$ENDCAPS
280
     0
  9
$JOINSTYLE
280
     0
  9
$LWDISPLAY
290
     1
  9
$INSUNITS
 70
     4
  9
$HYPERLINKBASE
  1

  9
$STYLESHEET
  1

  9
$XEDIT
290
     1
  9
$CEPSNTYPE
380
     0
  9
$PSTYLEMODE
290
     1
  9
$FINGERPRINTGUID
  2
{5B0AAABC-BE67-7FAA-E278-94989D5954AE}
  9
$VERSIONGUID
  2
{FAEB1C32-E019-11D5-929B-00C0DF256EC4}
  9
$EXTNAMES
290
     1
  9
$PSVPSCALE
 40
0.0
  9
$OLESTARTUP
290
     0
  9
$SORTENTS
280
   127
  9
$INDEXCTL
280
     0
  9
$HIDETEXT
280
     1
  9
$XCLIPFRAME
280
     2
  9
$HALOGAP
280
     0
  9
$OBSCOLOR
 70
   257
  9
$OBSLTYPE
280
     0
  9
$INTERSECTIONDISPLAY
280
     0
  9
$INTERSECTIONCOLOR
 70
   257
  9
$DIMASSOC
280
     2
  9
$PROJECTNAME
  1

  9
$CAMERADISPLAY
290
     0
  9
$LENSLENGTH
 40
50.0
  9
$CAMERAHEIGHT
 40
0.0
  9
$STEPSPERSEC
 40
2.0
  9
$STEPSIZE
 40
6.0
  9
$3DDWFPREC
 40
2.0
  9
$PSOLWIDTH
 40
0.25
  9
$PSOLHEIGHT
 40
4.0
  9
$LOFTANG1
 40
1.570796326794897
  9
$LOFTANG2
 40
1.570796326794897
  9
$LOFTMAG1
 40
0.0
  9
$LOFTMAG2
 40
0.0
  9
$LOFTPARAM
 70
     7
  9
$LOFTNORMALS
280
     1
  9
$LATITUDE
 40
37.795
  9
$LONGITUDE
 40
-122.394
  9
$NORTHDIRECTION
 40
0.0
  9
$TIMEZONE
 70
 -8000
  9
$LIGHTGLYPHDISPLAY
280
     1
  9
$TILEMODELIGHTSYNCH
280
     1
  9
$CMATERIAL
347
3C
  9
$SOLIDHIST
280
     1
  9
$SHOWHIST
280
     1
  9
$DWFFRAME
280
     2
  9
$DGNFRAME
280
     2
  9
$REALWORLDSCALE
290
     1
  9
$INTERFERECOLOR
 62
   256
  9
$CSHADOW
280
     0
  9
$SHADOWPLANELOCATION
 40
0.0
  0
ENDSEC
  0
SECTION
  2
CLASSES
  0
CLASS
  1
ACDBDICTIONARYWDFLT
  2
AcDbDictionaryWithDefault
  3
ObjectDBX Classes
 90
        0
 91
        4
280
     0
281
     0
  0
CLASS
  1
VISUALSTYLE
  2
AcDbVisualStyle
  3
ObjectDBX Classes
 90
     4095
 91
        4
280
     0
281
     0
  0
CLASS
  1
MATERIAL
  2
AcDbMaterial
  3
ObjectDBX Classes
 90
     1153
 91
        4
280
     0
281
     0
  0
CLASS
  1
SUN
  2
AcDbSun
  3
SCENEOE
 90
     1024
 91
        4
280
     0
281
     0
  0
ENDSEC
  0
SECTION
  2
TABLES
  0
TABLE
  2
VPORT
  5
8
330
0
100
AcDbSymbolTable
 70
     1
  0
VPORT
  5
29
330
8
100
AcDbSymbolTableRecord
100
AcDbViewportTableRecord
  2
*Active
 70
     0
 10
0.0
 20
0.0
 11
1.0
 21
1.0
 12
0.0
 22
0.0
 13
0.0
 23
0.0
 14
0.5
 24
0.5
 15
0.5
 25
0.5
 16
0.0
 26
0.0
 36
1.0
 17
449.9999998874991
 27
-899.9999997749982
 37
0.0
 40
1799.999999549996
 41
0.5
 42
50.0
 43
0.0
 44
0.0
 50
0.0
 51
0.0
 71
     0
 72
   100
 73
     1
 74
     3
 75
     0
 76
     0
 77
     0
 78
     0
281
     0
 65
     1
110
0.0
120
0.0
130
0.0
111
1.0
121
0.0
131
0.0
112
0.0
122
1.0
132
0.0
 79
     0
146
0.0
 60
     3
 61
     5
292
     1
282
     1
141
0.0
142
0.0
 63
   250
361
3F
  0
ENDTAB
  0
TABLE
  2
LTYPE
  5
5
330
0
100
AcDbSymbolTable
 70
     1
  0
LTYPE
  5
14
330
5
100
AcDbSymbolTableRecord
100
AcDbLinetypeTableRecord
  2
ByBlock
 70
     0
  3

 72
    65
 73
     0
 40
0.0
  0
LTYPE
  5
15
330
5
100
AcDbSymbolTableRecord
100
AcDbLinetypeTableRecord
  2
ByLayer
 70
     0
  3

 72
    65
 73
     0
 40
0.0
  0
LTYPE
  5
16
330
5
100
AcDbSymbolTableRecord
100
AcDbLinetypeTableRecord
  2
Continuous
 70
     0
  3
Solid line
 72
    65
 73
     0
 40
0.0
  0
ENDTAB
  0
TABLE
  2
LAYER
  5
2
330
0
100
AcDbSymbolTable
 70
     2
  0
LAYER
  5
10
330
2
100
AcDbSymbolTableRecord
100
AcDbLayerTableRecord
  2
0
 70
     0
 62
     7
  6
Continuous
370
    -3
390
F
347
3E
  0
LAYER
  5
40
330
2
100
AcDbSymbolTableRecord
100
AcDbLayerTableRecord
  2
Layer 1
 70
     0
 62
     7
  6
Continuous
370
    -3
390
F
347
3E
  0
ENDTAB
  0
TABLE
  2
STYLE
  5
3
330
0
100
AcDbSymbolTable
 70
     1
  0
STYLE
  5
11
330
3
100
AcDbSymbolTableRecord
100
AcDbTextStyleTableRecord
  2
Standard
 70
     0
 40
0.0
 41
1.0
 50
0.0
 71
     0
 42
0.2
  3
txt
  4

  0
ENDTAB
  0
TABLE
  2
VIEW
  5
6
330
0
100
AcDbSymbolTable
 70
     0
  0
ENDTAB
  0
TABLE
  2
UCS
  5
7
330
0
100
AcDbSymbolTable
 70
     0
  0
ENDTAB
  0
TABLE
  2
APPID
  5
9
330
0
100
AcDbSymbolTable
 70
     1
  0
APPID
  5
12
330
9
100
AcDbSymbolTableRecord
100
AcDbRegAppTableRecord
  2
ACAD
 70
     0
  0
ENDTAB
  0
TABLE
  2
DIMSTYLE
  5
A
330
0
100
AcDbSymbolTable
 70
     1
100
AcDbDimStyleTable
  0
DIMSTYLE
105
27
330
A
100
AcDbSymbolTableRecord
100
AcDbDimStyleTableRecord
  2
Standard
 70
     0
178
     0
340
11
  0
ENDTAB
  0
TABLE
  2
BLOCK_RECORD
  5
1
330
0
100
AcDbSymbolTable
 70
     6
  0
BLOCK_RECORD
  5
1F
330
1
100
AcDbSymbolTableRecord
100
AcDbBlockTableRecord
  2
*Model_Space
340
22
 70
     0
280
     1
281
     0
  0
BLOCK_RECORD
  5
1B
330
1
100
AcDbSymbolTableRecord
100
AcDbBlockTableRecord
  2
*Paper_Space
340
1E
 70
     0
280
     1
281
     0
  0
BLOCK_RECORD
  5
23
330
1
100
AcDbSymbolTableRecord
100
AcDbBlockTableRecord
  2
*Paper_Space0
340
26
 70
     0
280
     1
281
     0
  0
BLOCK_RECORD
  5
43
330
1
100
AcDbSymbolTableRecord
100
AcDbBlockTableRecord
  2
block 2
340
0
102
{BLKREFS
331
44
102
}
 70
     0
280
     1
281
     0
  0
BLOCK_RECORD
  5
7E
330
1
100
AcDbSymbolTableRecord
100
AcDbBlockTableRecord
  2
block 3
340
0
102
{BLKREFS
331
7F
102
}
 70
     0
280
     1
281
     0
  0
BLOCK_RECORD
  5
86
330
1
100
AcDbSymbolTableRecord
100
AcDbBlockTableRecord
  2
block 4
340
0
102
{BLKREFS
331
87
102
}
 70
     0
280
     1
281
     0
  0
BLOCK_RECORD
  5
8C
330
1
100
AcDbSymbolTableRecord
100
AcDbBlockTableRecord
  2
block 5
340
0
102
{BLKREFS
331
8D
102
}
 70
     0
280
     1
281
     0
  0
BLOCK_RECORD
  5
92
330
1
100
AcDbSymbolTableRecord
100
AcDbBlockTableRecord
  2
block 6
340
0
102
{BLKREFS
331
93
102
}
 70
     0
280
     1
281
     0
  0
ENDTAB
  0
ENDSEC
  0
SECTION
  2
BLOCKS
  0
BLOCK
  5
20
330
1F
100
AcDbEntity
  8
0
100
AcDbBlockBegin
  2
*Model_Space
 70
     0
 10
0.0
 20
0.0
 30
0.0
  3
*Model_Space
  1

  0
ENDBLK
  5
21
330
1F
100
AcDbEntity
  8
0
100
AcDbBlockEnd
  0
BLOCK
  5
1C
330
1B
100
AcDbEntity
 67
     1
  8
0
100
AcDbBlockBegin
  2
*Paper_Space
 70
     0
 10
0.0
 20
0.0
 30
0.0
  3
*Paper_Space
  1

  0
ENDBLK
  5
1D
330
1B
100
AcDbEntity
 67
     1
  8
0
100
AcDbBlockEnd
  0
BLOCK
  5
24
330
23
100
AcDbEntity
  8
0
100
AcDbBlockBegin
  2
*Paper_Space0
 70
     0
 10
0.0
 20
0.0
 30
0.0
  3
*Paper_Space0
  1

  0
ENDBLK
  5
25
330
23
100
AcDbEntity
  8
0
100
AcDbBlockEnd
  0
BLOCK
  5
45
330
43
100
AcDbEntity
  8
0
100
AcDbBlockBegin
  2
block 2
 70
     0
 10
0.0
 20
0.0
 30
0.0
  3
block 2
  1

  0
SPLINE
  5
47
330
43
100
AcDbEntity
  8
Layer 1
370
     0
100
AcDbSpline
210
0.0
220
0.0
230
1.0
 70
    11
 71
     3
 72
    98
 73
    94
 74
     0
 42
0.0000000001
 43
0.0000000001
 12
1.0
 22
0.0
 32
0.0
 13
1.0
 23
0.0
 33
0.0
 40
0.0
 40
0.0
 40
0.0
 40
0.0
 40
1.0
 40
1.0
 40
1.0
 40
2.0
 40
2.0
 40
2.0
 40
3.0
 40
3.0
 40
3.0
 40
4.0
 40
4.0
 40
4.0
 40
5.0
 40
5.0
 40
5.0
 40
6.0
 40
6.0
 40
6.0
 40
7.0
 40
7.0
 40
7.0
 40
8.0
 40
8.0
 40
8.0
 40
9.0
 40
9.0
 40
9.0
 40
10.0
 40
10.0
 40
10.0
 40
11.0
 40
11.0
 40
11.0
 40
12.0
 40
12.0
 40
12.0
 40
13.0
 40
13.0
 40
13.0
 40
14.0
 40
14.0
 40
14.0
 40
15.0
 40
15.0
 40
15.0
 40
16.0
 40
16.0
 40
16.0
 40
17.0
 40
17.0
 40
17.0
 40
18.0
 40
18.0
 40
18.0
 40
19.0
 40
19.0
 40
19.0
 40
20.0
 40
20.0
 40
20.0
 40
21.0
 40
21.0
 40
21.0
 40
22.0
 40
22.0
 40
22.0
 40
23.0
 40
23.0
 40
23.0
 40
24.0
 40
24.0
 40
24.0
 40
25.0
 40
25.0
 40
25.0
 40
26.0
 40
26.0
 40
26.0
 40
27.0
 40
27.0
 40
27.0
 40
28.0
 40
28.0
 40
28.0
 40
29.0
 40
29.0
 40
29.0
 40
30.0
 40
30.0
 40
30.0
 40
31.0
 40
31.0
 40
31.0
 40
31.0
 10
293.4519415227742
 20
-1588.492190415471
 30
0.0
 10
231.4359164189206
 20
-1611.220949497244
 30
0.0
 10
170.8013530728053
 20
-1598.551783105012
 30
0.0
 10
126.0080923825062
 20
-1572.691776736696
 30
0.0
 10
137.9422261211134
 20
-1589.14305508002
 30
0.0
 10
151.0999070531539
 20
-1604.647879566161
 30
0.0
 10
165.3453984165087
 20
-1619.076972987033
 30
0.0
 10
170.2504177091735
 20
-1620.975177535713
 30
0.0
 10
175.2394542679849
 20
-1622.792594595264
 30
0.0
 10
180.3109577999743
 20
-1624.5184151786
 30
0.0
 10
255.5088871634991
 20
-1650.10298616287
 30
0.0
 10
340.6725088327464
 20
-1622.748928009987
 30
0.0
 10
386.4235706634863
 20
-1586.115849677131
 30
0.0
 10
483.3586960325911
 20
-1508.495436827613
 30
0.0
 10
508.2728944991247
 20
-1403.209959830281
 30
0.0
 10
465.2641932701877
 20
-1311.575845948023
 30
0.0
 10
446.4453161183139
 20
-1271.491384830659
 30
0.0
 10
419.4613904116277
 20
-1230.144791450422
 30
0.0
 10
356.4644389638898
 20
-1207.196256808534
 30
0.0
 10
327.0589556406202
 20
-1196.485928645523
 30
0.0
 10
292.3446447701213
 20
-1187.644715506186
 30
0.0
 10
258.0080670877333
 20
-1195.78541154229
 30
0.0
 10
226.2172427141705
 20
-1203.325196798382
 30
0.0
 10
204.8784720014605
 20
-1224.172137066877
 30
0.0
 10
186.8253749804204
 20
-1240.22100672568
 30
0.0
 10
102.7535471341427
 20
-1314.954709472571
 30
0.0
 10
87.03921777880444
 20
-1418.911585396015
 30
0.0
 10
151.8471913275984
 20
-1500.786518915043
 30
0.0
 10
181.7390575378443
 20
-1538.555014592452
 30
0.0
 10
250.8054705522617
 20
-1568.409264666367
 30
0.0
 10
305.8805971864422
 20
-1527.476276530986
 30
0.0
 10
328.4508388122015
 20
-1510.699695046465
 30
0.0
 10
343.9530148811884
 20
-1490.042988644292
 30
0.0
 10
354.6637952129834
 20
-1469.790908706865
 30
0.0
 10
360.7642626390302
 20
-1458.259312843863
 30
0.0
 10
384.4469901925168
 20
-1417.078708470477
 30
0.0
 10
371.0869960281069
 20
-1406.102720381857
 30
0.0
 10
358.1253840928698
 20
-1442.234537321608
 30
0.0
 10
343.0216333167511
 20
-1497.012115365096
 30
0.0
 10
280.1384992111069
 20
-1516.156037276003
 30
0.0
 10
224.0647470549864
 20
-1533.225494940463
 30
0.0
 10
169.8744070688053
 20
-1507.686183898127
 30
0.0
 10
147.7181151974455
 20
-1478.321137383118
 30
0.0
 10
99.55066339335235
 20
-1414.491011124117
 30
0.0
 10
120.4185541487691
 20
-1317.584781493396
 30
0.0
 10
186.1268603389392
 20
-1260.21642704946
 30
0.0
 10
217.6072170137406
 20
-1232.726502943375
 30
0.0
 10
269.9968917171688
 20
-1203.94710112901
 30
0.0
 10
330.5464258003387
 20
-1216.765203305438
 30
0.0
 10
385.1248127292396
 20
-1228.317964973827
 30
0.0
 10
416.5431361534617
 20
-1257.803826681139
 30
0.0
 10
435.5016688635658
 20
-1288.282952480541
 30
0.0
 10
457.8494434483625
 20
-1324.203585067047
 30
0.0
 10
459.8829541222274
 20
-1363.216104724175
 30
0.0
 10
461.2334315524453
 20
-1401.035889260618
 30
0.0
 10
462.6408391855551
 20
-1440.465136280384
 30
0.0
 10
453.5755010530577
 20
-1480.108711303025
 30
0.0
 10
428.5784911037929
 20
-1516.926016116957
 30
0.0
 10
407.3794405448565
 20
-1548.154127206696
 30
0.0
 10
373.2187780506831
 20
-1578.883905234495
 30
0.0
 10
326.1741474607742
 20
-1598.903527354056
 30
0.0
 10
304.1679110296438
 20
-1608.270225214127
 30
0.0
 10
278.7569728578281
 20
-1614.71694626829
 30
0.0
 10
251.8661939203234
 20
-1617.374148416063
 30
0.0
 10
242.702519843567
 20
-1618.28003627391
 30
0.0
 10
179.3899330538396
 20
-1621.574322704291
 30
0.0
 10
179.3899330538396
 20
-1614.315334262095
 30
0.0
 10
206.8240035493682
 20
-1609.924818448307
 30
0.0
 10
236.1260048169993
 20
-1611.978095357516
 30
0.0
 10
263.7463688508928
 20
-1607.149966289713
 30
0.0
 10
289.6229762730804
 20
-1602.623713713803
 30
0.0
 10
313.0314526940946
 20
-1594.437736203915
 30
0.0
 10
332.7351595576582
 20
-1583.70927822591
 30
0.0
 10
374.771095012644
 20
-1560.821097350555
 30
0.0
 10
404.5128627189692
 20
-1528.792819770674
 30
0.0
 10
422.4676668594458
 20
-1497.235443679929
 30
0.0
 10
443.3355576148606
 20
-1460.557148468828
 30
0.0
 10
449.2911803076011
 20
-1421.369488769967
 30
0.0
 10
442.3317429178478
 20
-1383.009211815581
 30
0.0
 10
438.7925532621542
 20
-1363.475778796378
 30
0.0
 10
433.8407452664304
 20
-1343.175381394769
 30
0.0
 10
426.0845003546353
 20
-1324.07680555319
 30
0.0
 10
422.45733157299
 20
-1315.150993787841
 30
0.0
 10
411.3326014867955
 20
-1285.345061178105
 30
0.0
 10
395.7114189006381
 20
-1282.799609315135
 30
0.0
 10
408.4608560176765
 20
-1310.917574328181
 30
0.0
 10
424.3407652747761
 20
-1336.752819072696
 30
0.0
 10
428.6095400268528
 20
-1366.123937568501
 30
0.0
 10
432.8058816463578
 20
-1394.963477830931
 30
0.0
 10
429.5719705143537
 20
-1424.920520941388
 30
0.0
 10
421.2775586240662
 20
-1453.434025979833
 30
0.0
 10
406.7792187839408
 20
-1503.280681918979
 30
0.0
 10
370.3729138613999
 20
-1560.301749206154
 30
0.0
 10
293.4519415227742
 20
-1588.492190415471
 30
0.0
  0
HATCH
  5
48
330
43
100
AcDbEntity
  8
Layer 1
 62
    45
420
 10783355
100
AcDbHatch
 10
0.0
 20
0.0
 30
0.0
210
0.0
220
0.0
230
1.0
  2
SOLID
 70
     1
 71
     0
 91
        1
 92
        1
 93
        1
 72
     4
 94
        3
 73
     0
 74
     1
 95
       98
 96
       94
 40
0.0
 40
0.0
 40
0.0
 40
0.0
 40
1.0
 40
1.0
 40
1.0
 40
2.0
 40
2.0
 40
2.0
 40
3.0
 40
3.0
 40
3.0
 40
4.0
 40
4.0
 40
4.0
 40
5.0
 40
5.0
 40
5.0
 40
6.0
 40
6.0
 40
6.0
 40
7.0
 40
7.0
 40
7.0
 40
8.0
 40
8.0
 40
8.0
 40
9.0
 40
9.0
 40
9.0
 40
10.0
 40
10.0
 40
10.0
 40
11.0
 40
11.0
 40
11.0
 40
12.0
 40
12.0
 40
12.0
 40
13.0
 40
13.0
 40
13.0
 40
14.0
 40
14.0
 40
14.0
 40
15.0
 40
15.0
 40
15.0
 40
16.0
 40
16.0
 40
16.0
 40
17.0
 40
17.0
 40
17.0
 40
18.0
 40
18.0
 40
18.0
 40
19.0
 40
19.0
 40
19.0
 40
20.0
 40
20.0
 40
20.0
 40
21.0
 40
21.0
 40
21.0
 40
22.0
 40
22.0
 40
22.0
 40
23.0
 40
23.0
 40
23.0
 40
24.0
 40
24.0
 40
24.0
 40
25.0
 40
25.0
 40
25.0
 40
26.0
 40
26.0
 40
26.0
 40
27.0
 40
27.0
 40
27.0
 40
28.0
 40
28.0
 40
28.0
 40
29.0
 40
29.0
 40
29.0
 40
30.0
 40
30.0
 40
30.0
 40
31.0
 40
31.0
 40
31.0
 40
31.0
 10
293.4519415227742
 20
-1588.492190415471
 10
231.4359164189206
 20
-1611.220949497244
 10
170.8013530728053
 20
-1598.551783105012
 10
126.0080923825062
 20
-1572.691776736696
 10
137.9422261211134
 20
-1589.14305508002
 10
151.0999070531539
 20
-1604.647879566161
 10
165.3453984165087
 20
-1619.076972987033
 10
170.2504177091735
 20
-1620.975177535713
 10
175.2394542679849
 20
-1622.792594595264
 10
180.3109577999743
 20
-1624.5184151786
 10
255.5088871634991
 20
-1650.10298616287
 10
340.6725088327464
 20
-1622.748928009987
 10
386.4235706634863
 20
-1586.115849677131
 10
483.3586960325911
 20
-1508.495436827613
 10
508.2728944991247
 20
-1403.209959830281
 10
465.2641932701877
 20
-1311.575845948023
 10
446.4453161183139
 20
-1271.491384830659
 10
419.4613904116277
 20
-1230.144791450422
 10
356.4644389638898
 20
-1207.196256808534
 10
327.0589556406202
 20
-1196.485928645523
 10
292.3446447701213
 20
-1187.644715506186
 10
258.0080670877333
 20
-1195.78541154229
 10
226.2172427141705
 20
-1203.325196798382
 10
204.8784720014605
 20
-1224.172137066877
 10
186.8253749804204
 20
-1240.22100672568
 10
102.7535471341427
 20
-1314.954709472571
 10
87.03921777880444
 20
-1418.911585396015
 10
151.8471913275984
 20
-1500.786518915043
 10
181.7390575378443
 20
-1538.555014592452
 10
250.8054705522617
 20
-1568.409264666367
 10
305.8805971864422
 20
-1527.476276530986
 10
328.4508388122015
 20
-1510.699695046465
 10
343.9530148811884
 20
-1490.042988644292
 10
354.6637952129834
 20
-1469.790908706865
 10
360.7642626390302
 20
-1458.259312843863
 10
384.4469901925168
 20
-1417.078708470477
 10
371.0869960281069
 20
-1406.102720381857
 10
358.1253840928698
 20
-1442.234537321608
 10
343.0216333167511
 20
-1497.012115365096
 10
280.1384992111069
 20
-1516.156037276003
 10
224.0647470549864
 20
-1533.225494940463
 10
169.8744070688053
 20
-1507.686183898127
 10
147.7181151974455
 20
-1478.321137383118
 10
99.55066339335235
 20
-1414.491011124117
 10
120.4185541487691
 20
-1317.584781493396
 10
186.1268603389392
 20
-1260.21642704946
 10
217.6072170137406
 20
-1232.726502943375
 10
269.9968917171688
 20
-1203.94710112901
 10
330.5464258003387
 20
-1216.765203305438
 10
385.1248127292396
 20
-1228.317964973827
 10
416.5431361534617
 20
-1257.803826681139
 10
435.5016688635658
 20
-1288.282952480541
 10
457.8494434483625
 20
-1324.203585067047
 10
459.8829541222274
 20
-1363.216104724175
 10
461.2334315524453
 20
-1401.035889260618
 10
462.6408391855551
 20
-1440.465136280384
 10
453.5755010530577
 20
-1480.108711303025
 10
428.5784911037929
 20
-1516.926016116957
 10
407.3794405448565
 20
-1548.154127206696
 10
373.2187780506831
 20
-1578.883905234495
 10
326.1741474607742
 20
-1598.903527354056
 10
304.1679110296438
 20
-1608.270225214127
 10
278.7569728578281
 20
-1614.71694626829
 10
251.8661939203234
 20
-1617.374148416063
 10
242.702519843567
 20
-1618.28003627391
 10
179.3899330538396
 20
-1621.574322704291
 10
179.3899330538396
 20
-1614.315334262095
 10
206.8240035493682
 20
-1609.924818448307
 10
236.1260048169993
 20
-1611.978095357516
 10
263.7463688508928
 20
-1607.149966289713
 10
289.6229762730804
 20
-1602.623713713803
 10
313.0314526940946
 20
-1594.437736203915
 10
332.7351595576582
 20
-1583.70927822591
 10
374.771095012644
 20
-1560.821097350555
 10
404.5128627189692
 20
-1528.792819770674
 10
422.4676668594458
 20
-1497.235443679929
 10
443.3355576148606
 20
-1460.557148468828
 10
449.2911803076011
 20
-1421.369488769967
 10
442.3317429178478
 20
-1383.009211815581
 10
438.7925532621542
 20
-1363.475778796378
 10
433.8407452664304
 20
-1343.175381394769
 10
426.0845003546353
 20
-1324.07680555319
 10
422.45733157299
 20
-1315.150993787841
 10
411.3326014867955
 20
-1285.345061178105
 10
395.7114189006381
 20
-1282.799609315135
 10
408.4608560176765
 20
-1310.917574328181
 10
424.3407652747761
 20
-1336.752819072696
 10
428.6095400268528
 20
-1366.123937568501
 10
432.8058816463578
 20
-1394.963477830931
 10
429.5719705143537
 20
-1424.920520941388
 10
421.2775586240662
 20
-1453.434025979833
 10
406.7792187839408
 20
-1503.280681918979
 10
370.3729138613999
 20
-1560.301749206154
 10
293.4519415227742
 20
-1588.492190415471
 97
        0
 97
        0
 75
     2
 76
     1
 98
        0
  0
SPLINE
  5
49
330
43
100
AcDbEntity
  8
Layer 1
370
     0
100
AcDbSpline
210
0.0
220
0.0
230
1.0
 70
    11
 71
     3
 72
    41
 73
    37
 74
     0
 42
0.0000000001
 43
0.0000000001
 12
1.0
 22
0.0
 32
0.0
 13
1.0
 23
0.0
 33
0.0
 40
0.0
 40
0.0
 40
0.0
 40
0.0
 40
1.0
 40
1.0
 40
1.0
 40
2.0
 40
2.0
 40
2.0
 40
3.0
 40
3.0
 40
3.0
 40
4.0
 40
4.0
 40
4.0
 40
5.0
 40
5.0
 40
5.0
 40
6.0
 40
6.0
 40
6.0
 40
7.0
 40
7.0
 40
7.0
 40
8.0
 40
8.0
 40
8.0
 40
9.0
 40
9.0
 40
9.0
 40
10.0
 40
10.0
 40
10.0
 40
11.0
 40
11.0
 40
11.0
 40
12.0
 40
12.0
 40
12.0
 40
12.0
 10
732.9871281804685
 20
-1502.320447679851
 30
0.0
 10
736.5314424156936
 20
-1479.039784301341
 30
0.0
 10
738.4614710339196
 20
-1455.686515535478
 30
0.0
 10
739.6619145557548
 20
-1432.327433170982
 30
0.0
 10
742.1042288726337
 20
-1384.718280622121
 30
0.0
 10
742.171408234596
 20
-1337.057796150529
 30
0.0
 10
743.0562810099825
 20
-1289.430427659289
 30
0.0
 10
744.6654851111427
 20
-1203.110825731811
 30
0.0
 10
739.0358545786959
 20
-1125.762166320537
 30
0.0
 10
654.5034605297354
 20
-1051.475357053628
 30
0.0
 10
588.5778549418312
 20
-993.5393585329556
 30
0.0
 10
474.8884120177816
 20
-923.781837832349
 30
0.0
 10
344.5635719285618
 20
-953.2405263490198
 30
0.0
 10
336.0042321954586
 20
-955.1754642283104
 30
0.0
 10
327.6206138639499
 20
-957.392576959691
 30
0.0
 10
319.4530460830599
 20
-959.863485569098
 30
0.0
 10
284.7255146586364
 20
-971.8484990616518
 30
0.0
 10
252.1617615811111
 20
-988.475563402113
 30
0.0
 10
222.5107506089774
 20
-1009.013349414504
 30
0.0
 10
238.1149015043276
 20
-1001.425375885315
 30
0.0
 10
254.5418273289427
 20
-994.3997711303966
 30
0.0
 10
271.9010390555599
 20
-988.2823366090867
 30
0.0
 10
322.2002944140788
 20
-970.5485353439888
 30
0.0
 10
381.0837157250416
 20
-960.683698208595
 30
0.0
 10
439.8377521686864
 20
-967.0670079739812
 30
0.0
 10
557.5942164404626
 20
-979.8608222272383
 30
0.0
 10
635.8398279931687
 20
-1045.783391824746
 30
0.0
 10
677.3013799033763
 20
-1106.482378456433
 30
0.0
 10
725.8983274552442
 20
-1177.634925978251
 30
0.0
 10
726.2553254749051
 20
-1253.582508119366
 30
0.0
 10
727.4764395696519
 20
-1329.046829491289
 30
0.0
 10
728.7183103646954
 20
-1405.652661720402
 30
0.0
 10
724.6667919466564
 20
-1482.062338825325
 30
0.0
 10
696.2961722434607
 20
-1557.116155538333
 30
0.0
 10
729.5616697394846
 20
-1540.922311955141
 30
0.0
 10
729.2150070062833
 20
-1527.119967530422
 30
0.0
 10
732.9871281804685
 20
-1502.320447679851
 30
0.0
  0
HATCH
  5
4A
330
43
100
AcDbEntity
  8
Layer 1
 62
    45
420
 10783355
100
AcDbHatch
 10
0.0
 20
0.0
 30
0.0
210
0.0
220
0.0
230
1.0
  2
SOLID
 70
     1
 71
     0
 91
        1
 92
        1
 93
        1
 72
     4
 94
        3
 73
     0
 74
     1
 95
       41
 96
       37
 40
0.0
 40
0.0
 40
0.0
 40
0.0
 40
1.0
 40
1.0
 40
1.0
 40
2.0
 40
2.0
 40
2.0
 40
3.0
 40
3.0
 40
3.0
 40
4.0
 40
4.0
 40
4.0
 40
5.0
 40
5.0
 40
5.0
 40
6.0
 40
6.0
 40
6.0
 40
7.0
 40
7.0
 40
7.0
 40
8.0
 40
8.0
 40
8.0
 40
9.0
 40
9.0
 40
9.0
 40
10.0
 40
10.0
 40
10.0
 40
11.0
 40
11.0
 40
11.0
 40
12.0
 40
12.0
 40
12.0
 40
12.0
 10
732.9871281804685
 20
-1502.320447679851
 10
736.5314424156936
 20
-1479.039784301341
 10
738.4614710339196
 20
-1455.686515535478
 10
739.6619145557548
 20
-1432.327433170982
 10
742.1042288726337
 20
-1384.718280622121
 10
742.171408234596
 20
-1337.057796150529
 10
743.0562810099825
 20
-1289.430427659289
 10
744.6654851111427
 20
-1203.110825731811
 10
739.0358545786959
 20
-1125.762166320537
 10
654.5034605297354
 20
-1051.475357053628
 10
588.5778549418312
 20
-993.5393585329556
 10
474.8884120177816
 20
-923.781837832349
 10
344.5635719285618
 20
-953.2405263490198
 10
336.0042321954586
 20
-955.1754642283104
 10
327.6206138639499
 20
-957.392576959691
 10
319.4530460830599
 20
-959.863485569098
 10
284.7255146586364
 20
-971.8484990616518
 10
252.1617615811111
 20
-988.475563402113
 10
222.5107506089774
 20
-1009.013349414504
 10
238.1149015043276
 20
-1001.425375885315
 10
254.5418273289427
 20
-994.3997711303966
 10
271.9010390555599
 20
-988.2823366090867
 10
322.2002944140788
 20
-970.5485353439888
 10
381.0837157250416
 20
-960.683698208595
 10
439.8377521686864
 20
-967.0670079739812
 10
557.5942164404626
 20
-979.8608222272383
 10
635.8398279931687
 20
-1045.783391824746
 10
677.3013799033763
 20
-1106.482378456433
 10
725.8983274552442
 20
-1177.634925978251
 10
726.2553254749051
 20
-1253.582508119366
 10
727.4764395696519
 20
-1329.046829491289
 10
728.7183103646954
 20
-1405.652661720402
 10
724.6667919466564
 20
-1482.062338825325
 10
696.2961722434607
 20
-1557.116155538333
 10
729.5616697394846
 20
-1540.922311955141
 10
729.2150070062833
 20
-1527.119967530422
 10
732.9871281804685
 20
-1502.320447679851
 97
        0
 97
        0
 75
     2
 76
     1
 98
        0
  0
SPLINE
  5
4B
330
43
100
AcDbEntity
  8
Layer 1
370
     0
100
AcDbSpline
210
0.0
220
0.0
230
1.0
 70
    11
 71
     3
 72
    41
 73
    37
 74
     0
 42
0.0000000001
 43
0.0000000001
 12
1.0
 22
0.0
 32
0.0
 13
1.0
 23
0.0
 33
0.0
 40
0.0
 40
0.0
 40
0.0
 40
0.0
 40
1.0
 40
1.0
 40
1.0
 40
2.0
 40
2.0
 40
2.0
 40
3.0
 40
3.0
 40
3.0
 40
4.0
 40
4.0
 40
4.0
 40
5.0
 40
5.0
 40
5.0
 40
6.0
 40
6.0
 40
6.0
 40
7.0
 40
7.0
 40
7.0
 40
8.0
 40
8.0
 40
8.0
 40
9.0
 40
9.0
 40
9.0
 40
10.0
 40
10.0
 40
10.0
 40
11.0
 40
11.0
 40
11.0
 40
12.0
 40
12.0
 40
12.0
 40
12.0
 10
505.613323848208
 20
-1579.294689807418
 30
0.0
 10
510.5082016410362
 20
-1571.172145118152
 30
0.0
 10
514.9891512113154
 20
-1562.946893519729
 30
0.0
 10
519.2009957605
 20
-1554.694468730668
 30
0.0
 10
529.0010866326159
 20
-1535.472041706394
 30
0.0
 10
536.9746740058382
 20
-1515.923493330749
 30
0.0
 10
543.3028407116154
 20
-1496.211948874954
 30
0.0
 10
555.5710841167496
 20
-1457.993566790868
 30
0.0
 10
562.1475991433173
 20
-1418.978032675188
 30
0.0
 10
561.4128464037026
 20
-1380.080277761411
 30
0.0
 10
560.1140884694556
 20
-1311.612105578007
 30
0.0
 10
543.9909985347941
 20
-1231.85084579841
 30
0.0
 10
473.1498445811503
 20
-1174.911298083153
 30
0.0
 10
407.1569735038985
 20
-1121.869983568691
 30
0.0
 10
292.0859396310258
 20
-1103.758621370254
 30
0.0
 10
193.7382389855824
 20
-1138.051726253991
 30
0.0
 10
145.177529531848
 20
-1154.98531796525
 30
0.0
 10
107.9537034506591
 20
-1181.137597621798
 30
0.0
 10
82.37718537708398
 20
-1210.30941734378
 30
0.0
 10
74.97391202959636
 20
-1218.750741024666
 30
0.0
 10
68.79644671945486
 20
-1227.493618219748
 30
0.0
 10
63.05749900089145
 20
-1236.342066059604
 30
0.0
 10
59.61401840415031
 20
-1249.475868173563
 30
0.0
 10
56.81832341787008
 20
-1262.871648267327
 30
0.0
 10
54.71332701268918
 20
-1276.496075042081
 30
0.0
 10
79.7737913144207
 20
-1219.991599822916
 30
0.0
 10
127.5735653028509
 20
-1168.534404808108
 30
0.0
 10
217.6175738320431
 20
-1148.351377503313
 30
0.0
 10
384.4573254789725
 20
-1110.957342173306
 30
0.0
 10
497.251646468569
 20
-1209.183129502267
 30
0.0
 10
527.2573515527566
 20
-1291.471732861688
 30
0.0
 10
563.8758312934929
 20
-1391.907807326596
 30
0.0
 10
539.4842107483755
 20
-1500.572147848475
 30
0.0
 10
475.7783663090068
 20
-1595.023488563793
 30
0.0
 10
498.3693215713732
 20
-1593.734161578438
 30
0.0
 10
497.9657286352762
 20
-1591.979789766268
 30
0.0
 10
505.613323848208
 20
-1579.294689807418
 30
0.0
  0
HATCH
  5
4C
330
43
100
AcDbEntity
  8
Layer 1
 62
    45
420
 10783355
100
AcDbHatch
 10
0.0
 20
0.0
 30
0.0
210
0.0
220
0.0
230
1.0
  2
SOLID
 70
     1
 71
     0
 91
        1
 92
        1
 93
        1
 72
     4
 94
        3
 73
     0
 74
     1
 95
       41
 96
       37
 40
0.0
 40
0.0
 40
0.0
 40
0.0
 40
1.0
 40
1.0
 40
1.0
 40
2.0
 40
2.0
 40
2.0
 40
3.0
 40
3.0
 40
3.0
 40
4.0
 40
4.0
 40
4.0
 40
5.0
 40
5.0
 40
5.0
 40
6.0
 40
6.0
 40
6.0
 40
7.0
 40
7.0
 40
7.0
 40
8.0
 40
8.0
 40
8.0
 40
9.0
 40
9.0
 40
9.0
 40
10.0
 40
10.0
 40
10.0
 40
11.0
 40
11.0
 40
11.0
 40
12.0
 40
12.0
 40
12.0
 40
12.0
 10
505.613323848208
 20
-1579.294689807418
 10
510.5082016410362
 20
-1571.172145118152
 10
514.9891512113154
 20
-1562.946893519729
 10
519.2009957605
 20
-1554.694468730668
 10
529.0010866326159
 20
-1535.472041706394
 10
536.9746740058382
 20
-1515.923493330749
 10
543.3028407116154
 20
-1496.211948874954
 10
555.5710841167496
 20
-1457.993566790868
 10
562.1475991433173
 20
-1418.978032675188
 10
561.4128464037026
 20
-1380.080277761411
 10
560.1140884694556
 20
-1311.612105578007
 10
543.9909985347941
 20
-1231.85084579841
 10
473.1498445811503
 20
-1174.911298083153
 10
407.1569735038985
 20
-1121.869983568691
 10
292.0859396310258
 20
-1103.758621370254
 10
193.7382389855824
 20
-1138.051726253991
 10
145.177529531848
 20
-1154.98531796525
 10
107.9537034506591
 20
-1181.137597621798
 10
82.37718537708398
 20
-1210.30941734378
 10
74.97391202959636
 20
-1218.750741024666
 10
68.79644671945486
 20
-1227.493618219748
 10
63.05749900089145
 20
-1236.342066059604
 10
59.61401840415031
 20
-1249.475868173563
 10
56.81832341787008
 20
-1262.871648267327
 10
54.71332701268918
 20
-1276.496075042081
 10
79.7737913144207
 20
-1219.991599822916
 10
127.5735653028509
 20
-1168.534404808108
 10
217.6175738320431
 20
-1148.351377503313
 10
384.4573254789725
 20
-1110.957342173306
 10
497.251646468569
 20
-1209.183129502267
 10
527.2573515527566
 20
-1291.471732861688
 10
563.8758312934929
 20
-1391.907807326596
 10
539.4842107483755
 20
-1500.572147848475
 10
475.7783663090068
 20
-1595.023488563793
 10
498.3693215713732
 20
-1593.734161578438
 10
497.9657286352762
 20
-1591.979789766268
 10
505.613323848208
 20
-1579.294689807418
 97
        0
 97
        0
 75
     2
 76
     1
 98
        0
  0
SPLINE
  5
4D
330
43
100
AcDbEntity
  8
Layer 1
370
     0
100
AcDbSpline
210
0.0
220
0.0
230
1.0
 70
    11
 71
     3
 72
    14
 73
    10
 74
     0
 42
0.0000000001
 43
0.0000000001
 12
1.0
 22
0.0
 32
0.0
 13
1.0
 23
0.0
 33
0.0
 40
0.0
 40
0.0
 40
0.0
 40
0.0
 40
1.0
 40
1.0
 40
1.0
 40
2.0
 40
2.0
 40
2.0
 40
3.0
 40
3.0
 40
3.0
 40
3.0
 10
778.8726994580596
 20
-1561.135160867729
 30
0.0
 10
779.1353018614248
 20
-1562.065551967217
 30
0.0
 10
779.5819584910873
 20
-1562.994780346974
 30
0.0
 10
780.200525385464
 20
-1563.882667580912
 30
0.0
 10
785.389269823184
 20
-1556.310003194784
 30
0.0
 10
790.3265222904846
 20
-1548.551734289387
 30
0.0
 10
794.9955740742546
 20
-1540.616215221277
 30
0.0
 10
785.4441329687885
 20
-1546.663046816988
 30
0.0
 10
777.2057900075215
 20
-1555.235951613561
 30
0.0
 10
778.8726994580596
 20
-1561.135160867729
 30
0.0
  0
HATCH
  5
4E
330
43
100
AcDbEntity
  8
Layer 1
 62
    45
420
 10783355
100
AcDbHatch
 10
0.0
 20
0.0
 30
0.0
210
0.0
220
0.0
230
1.0
  2
SOLID
 70
     1
 71
     0
 91
        1
 92
        1
 93
        1
 72
     4
 94
        3
 73
     0
 74
     1
 95
       14
 96
       10
 40
0.0
 40
0.0
 40
0.0
 40
0.0
 40
1.0
 40
1.0
 40
1.0
 40
2.0
 40
2.0
 40
2.0
 40
3.0
 40
3.0
 40
3.0
 40
3.0
 10
778.8726994580596
 20
-1561.135160867729
 10
779.1353018614248
 20
-1562.065551967217
 10
779.5819584910873
 20
-1562.994780346974
 10
780.200525385464
 20
-1563.882667580912
 10
785.389269823184
 20
-1556.310003194784
 10
790.3265222904846
 20
-1548.551734289387
 10
794.9955740742546
 20
-1540.616215221277
 10
785.4441329687885
 20
-1546.663046816988
 10
777.2057900075215
 20
-1555.235951613561
 10
778.8726994580596
 20
-1561.135160867729
 97
        0
 97
        0
 75
     2
 76
     1
 98
        0
  0
SPLINE
  5
4F
330
43
100
AcDbEntity
  8
Layer 1
370
     0
100
AcDbSpline
210
0.0
220
0.0
230
1.0
 70
    11
 71
     3
 72
    17
 73
    13
 74
     0
 42
0.0000000001
 43
0.0000000001
 12
1.0
 22
0.0
 32
0.0
 13
1.0
 23
0.0
 33
0.0
 40
0.0
 40
0.0
 40
0.0
 40
0.0
 40
1.0
 40
1.0
 40
1.0
 40
2.0
 40
2.0
 40
2.0
 40
3.0
 40
3.0
 40
3.0
 40
4.0
 40
4.0
 40
4.0
 40
4.0
 10
846.1910710232613
 20
-1393.470761020865
 30
0.0
 10
848.7001340651688
 20
-1375.362133366972
 30
0.0
 10
849.9999685917535
 20
-1356.866922935941
 30
0.0
 10
849.9999685917535
 20
-1338.067941210497
 30
0.0
 10
849.9999685917535
 20
-1319.316889375994
 30
0.0
 10
848.706162982268
 20
-1300.868403052481
 30
0.0
 10
846.2096745388817
 20
-1282.804044875574
 30
0.0
 10
842.7961878047109
 20
-1289.166877854667
 30
0.0
 10
839.9867124364897
 20
-1295.624967723931
 30
0.0
 10
838.3873268574624
 20
-1302.242479386773
 30
0.0
 10
830.9331737560274
 20
-1333.057222081976
 30
0.0
 10
837.7159638747725
 20
-1363.150432591488
 30
0.0
 10
846.1910710232613
 20
-1393.470761020865
 30
0.0
  0
HATCH
  5
50
330
43
100
AcDbEntity
  8
Layer 1
 62
    45
420
 10783355
100
AcDbHatch
 10
0.0
 20
0.0
 30
0.0
210
0.0
220
0.0
230
1.0
  2
SOLID
 70
     1
 71
     0
 91
        1
 92
        1
 93
        1
 72
     4
 94
        3
 73
     0
 74
     1
 95
       17
 96
       13
 40
0.0
 40
0.0
 40
0.0
 40
0.0
 40
1.0
 40
1.0
 40
1.0
 40
2.0
 40
2.0
 40
2.0
 40
3.0
 40
3.0
 40
3.0
 40
4.0
 40
4.0
 40
4.0
 40
4.0
 10
846.1910710232613
 20
-1393.470761020865
 10
848.7001340651688
 20
-1375.362133366972
 10
849.9999685917535
 20
-1356.866922935941
 10
849.9999685917535
 20
-1338.067941210497
 10
849.9999685917535
 20
-1319.316889375994
 10
848.706162982268
 20
-1300.868403052481
 10
846.2096745388817
 20
-1282.804044875574
 10
842.7961878047109
 20
-1289.166877854667
 10
839.9867124364897
 20
-1295.624967723931
 10
838.3873268574624
 20
-1302.242479386773
 10
830.9331737560274
 20
-1333.057222081976
 10
837.7159638747725
 20
-1363.150432591488
 10
846.1910710232613
 20
-1393.470761020865
 97
        0
 97
        0
 75
     2
 76
     1
 98
        0
  0
SPLINE
  5
51
330
43
100
AcDbEntity
  8
Layer 1
370
     0
100
AcDbSpline
210
0.0
220
0.0
230
1.0
 70
    11
 71
     3
 72
    23
 73
    19
 74
     0
 42
0.0000000001
 43
0.0000000001
 12
1.0
 22
0.0
 32
0.0
 13
1.0
 23
0.0
 33
0.0
 40
0.0
 40
0.0
 40
0.0
 40
0.0
 40
1.0
 40
1.0
 40
1.0
 40
2.0
 40
2.0
 40
2.0
 40
3.0
 40
3.0
 40
3.0
 40
4.0
 40
4.0
 40
4.0
 40
5.0
 40
5.0
 40
5.0
 40
6.0
 40
6.0
 40
6.0
 40
6.0
 10
430.7568680428089
 20
-1310.838983087421
 30
0.0
 10
440.5259099918651
 20
-1308.492916125662
 30
0.0
 10
398.7021493550761
 20
-1261.928510314547
 30
0.0
 10
391.675489539668
 20
-1256.127981514187
 30
0.0
 10
374.2536416707595
 20
-1241.745892114837
 30
0.0
 10
350.2294190272972
 20
-1229.389906434062
 30
0.0
 10
320.9998724240903
 20
-1223.984917659102
 30
0.0
 10
246.0037179967673
 20
-1210.122197936005
 30
0.0
 10
192.6412775193853
 20
-1263.930476832873
 30
0.0
 10
169.2690176646597
 20
-1297.471581967717
 30
0.0
 10
196.9876961109636
 20
-1273.85571079849
 30
0.0
 10
230.1910957608659
 20
-1239.079625059569
 30
0.0
 10
284.0658004050578
 20
-1235.468260653463
 30
0.0
 10
332.9679834169208
 20
-1232.18902498398
 30
0.0
 10
375.9973767506187
 20
-1246.498638187054
 30
0.0
 10
401.4393638454962
 20
-1270.226087386312
 30
0.0
 10
414.9908191915007
 20
-1282.941504185435
 30
0.0
 10
422.8246648791029
 20
-1296.722747400306
 30
0.0
 10
430.7568680428089
 20
-1310.838983087421
 30
0.0
  0
HATCH
  5
52
330
43
100
AcDbEntity
  8
Layer 1
 62
    45
420
 10783355
100
AcDbHatch
 10
0.0
 20
0.0
 30
0.0
210
0.0
220
0.0
230
1.0
  2
SOLID
 70
     1
 71
     0
 91
        1
 92
        1
 93
        1
 72
     4
 94
        3
 73
     0
 74
     1
 95
       23
 96
       19
 40
0.0
 40
0.0
 40
0.0
 40
0.0
 40
1.0
 40
1.0
 40
1.0
 40
2.0
 40
2.0
 40
2.0
 40
3.0
 40
3.0
 40
3.0
 40
4.0
 40
4.0
 40
4.0
 40
5.0
 40
5.0
 40
5.0
 40
6.0
 40
6.0
 40
6.0
 40
6.0
 10
430.7568680428089
 20
-1310.838983087421
 10
440.5259099918651
 20
-1308.492916125662
 10
398.7021493550761
 20
-1261.928510314547
 10
391.675489539668
 20
-1256.127981514187
 10
374.2536416707595
 20
-1241.745892114837
 10
350.2294190272972
 20
-1229.389906434062
 10
320.9998724240903
 20
-1223.984917659102
 10
246.0037179967673
 20
-1210.122197936005
 10
192.6412775193853
 20
-1263.930476832873
 10
169.2690176646597
 20
-1297.471581967717
 10
196.9876961109636
 20
-1273.85571079849
 10
230.1910957608659
 20
-1239.079625059569
 10
284.0658004050578
 20
-1235.468260653463
 10
332.9679834169208
 20
-1232.18902498398
 10
375.9973767506187
 20
-1246.498638187054
 10
401.4393638454962
 20
-1270.226087386312
 10
414.9908191915007
 20
-1282.941504185435
 10
422.8246648791029
 20
-1296.722747400306
 10
430.7568680428089
 20
-1310.838983087421
 97
        0
 97
        0
 75
     2
 76
     1
 98
        0
  0
SPLINE
  5
53
330
43
100
AcDbEntity
  8
Layer 1
370
     0
100
AcDbSpline
210
0.0
220
0.0
230
1.0
 70
    11
 71
     3
 72
    14
 73
    10
 74
     0
 42
0.0000000001
 43
0.0000000001
 12
1.0
 22
0.0
 32
0.0
 13
1.0
 23
0.0
 33
0.0
 40
0.0
 40
0.0
 40
0.0
 40
0.0
 40
1.0
 40
1.0
 40
1.0
 40
2.0
 40
2.0
 40
2.0
 40
3.0
 40
3.0
 40
3.0
 40
3.0
 10
483.855435737868
 20
-1548.123939557508
 30
0.0
 10
477.5065984591824
 20
-1554.567646153119
 30
0.0
 10
426.2086960468786
 20
-1597.260991954078
 30
0.0
 10
431.160460978906
 20
-1602.246217376008
 30
0.0
 10
439.9101853012657
 20
-1611.069365295893
 30
0.0
 10
462.9668313458488
 20
-1585.89239217122
 30
0.0
 10
464.0171978956053
 20
-1584.246713121609
 30
0.0
 10
467.3080822941973
 20
-1579.092376575045
 30
0.0
 10
488.0311067844612
 20
-1549.935672209504
 30
0.0
 10
483.855435737868
 20
-1548.123939557508
 30
0.0
  0
HATCH
  5
54
330
43
100
AcDbEntity
  8
Layer 1
 62
    45
420
 10783355
100
AcDbHatch
 10
0.0
 20
0.0
 30
0.0
210
0.0
220
0.0
230
1.0
  2
SOLID
 70
     1
 71
     0
 91
        1
 92
        1
 93
        1
 72
     4
 94
        3
 73
     0
 74
     1
 95
       14
 96
       10
 40
0.0
 40
0.0
 40
0.0
 40
0.0
 40
1.0
 40
1.0
 40
1.0
 40
2.0
 40
2.0
 40
2.0
 40
3.0
 40
3.0
 40
3.0
 40
3.0
 10
483.855435737868
 20
-1548.123939557508
 10
477.5065984591824
 20
-1554.567646153119
 10
426.2086960468786
 20
-1597.260991954078
 10
431.160460978906
 20
-1602.246217376008
 10
439.9101853012657
 20
-1611.069365295893
 10
462.9668313458488
 20
-1585.89239217122
 10
464.0171978956053
 20
-1584.246713121609
 10
467.3080822941973
 20
-1579.092376575045
 10
488.0311067844612
 20
-1549.935672209504
 10
483.855435737868
 20
-1548.123939557508
 97
        0
 97
        0
 75
     2
 76
     1
 98
        0
  0
SPLINE
  5
55
330
43
100
AcDbEntity
  8
Layer 1
370
     0
100
AcDbSpline
210
0.0
220
0.0
230
1.0
 70
    11
 71
     3
 72
    14
 73
    10
 74
     0
 42
0.0000000001
 43
0.0000000001
 12
1.0
 22
0.0
 32
0.0
 13
1.0
 23
0.0
 33
0.0
 40
0.0
 40
0.0
 40
0.0
 40
0.0
 40
1.0
 40
1.0
 40
1.0
 40
2.0
 40
2.0
 40
2.0
 40
3.0
 40
3.0
 40
3.0
 40
3.0
 10
514.8701231623
 20
-1624.346289595416
 30
0.0
 10
494.5455239649053
 20
-1627.619345624873
 30
0.0
 10
460.6694694215099
 20
-1653.010819007196
 30
0.0
 10
488.227692545587
 20
-1662.751826491739
 30
0.0
 10
509.7992871175608
 20
-1670.795952195024
 30
0.0
 10
493.024255926008
 20
-1643.764957871271
 30
0.0
 10
493.0139206395523
 20
-1643.867621716731
 30
0.0
 10
493.981518770277
 20
-1633.148293241762
 30
0.0
 10
521.3379454263081
 20
-1633.525703452171
 30
0.0
 10
514.8701231623
 20
-1624.346289595416
 30
0.0
  0
HATCH
  5
56
330
43
100
AcDbEntity
  8
Layer 1
 62
    45
420
 10783355
100
AcDbHatch
 10
0.0
 20
0.0
 30
0.0
210
0.0
220
0.0
230
1.0
  2
SOLID
 70
     1
 71
     0
 91
        1
 92
        1
 93
        1
 72
     4
 94
        3
 73
     0
 74
     1
 95
       14
 96
       10
 40
0.0
 40
0.0
 40
0.0
 40
0.0
 40
1.0
 40
1.0
 40
1.0
 40
2.0
 40
2.0
 40
2.0
 40
3.0
 40
3.0
 40
3.0
 40
3.0
 10
514.8701231623
 20
-1624.346289595416
 10
494.5455239649053
 20
-1627.619345624873
 10
460.6694694215099
 20
-1653.010819007196
 10
488.227692545587
 20
-1662.751826491739
 10
509.7992871175608
 20
-1670.795952195024
 10
493.024255926008
 20
-1643.764957871271
 10
493.0139206395523
 20
-1643.867621716731
 10
493.981518770277
 20
-1633.148293241762
 10
521.3379454263081
 20
-1633.525703452171
 10
514.8701231623
 20
-1624.346289595416
 97
        0
 97
        0
 75
     2
 76
     1
 98
        0
  0
SPLINE
  5
57
330
43
100
AcDbEntity
  8
Layer 1
370
     0
100
AcDbSpline
210
0.0
220
0.0
230
1.0
 70
    11
 71
     3
 72
    14
 73
    10
 74
     0
 42
0.0000000001
 43
0.0000000001
 12
1.0
 22
0.0
 32
0.0
 13
1.0
 23
0.0
 33
0.0
 40
0.0
 40
0.0
 40
0.0
 40
0.0
 40
1.0
 40
1.0
 40
1.0
 40
2.0
 40
2.0
 40
2.0
 40
3.0
 40
3.0
 40
3.0
 40
3.0
 10
521.1051430988904
 20
-1632.390199980233
 30
0.0
 10
513.8145459056195
 20
-1634.890564156042
 30
0.0
 10
497.7742674536814
 20
-1645.099587862257
 30
0.0
 10
511.6258336801441
 20
-1648.807630260417
 30
0.0
 10
512.9349269008461
 20
-1643.81327533545
 30
0.0
 10
520.9240172037553
 20
-1634.087340143656
 30
0.0
 10
524.7064306007034
 20
-1644.353810817086
 30
0.0
 10
523.1489459955149
 20
-1639.993525716179
 30
0.0
 10
530.5740741674887
 20
-1635.409826173054
 30
0.0
 10
521.1051430988904
 20
-1632.390199980233
 30
0.0
  0
HATCH
  5
58
330
43
100
AcDbEntity
  8
Layer 1
 62
    45
420
 10783355
100
AcDbHatch
 10
0.0
 20
0.0
 30
0.0
210
0.0
220
0.0
230
1.0
  2
SOLID
 70
     1
 71
     0
 91
        1
 92
        1
 93
        1
 72
     4
 94
        3
 73
     0
 74
     1
 95
       14
 96
       10
 40
0.0
 40
0.0
 40
0.0
 40
0.0
 40
1.0
 40
1.0
 40
1.0
 40
2.0
 40
2.0
 40
2.0
 40
3.0
 40
3.0
 40
3.0
 40
3.0
 10
521.1051430988904
 20
-1632.390199980233
 10
513.8145459056195
 20
-1634.890564156042
 10
497.7742674536814
 20
-1645.099587862257
 10
511.6258336801441
 20
-1648.807630260417
 10
512.9349269008461
 20
-1643.81327533545
 10
520.9240172037553
 20
-1634.087340143656
 10
524.7064306007034
 20
-1644.353810817086
 10
523.1489459955149
 20
-1639.993525716179
 10
530.5740741674887
 20
-1635.409826173054
 10
521.1051430988904
 20
-1632.390199980233
 97
        0
 97
        0
 75
     2
 76
     1
 98
        0
  0
SPLINE
  5
59
330
43
100
AcDbEntity
  8
Layer 1
370
     0
100
AcDbSpline
210
0.0
220
0.0
230
1.0
 70
    11
 71
     3
 72
    32
 73
    28
 74
     0
 42
0.0000000001
 43
0.0000000001
 12
1.0
 22
0.0
 32
0.0
 13
1.0
 23
0.0
 33
0.0
 40
0.0
 40
0.0
 40
0.0
 40
0.0
 40
1.0
 40
1.0
 40
1.0
 40
2.0
 40
2.0
 40
2.0
 40
3.0
 40
3.0
 40
3.0
 40
4.0
 40
4.0
 40
4.0
 40
5.0
 40
5.0
 40
5.0
 40
6.0
 40
6.0
 40
6.0
 40
7.0
 40
7.0
 40
7.0
 40
8.0
 40
8.0
 40
8.0
 40
9.0
 40
9.0
 40
9.0
 40
9.0
 10
747.9097315296025
 20
-1557.846860290754
 30
0.0
 10
729.4219711175577
 20
-1554.923955153679
 30
0.0
 10
717.1227218530563
 20
-1558.290631652947
 30
0.0
 10
711.9018518999345
 20
-1568.554173995214
 30
0.0
 10
710.3392427152104
 20
-1571.62504598338
 30
0.0
 10
711.0584494614492
 20
-1594.156874794478
 30
0.0
 10
725.9551715307508
 20
-1590.080508625249
 30
0.0
 10
733.3285371430568
 20
-1588.063362154943
 30
0.0
 10
716.9985261608131
 20
-1571.380487267621
 30
0.0
 10
721.8727333807298
 20
-1566.630734122107
 30
0.0
 10
739.8688786670293
 20
-1549.07810181584
 30
0.0
 10
767.2926138761042
 20
-1582.589019301496
 30
0.0
 10
735.7294241867274
 20
-1568.234081560942
 30
0.0
 10
726.7468544732612
 20
-1570.577263255235
 30
0.0
 10
738.9633353187314
 20
-1576.338582562607
 30
0.0
 10
740.3449047357057
 20
-1579.487830473059
 30
0.0
 10
745.545104115916
 20
-1591.354634126776
 30
0.0
 10
745.4623356968809
 20
-1586.505360785432
 30
0.0
 10
759.8209769150795
 20
-1590.832357651212
 30
0.0
 10
759.8736868760038
 20
-1590.848248154138
 30
0.0
 10
759.930875461059
 20
-1590.863966402291
 30
0.0
 10
759.9844466958547
 20
-1590.879813841524
 30
0.0
 10
764.5001917305349
 20
-1585.349574313826
 30
0.0
 10
768.8740849586081
 20
-1579.699100953694
 30
0.0
 10
773.0938962911016
 20
-1573.928479888511
 30
0.0
 10
765.4250276135502
 20
-1567.671239086041
 30
0.0
 10
764.1653284493686
 20
-1560.417461350766
 30
0.0
 10
747.9097315296025
 20
-1557.846860290754
 30
0.0
  0
HATCH
  5
5A
330
43
100
AcDbEntity
  8
Layer 1
 62
    45
420
 10783355
100
AcDbHatch
 10
0.0
 20
0.0
 30
0.0
210
0.0
220
0.0
230
1.0
  2
SOLID
 70
     1
 71
     0
 91
        1
 92
        1
 93
        1
 72
     4
 94
        3
 73
     0
 74
     1
 95
       32
 96
       28
 40
0.0
 40
0.0
 40
0.0
 40
0.0
 40
1.0
 40
1.0
 40
1.0
 40
2.0
 40
2.0
 40
2.0
 40
3.0
 40
3.0
 40
3.0
 40
4.0
 40
4.0
 40
4.0
 40
5.0
 40
5.0
 40
5.0
 40
6.0
 40
6.0
 40
6.0
 40
7.0
 40
7.0
 40
7.0
 40
8.0
 40
8.0
 40
8.0
 40
9.0
 40
9.0
 40
9.0
 40
9.0
 10
747.9097315296025
 20
-1557.846860290754
 10
729.4219711175577
 20
-1554.923955153679
 10
717.1227218530563
 20
-1558.290631652947
 10
711.9018518999345
 20
-1568.554173995214
 10
710.3392427152104
 20
-1571.62504598338
 10
711.0584494614492
 20
-1594.156874794478
 10
725.9551715307508
 20
-1590.080508625249
 10
733.3285371430568
 20
-1588.063362154943
 10
716.9985261608131
 20
-1571.380487267621
 10
721.8727333807298
 20
-1566.630734122107
 10
739.8688786670293
 20
-1549.07810181584
 10
767.2926138761042
 20
-1582.589019301496
 10
735.7294241867274
 20
-1568.234081560942
 10
726.7468544732612
 20
-1570.577263255235
 10
738.9633353187314
 20
-1576.338582562607
 10
740.3449047357057
 20
-1579.487830473059
 10
745.545104115916
 20
-1591.354634126776
 10
745.4623356968809
 20
-1586.505360785432
 10
759.8209769150795
 20
-1590.832357651212
 10
759.8736868760038
 20
-1590.848248154138
 10
759.930875461059
 20
-1590.863966402291
 10
759.9844466958547
 20
-1590.879813841524
 10
764.5001917305349
 20
-1585.349574313826
 10
768.8740849586081
 20
-1579.699100953694
 10
773.0938962911016
 20
-1573.928479888511
 10
765.4250276135502
 20
-1567.671239086041
 10
764.1653284493686
 20
-1560.417461350766
 10
747.9097315296025
 20
-1557.846860290754
 97
        0
 97
        0
 75
     2
 76
     1
 98
        0
  0
SPLINE
  5
5B
330
43
100
AcDbEntity
  8
Layer 1
370
     0
100
AcDbSpline
210
0.0
220
0.0
230
1.0
 70
    11
 71
     3
 72
   131
 73
   127
 74
     0
 42
0.0000000001
 43
0.0000000001
 12
1.0
 22
0.0
 32
0.0
 13
1.0
 23
0.0
 33
0.0
 40
0.0
 40
0.0
 40
0.0
 40
0.0
 40
1.0
 40
1.0
 40
1.0
 40
2.0
 40
2.0
 40
2.0
 40
3.0
 40
3.0
 40
3.0
 40
4.0
 40
4.0
 40
4.0
 40
5.0
 40
5.0
 40
5.0
 40
6.0
 40
6.0
 40
6.0
 40
7.0
 40
7.0
 40
7.0
 40
8.0
 40
8.0
 40
8.0
 40
9.0
 40
9.0
 40
9.0
 40
10.0
 40
10.0
 40
10.0
 40
11.0
 40
11.0
 40
11.0
 40
12.0
 40
12.0
 40
12.0
 40
13.0
 40
13.0
 40
13.0
 40
14.0
 40
14.0
 40
14.0
 40
15.0
 40
15.0
 40
15.0
 40
16.0
 40
16.0
 40
16.0
 40
17.0
 40
17.0
 40
17.0
 40
18.0
 40
18.0
 40
18.0
 40
19.0
 40
19.0
 40
19.0
 40
20.0
 40
20.0
 40
20.0
 40
21.0
 40
21.0
 40
21.0
 40
22.0
 40
22.0
 40
22.0
 40
23.0
 40
23.0
 40
23.0
 40
24.0
 40
24.0
 40
24.0
 40
25.0
 40
25.0
 40
25.0
 40
26.0
 40
26.0
 40
26.0
 40
27.0
 40
27.0
 40
27.0
 40
28.0
 40
28.0
 40
28.0
 40
29.0
 40
29.0
 40
29.0
 40
30.0
 40
30.0
 40
30.0
 40
31.0
 40
31.0
 40
31.0
 40
32.0
 40
32.0
 40
32.0
 40
33.0
 40
33.0
 40
33.0
 40
34.0
 40
34.0
 40
34.0
 40
35.0
 40
35.0
 40
35.0
 40
36.0
 40
36.0
 40
36.0
 40
37.0
 40
37.0
 40
37.0
 40
38.0
 40
38.0
 40
38.0
 40
39.0
 40
39.0
 40
39.0
 40
40.0
 40
40.0
 40
40.0
 40
41.0
 40
41.0
 40
41.0
 40
42.0
 40
42.0
 40
42.0
 40
42.0
 10
633.2423121246755
 20
-1476.693588148497
 30
0.0
 10
623.468059468699
 20
-1502.616381382034
 30
0.0
 10
603.4280682220821
 20
-1529.451091390516
 30
0.0
 10
598.3521075978078
 20
-1555.678861701886
 30
0.0
 10
634.5306917087738
 20
-1551.856097624064
 30
0.0
 10
634.0546656400975
 20
-1536.426203964727
 30
0.0
 10
643.0113971374243
 20
-1516.608981204924
 30
0.0
 10
651.8076733125274
 20
-1497.129894566999
 30
0.0
 10
657.6339326697929
 20
-1477.143517618871
 30
0.0
 10
662.0631196804044
 20
-1457.184313861383
 30
0.0
 10
671.9977415312194
 20
-1412.455820966206
 30
0.0
 10
674.9988503358095
 20
-1367.117330851672
 30
0.0
 10
672.8721928927648
 20
-1322.053673229477
 30
0.0
 10
669.1674233353124
 20
-1243.687461802939
 30
0.0
 10
665.0797314146782
 20
-1156.582658018835
 30
0.0
 10
587.9103676915641
 20
-1089.138131363332
 30
0.0
 10
518.1661321404238
 20
-1028.185607235775
 30
0.0
 10
385.9164956717501
 20
-1002.833515601214
 30
0.0
 10
268.806805013636
 20
-1031.627882049096
 30
0.0
 10
213.3073933386002
 20
-1045.273194715225
 30
0.0
 10
179.7521202485736
 20
-1070.105938205384
 30
0.0
 10
147.3973122122284
 20
-1098.459461622232
 30
0.0
 10
133.9060168461351
 20
-1110.281780480497
 30
0.0
 10
118.605508054116
 20
-1121.574868076686
 30
0.0
 10
106.0468000358801
 20
-1133.760838295264
 30
0.0
 10
94.93772360229639
 20
-1152.422812879629
 30
0.0
 10
85.30476292490862
 20
-1172.065110916166
 30
0.0
 10
77.307878093466
 20
-1192.527729251438
 30
0.0
 10
99.17844235801789
 20
-1170.912166648335
 30
0.0
 10
128.0861524473621
 20
-1150.288231716968
 30
0.0
 10
161.807694458246
 20
-1135.781020755966
 30
0.0
 10
206.642899186078
 20
-1116.492167984368
 30
0.0
 10
262.478659839708
 20
-1108.45717178412
 30
0.0
 10
317.6676253478292
 20
-1109.504954512266
 30
0.0
 10
370.8386046436204
 20
-1110.519513600824
 30
0.0
 10
416.5586390831453
 20
-1128.238199509482
 30
0.0
 10
454.3412596520397
 20
-1149.211962355528
 30
0.0
 10
640.4293841986185
 20
-1252.522646025177
 30
0.0
 10
581.5615304128785
 20
-1437.342889305795
 30
0.0
 10
531.9659788709148
 20
-1566.374074508455
 30
0.0
 10
541.0985824927636
 20
-1564.018834979964
 30
0.0
 10
551.2712604416093
 20
-1560.090392598134
 30
0.0
 10
560.9109390551939
 20
-1564.314725618454
 30
0.0
 10
545.9106918665606
 20
-1572.941546159376
 30
0.0
 10
531.5157910183817
 20
-1579.089362116497
 30
0.0
 10
518.600773999581
 20
-1589.023682521456
 30
0.0
 10
507.683051088357
 20
-1597.42394497053
 30
0.0
 10
505.6702540510998
 20
-1600.075204328589
 30
0.0
 10
488.5950689153966
 20
-1601.989557762357
 30
0.0
 10
467.2148924613213
 20
-1604.387085837928
 30
0.0
 10
432.30918500477
 20
-1605.169165576772
 30
0.0
 10
427.3004468061542
 20
-1621.275417607252
 30
0.0
 10
425.5204951600035
 20
-1627.000520348334
 30
0.0
 10
434.73591026458
 20
-1646.518794947405
 30
0.0
 10
447.9562058070667
 20
-1645.851479951913
 30
0.0
 10
467.6805832435419
 20
-1644.851971624253
 30
0.0
 10
446.6315665929882
 20
-1628.422655764645
 30
0.0
 10
447.5163963046781
 20
-1622.700610545808
 30
0.0
 10
449.787876949185
 20
-1608.082898147119
 30
0.0
 10
500.2837611325265
 20
-1597.565969031907
 30
0.0
 10
509.7113510552979
 20
-1613.107569912356
 30
0.0
 10
500.2475876299314
 20
-1614.254958963718
 30
0.0
 10
459.0861035364891
 20
-1607.216413568882
 30
0.0
 10
467.137291685518
 20
-1622.350373526036
 30
0.0
 10
472.0270018351183
 20
-1631.547874134089
 30
0.0
 10
480.6939146747503
 20
-1621.758549185367
 30
0.0
 10
488.9624452852024
 20
-1620.127985492198
 30
0.0
 10
493.6814078898195
 20
-1619.194838316322
 30
0.0
 10
508.9610953859995
 20
-1617.938799566096
 30
0.0
 10
512.3813000563665
 20
-1615.810032002064
 30
0.0
 10
516.0394746973791
 20
-1613.527268669844
 30
0.0
 10
518.600773999581
 20
-1600.999178937733
 30
0.0
 10
520.9602768337356
 20
-1597.898076236685
 30
0.0
 10
527.500532230323
 20
-1589.301357217567
 30
0.0
 10
535.1274568703434
 20
-1583.485820719998
 30
0.0
 10
552.3009133547653
 20
-1588.00294379287
 30
0.0
 10
535.8001117638383
 20
-1595.702775266099
 30
0.0
 10
512.3813000563665
 20
-1615.049139600453
 30
0.0
 10
537.8387900809272
 20
-1625.665804229963
 30
0.0
 10
543.370106200963
 20
-1627.969711835723
 30
0.0
 10
561.0506376771208
 20
-1631.831750002074
 30
0.0
 10
559.7881393728587
 20
-1623.781638445383
 30
0.0
 10
558.2202764175215
 20
-1613.756755092855
 30
0.0
 10
541.3158818904976
 20
-1621.12732156508
 30
0.0
 10
538.7856745750481
 20
-1609.194199823271
 30
0.0
 10
536.7884235311675
 20
-1599.761183875109
 30
0.0
 10
546.7178777387546
 20
-1601.355487938297
 30
0.0
 10
554.0291455049409
 20
-1595.222787337615
 30
0.0
 10
563.415308154504
 20
-1587.350830281208
 30
0.0
 10
559.3017349540337
 20
-1582.712784356801
 30
0.0
 10
564.0362004883312
 20
-1573.599731651833
 30
0.0
 10
567.4046425990343
 20
-1567.116837095075
 30
0.0
 10
575.7248927054611
 20
-1562.575469162726
 30
0.0
 10
580.5990999253817
 20
-1556.515244758316
 30
0.0
 10
586.565057904574
 20
-1549.096231630831
 30
0.0
 10
588.7278888502138
 20
-1539.759807547336
 30
0.0
 10
592.3654359820079
 20
-1531.776100206126
 30
0.0
 10
626.293253085071
 20
-1457.326251795375
 30
0.0
 10
651.109137139197
 20
-1379.603175100396
 30
0.0
 10
650.6693276368119
 20
-1302.326970353547
 30
0.0
 10
650.2346857776547
 20
-1225.986884177426
 30
0.0
 10
613.4092419256408
 20
-1159.179463336382
 30
0.0
 10
531.3812600396827
 20
-1099.241519829231
 30
0.0
 10
496.4755095194352
 20
-1073.735432426481
 30
0.0
 10
454.0049322052941
 20
-1051.182459341841
 30
0.0
 10
400.6166319799259
 20
-1039.995050049663
 30
0.0
 10
379.3399806451824
 20
-1035.535180157385
 30
0.0
 10
359.2844218733411
 20
-1033.481881716331
 30
0.0
 10
336.7141802475815
 20
-1034.448144872555
 30
0.0
 10
315.9859881140916
 20
-1035.338895842114
 30
0.0
 10
287.6670879068701
 20
-1044.149942864108
 30
0.0
 10
268.1496745816714
 20
-1043.298422919387
 30
0.0
 10
257.444083424951
 20
-1026.014551124663
 30
0.0
 10
372.0908107251197
 20
-1027.711540565157
 30
0.0
 10
384.7781499960383
 20
-1028.973715891718
 30
0.0
 10
429.5874734440374
 20
-1033.430549793601
 30
0.0
 10
471.1318799006652
 20
-1046.260602144994
 30
0.0
 10
505.29766697437
 20
-1063.520315207626
 30
0.0
 10
575.6731732094895
 20
-1099.072430236443
 30
0.0
 10
622.6298677371377
 20
-1154.197230841151
 30
0.0
 10
644.7137049440753
 20
-1206.284361565437
 30
0.0
 10
670.3109366542558
 20
-1266.651111801268
 30
0.0
 10
669.2035968379074
 20
-1330.743926591019
 30
0.0
 10
657.4010442149901
 20
-1392.179582296686
 30
0.0
 10
651.9473719344544
 20
-1420.572379802069
 30
0.0
 10
643.7564851634986
 20
-1448.793008660571
 30
0.0
 10
633.2423121246755
 20
-1476.693588148497
 30
0.0
  0
SPLINE
  5
5C
330
43
100
AcDbEntity
  8
Layer 1
370
     0
100
AcDbSpline
210
0.0
220
0.0
230
1.0
 70
    11
 71
     3
 72
    56
 73
    52
 74
     0
 42
0.0000000001
 43
0.0000000001
 12
1.0
 22
0.0
 32
0.0
 13
1.0
 23
0.0
 33
0.0
 40
0.0
 40
0.0
 40
0.0
 40
0.0
 40
1.0
 40
1.0
 40
1.0
 40
2.0
 40
2.0
 40
2.0
 40
3.0
 40
3.0
 40
3.0
 40
4.0
 40
4.0
 40
4.0
 40
5.0
 40
5.0
 40
5.0
 40
6.0
 40
6.0
 40
6.0
 40
7.0
 40
7.0
 40
7.0
 40
8.0
 40
8.0
 40
8.0
 40
9.0
 40
9.0
 40
9.0
 40
10.0
 40
10.0
 40
10.0
 40
11.0
 40
11.0
 40
11.0
 40
12.0
 40
12.0
 40
12.0
 40
13.0
 40
13.0
 40
13.0
 40
14.0
 40
14.0
 40
14.0
 40
15.0
 40
15.0
 40
15.0
 40
16.0
 40
16.0
 40
16.0
 40
17.0
 40
17.0
 40
17.0
 40
17.0
 10
378.3879285078336
 20
-1064.888168838199
 30
0.0
 10
465.1348299347165
 20
-1083.606320010819
 30
0.0
 10
525.0996882503447
 20
-1123.144109070218
 30
0.0
 10
562.4528776670033
 20
-1171.707553068494
 30
0.0
 10
604.9234549811476
 20
-1226.922938152616
 30
0.0
 10
613.8956463444651
 20
-1283.898723966012
 30
0.0
 10
613.1453476114706
 20
-1343.70381597851
 30
0.0
 10
612.7469653822944
 20
-1375.593213146647
 30
0.0
 10
610.0149615987983
 20
-1407.4222350164
 30
0.0
 10
603.562599200781
 20
-1439.103290035065
 30
0.0
 10
598.5539040658583
 20
-1463.703511111814
 30
0.0
 10
598.4142054439313
 20
-1498.552073047003
 30
0.0
 10
577.3755240798334
 20
-1520.519250708072
 30
0.0
 10
570.1211865165428
 20
-1519.688896568738
 30
0.0
 10
594.4662121452203
 20
-1424.832929388678
 30
0.0
 10
596.2668774279751
 20
-1414.563444256696
 30
0.0
 10
602.8278464611631
 20
-1377.235834674015
 30
0.0
 10
604.4422182055512
 20
-1339.878080505837
 30
0.0
 10
599.1178661967937
 20
-1302.456850453341
 30
0.0
 10
589.6334321985119
 20
-1235.863693019629
 30
0.0
 10
555.9591310594701
 20
-1162.449634098367
 30
0.0
 10
458.9981674742262
 20
-1120.846359572634
 30
0.0
 10
371.6975530754784
 20
-1083.388912953855
 30
0.0
 10
238.154326315787
 20
-1079.792642372339
 30
0.0
 10
154.672363412124
 20
-1122.941925028927
 30
0.0
 10
137.1263413828191
 20
-1132.01566058167
 30
0.0
 10
127.0157828119418
 20
-1145.660973247799
 30
0.0
 10
110.059625725252
 20
-1154.33600359367
 30
0.0
 10
82.06673921016909
 20
-1168.657825353869
 30
0.0
 10
102.7276658543094
 20
-1142.034493485251
 30
0.0
 10
112.6209034956081
 20
-1134.703050378632
 30
0.0
 10
145.1154316857263
 20
-1110.625191904835
 30
0.0
 10
195.823469155417
 20
-1093.585921889564
 30
0.0
 10
246.4280245694694
 20
-1086.613780710208
 30
0.0
 10
284.1227090761047
 20
-1081.423184533664
 30
0.0
 10
323.9595539554684
 20
-1079.152500567488
 30
0.0
 10
362.3527746354308
 20
-1083.041668860786
 30
0.0
 10
376.0284256736786
 20
-1084.427630774502
 30
0.0
 10
439.5324736450007
 20
-1093.132977960639
 30
0.0
 10
444.3083664525099
 20
-1101.035122666238
 30
0.0
 10
433.3181673450144
 20
-1082.842370086964
 30
0.0
 10
364.7381156857252
 20
-1070.830635572551
 30
0.0
 10
337.1022487221481
 20
-1066.974669386992
 30
0.0
 10
306.987893939095
 20
-1062.774473566917
 30
0.0
 10
275.3419358306871
 20
-1062.212836875432
 30
0.0
 10
245.1034068872376
 20
-1066.243943102723
 30
0.0
 10
223.2834209307786
 20
-1069.154661214518
 30
0.0
 10
206.5911581582589
 20
-1076.486233512219
 30
0.0
 10
185.4231565223834
 20
-1080.242550310869
 30
0.0
 10
231.3294414365795
 20
-1046.876585217757
 30
0.0
 10
314.982173417077
 20
-1051.20661807393
 30
0.0
 10
378.3879285078336
 20
-1064.888168838199
 30
0.0
  0
HATCH
  5
5D
330
43
100
AcDbEntity
  8
Layer 1
 62
    45
420
 10783355
100
AcDbHatch
 10
0.0
 20
0.0
 30
0.0
210
0.0
220
0.0
230
1.0
  2
SOLID
 70
     1
 71
     0
 91
        2
 92
        1
 93
        1
 72
     4
 94
        3
 73
     0
 74
     1
 95
      131
 96
      127
 40
0.0
 40
0.0
 40
0.0
 40
0.0
 40
1.0
 40
1.0
 40
1.0
 40
2.0
 40
2.0
 40
2.0
 40
3.0
 40
3.0
 40
3.0
 40
4.0
 40
4.0
 40
4.0
 40
5.0
 40
5.0
 40
5.0
 40
6.0
 40
6.0
 40
6.0
 40
7.0
 40
7.0
 40
7.0
 40
8.0
 40
8.0
 40
8.0
 40
9.0
 40
9.0
 40
9.0
 40
10.0
 40
10.0
 40
10.0
 40
11.0
 40
11.0
 40
11.0
 40
12.0
 40
12.0
 40
12.0
 40
13.0
 40
13.0
 40
13.0
 40
14.0
 40
14.0
 40
14.0
 40
15.0
 40
15.0
 40
15.0
 40
16.0
 40
16.0
 40
16.0
 40
17.0
 40
17.0
 40
17.0
 40
18.0
 40
18.0
 40
18.0
 40
19.0
 40
19.0
 40
19.0
 40
20.0
 40
20.0
 40
20.0
 40
21.0
 40
21.0
 40
21.0
 40
22.0
 40
22.0
 40
22.0
 40
23.0
 40
23.0
 40
23.0
 40
24.0
 40
24.0
 40
24.0
 40
25.0
 40
25.0
 40
25.0
 40
26.0
 40
26.0
 40
26.0
 40
27.0
 40
27.0
 40
27.0
 40
28.0
 40
28.0
 40
28.0
 40
29.0
 40
29.0
 40
29.0
 40
30.0
 40
30.0
 40
30.0
 40
31.0
 40
31.0
 40
31.0
 40
32.0
 40
32.0
 40
32.0
 40
33.0
 40
33.0
 40
33.0
 40
34.0
 40
34.0
 40
34.0
 40
35.0
 40
35.0
 40
35.0
 40
36.0
 40
36.0
 40
36.0
 40
37.0
 40
37.0
 40
37.0
 40
38.0
 40
38.0
 40
38.0
 40
39.0
 40
39.0
 40
39.0
 40
40.0
 40
40.0
 40
40.0
 40
41.0
 40
41.0
 40
41.0
 40
42.0
 40
42.0
 40
42.0
 40
42.0
 10
633.2423121246755
 20
-1476.693588148497
 10
623.468059468699
 20
-1502.616381382034
 10
603.4280682220821
 20
-1529.451091390516
 10
598.3521075978078
 20
-1555.678861701886
 10
634.5306917087738
 20
-1551.856097624064
 10
634.0546656400975
 20
-1536.426203964727
 10
643.0113971374243
 20
-1516.608981204924
 10
651.8076733125274
 20
-1497.129894566999
 10
657.6339326697929
 20
-1477.143517618871
 10
662.0631196804044
 20
-1457.184313861383
 10
671.9977415312194
 20
-1412.455820966206
 10
674.9988503358095
 20
-1367.117330851672
 10
672.8721928927648
 20
-1322.053673229477
 10
669.1674233353124
 20
-1243.687461802939
 10
665.0797314146782
 20
-1156.582658018835
 10
587.9103676915641
 20
-1089.138131363332
 10
518.1661321404238
 20
-1028.185607235775
 10
385.9164956717501
 20
-1002.833515601214
 10
268.806805013636
 20
-1031.627882049096
 10
213.3073933386002
 20
-1045.273194715225
 10
179.7521202485736
 20
-1070.105938205384
 10
147.3973122122284
 20
-1098.459461622232
 10
133.9060168461351
 20
-1110.281780480497
 10
118.605508054116
 20
-1121.574868076686
 10
106.0468000358801
 20
-1133.760838295264
 10
94.93772360229639
 20
-1152.422812879629
 10
85.30476292490862
 20
-1172.065110916166
 10
77.307878093466
 20
-1192.527729251438
 10
99.17844235801789
 20
-1170.912166648335
 10
128.0861524473621
 20
-1150.288231716968
 10
161.807694458246
 20
-1135.781020755966
 10
206.642899186078
 20
-1116.492167984368
 10
262.478659839708
 20
-1108.45717178412
 10
317.6676253478292
 20
-1109.504954512266
 10
370.8386046436204
 20
-1110.519513600824
 10
416.5586390831453
 20
-1128.238199509482
 10
454.3412596520397
 20
-1149.211962355528
 10
640.4293841986185
 20
-1252.522646025177
 10
581.5615304128785
 20
-1437.342889305795
 10
531.9659788709148
 20
-1566.374074508455
 10
541.0985824927636
 20
-1564.018834979964
 10
551.2712604416093
 20
-1560.090392598134
 10
560.9109390551939
 20
-1564.314725618454
 10
545.9106918665606
 20
-1572.941546159376
 10
531.5157910183817
 20
-1579.089362116497
 10
518.600773999581
 20
-1589.023682521456
 10
507.683051088357
 20
-1597.42394497053
 10
505.6702540510998
 20
-1600.075204328589
 10
488.5950689153966
 20
-1601.989557762357
 10
467.2148924613213
 20
-1604.387085837928
 10
432.30918500477
 20
-1605.169165576772
 10
427.3004468061542
 20
-1621.275417607252
 10
425.5204951600035
 20
-1627.000520348334
 10
434.73591026458
 20
-1646.518794947405
 10
447.9562058070667
 20
-1645.851479951913
 10
467.6805832435419
 20
-1644.851971624253
 10
446.6315665929882
 20
-1628.422655764645
 10
447.5163963046781
 20
-1622.700610545808
 10
449.787876949185
 20
-1608.082898147119
 10
500.2837611325265
 20
-1597.565969031907
 10
509.7113510552979
 20
-1613.107569912356
 10
500.2475876299314
 20
-1614.254958963718
 10
459.0861035364891
 20
-1607.216413568882
 10
467.137291685518
 20
-1622.350373526036
 10
472.0270018351183
 20
-1631.547874134089
 10
480.6939146747503
 20
-1621.758549185367
 10
488.9624452852024
 20
-1620.127985492198
 10
493.6814078898195
 20
-1619.194838316322
 10
508.9610953859995
 20
-1617.938799566096
 10
512.3813000563665
 20
-1615.810032002064
 10
516.0394746973791
 20
-1613.527268669844
 10
518.600773999581
 20
-1600.999178937733
 10
520.9602768337356
 20
-1597.898076236685
 10
527.500532230323
 20
-1589.301357217567
 10
535.1274568703434
 20
-1583.485820719998
 10
552.3009133547653
 20
-1588.00294379287
 10
535.8001117638383
 20
-1595.702775266099
 10
512.3813000563665
 20
-1615.049139600453
 10
537.8387900809272
 20
-1625.665804229963
 10
543.370106200963
 20
-1627.969711835723
 10
561.0506376771208
 20
-1631.831750002074
 10
559.7881393728587
 20
-1623.781638445383
 10
558.2202764175215
 20
-1613.756755092855
 10
541.3158818904976
 20
-1621.12732156508
 10
538.7856745750481
 20
-1609.194199823271
 10
536.7884235311675
 20
-1599.761183875109
 10
546.7178777387546
 20
-1601.355487938297
 10
554.0291455049409
 20
-1595.222787337615
 10
563.415308154504
 20
-1587.350830281208
 10
559.3017349540337
 20
-1582.712784356801
 10
564.0362004883312
 20
-1573.599731651833
 10
567.4046425990343
 20
-1567.116837095075
 10
575.7248927054611
 20
-1562.575469162726
 10
580.5990999253817
 20
-1556.515244758316
 10
586.565057904574
 20
-1549.096231630831
 10
588.7278888502138
 20
-1539.759807547336
 10
592.3654359820079
 20
-1531.776100206126
 10
626.293253085071
 20
-1457.326251795375
 10
651.109137139197
 20
-1379.603175100396
 10
650.6693276368119
 20
-1302.326970353547
 10
650.2346857776547
 20
-1225.986884177426
 10
613.4092419256408
 20
-1159.179463336382
 10
531.3812600396827
 20
-1099.241519829231
 10
496.4755095194352
 20
-1073.735432426481
 10
454.0049322052941
 20
-1051.182459341841
 10
400.6166319799259
 20
-1039.995050049663
 10
379.3399806451824
 20
-1035.535180157385
 10
359.2844218733411
 20
-1033.481881716331
 10
336.7141802475815
 20
-1034.448144872555
 10
315.9859881140916
 20
-1035.338895842114
 10
287.6670879068701
 20
-1044.149942864108
 10
268.1496745816714
 20
-1043.298422919387
 10
257.444083424951
 20
-1026.014551124663
 10
372.0908107251197
 20
-1027.711540565157
 10
384.7781499960383
 20
-1028.973715891718
 10
429.5874734440374
 20
-1033.430549793601
 10
471.1318799006652
 20
-1046.260602144994
 10
505.29766697437
 20
-1063.520315207626
 10
575.6731732094895
 20
-1099.072430236443
 10
622.6298677371377
 20
-1154.197230841151
 10
644.7137049440753
 20
-1206.284361565437
 10
670.3109366542558
 20
-1266.651111801268
 10
669.2035968379074
 20
-1330.743926591019
 10
657.4010442149901
 20
-1392.179582296686
 10
651.9473719344544
 20
-1420.572379802069
 10
643.7564851634986
 20
-1448.793008660571
 10
633.2423121246755
 20
-1476.693588148497
 97
        0
 97
        0
 92
        1
 93
        1
 72
     4
 94
        3
 73
     0
 74
     1
 95
       56
 96
       52
 40
0.0
 40
0.0
 40
0.0
 40
0.0
 40
1.0
 40
1.0
 40
1.0
 40
2.0
 40
2.0
 40
2.0
 40
3.0
 40
3.0
 40
3.0
 40
4.0
 40
4.0
 40
4.0
 40
5.0
 40
5.0
 40
5.0
 40
6.0
 40
6.0
 40
6.0
 40
7.0
 40
7.0
 40
7.0
 40
8.0
 40
8.0
 40
8.0
 40
9.0
 40
9.0
 40
9.0
 40
10.0
 40
10.0
 40
10.0
 40
11.0
 40
11.0
 40
11.0
 40
12.0
 40
12.0
 40
12.0
 40
13.0
 40
13.0
 40
13.0
 40
14.0
 40
14.0
 40
14.0
 40
15.0
 40
15.0
 40
15.0
 40
16.0
 40
16.0
 40
16.0
 40
17.0
 40
17.0
 40
17.0
 40
17.0
 10
378.3879285078336
 20
-1064.888168838199
 10
465.1348299347165
 20
-1083.606320010819
 10
525.0996882503447
 20
-1123.144109070218
 10
562.4528776670033
 20
-1171.707553068494
 10
604.9234549811476
 20
-1226.922938152616
 10
613.8956463444651
 20
-1283.898723966012
 10
613.1453476114706
 20
-1343.70381597851
 10
612.7469653822944
 20
-1375.593213146647
 10
610.0149615987983
 20
-1407.4222350164
 10
603.562599200781
 20
-1439.103290035065
 10
598.5539040658583
 20
-1463.703511111814
 10
598.4142054439313
 20
-1498.552073047003
 10
577.3755240798334
 20
-1520.519250708072
 10
570.1211865165428
 20
-1519.688896568738
 10
594.4662121452203
 20
-1424.832929388678
 10
596.2668774279751
 20
-1414.563444256696
 10
602.8278464611631
 20
-1377.235834674015
 10
604.4422182055512
 20
-1339.878080505837
 10
599.1178661967937
 20
-1302.456850453341
 10
589.6334321985119
 20
-1235.863693019629
 10
555.9591310594701
 20
-1162.449634098367
 10
458.9981674742262
 20
-1120.846359572634
 10
371.6975530754784
 20
-1083.388912953855
 10
238.154326315787
 20
-1079.792642372339
 10
154.672363412124
 20
-1122.941925028927
 10
137.1263413828191
 20
-1132.01566058167
 10
127.0157828119418
 20
-1145.660973247799
 10
110.059625725252
 20
-1154.33600359367
 10
82.06673921016909
 20
-1168.657825353869
 10
102.7276658543094
 20
-1142.034493485251
 10
112.6209034956081
 20
-1134.703050378632
 10
145.1154316857263
 20
-1110.625191904835
 10
195.823469155417
 20
-1093.585921889564
 10
246.4280245694694
 20
-1086.613780710208
 10
284.1227090761047
 20
-1081.423184533664
 10
323.9595539554684
 20
-1079.152500567488
 10
362.3527746354308
 20
-1083.041668860786
 10
376.0284256736786
 20
-1084.427630774502
 10
439.5324736450007
 20
-1093.132977960639
 10
444.3083664525099
 20
-1101.035122666238
 10
433.3181673450144
 20
-1082.842370086964
 10
364.7381156857252
 20
-1070.830635572551
 10
337.1022487221481
 20
-1066.974669386992
 10
306.987893939095
 20
-1062.774473566917
 10
275.3419358306871
 20
-1062.212836875432
 10
245.1034068872376
 20
-1066.243943102723
 10
223.2834209307786
 20
-1069.154661214518
 10
206.5911581582589
 20
-1076.486233512219
 10
185.4231565223834
 20
-1080.242550310869
 10
231.3294414365795
 20
-1046.876585217757
 10
314.982173417077
 20
-1051.20661807393
 10
378.3879285078336
 20
-1064.888168838199
 97
        0
 97
        0
 75
     2
 76
     1
 98
        0
  0
SPLINE
  5
5E
330
43
100
AcDbEntity
  8
Layer 1
370
     0
100
AcDbSpline
210
0.0
220
0.0
230
1.0
 70
    11
 71
     3
 72
    14
 73
    10
 74
     0
 42
0.0000000001
 43
0.0000000001
 12
1.0
 22
0.0
 32
0.0
 13
1.0
 23
0.0
 33
0.0
 40
0.0
 40
0.0
 40
0.0
 40
0.0
 40
1.0
 40
1.0
 40
1.0
 40
2.0
 40
2.0
 40
2.0
 40
3.0
 40
3.0
 40
3.0
 40
3.0
 10
551.2091625954896
 20
-1668.561463263291
 30
0.0
 10
562.0440740239856
 20
-1671.212636493965
 30
0.0
 10
575.7404386988377
 20
-1665.801597270057
 30
0.0
 10
568.268758674124
 20
-1659.795762310621
 30
0.0
 10
563.2962801054887
 20
-1655.797901254763
 30
0.0
 10
534.3668228508925
 20
-1653.306752709379
 30
0.0
 10
525.529162466274
 20
-1648.928380857174
 30
0.0
 10
528.1991114673426
 20
-1656.646342145395
 30
0.0
 10
538.4752284081349
 20
-1665.415057556612
 30
0.0
 10
551.2091625954896
 20
-1668.561463263291
 30
0.0
  0
HATCH
  5
5F
330
43
100
AcDbEntity
  8
Layer 1
 62
    45
420
 10783355
100
AcDbHatch
 10
0.0
 20
0.0
 30
0.0
210
0.0
220
0.0
230
1.0
  2
SOLID
 70
     1
 71
     0
 91
        1
 92
        1
 93
        1
 72
     4
 94
        3
 73
     0
 74
     1
 95
       14
 96
       10
 40
0.0
 40
0.0
 40
0.0
 40
0.0
 40
1.0
 40
1.0
 40
1.0
 40
2.0
 40
2.0
 40
2.0
 40
3.0
 40
3.0
 40
3.0
 40
3.0
 10
551.2091625954896
 20
-1668.561463263291
 10
562.0440740239856
 20
-1671.212636493965
 10
575.7404386988377
 20
-1665.801597270057
 10
568.268758674124
 20
-1659.795762310621
 10
563.2962801054887
 20
-1655.797901254763
 10
534.3668228508925
 20
-1653.306752709379
 10
525.529162466274
 20
-1648.928380857174
 10
528.1991114673426
 20
-1656.646342145395
 10
538.4752284081349
 20
-1665.415057556612
 10
551.2091625954896
 20
-1668.561463263291
 97
        0
 97
        0
 75
     2
 76
     1
 98
        0
  0
SPLINE
  5
60
330
43
100
AcDbEntity
  8
Layer 1
370
     0
100
AcDbSpline
210
0.0
220
0.0
230
1.0
 70
    11
 71
     3
 72
    14
 73
    10
 74
     0
 42
0.0000000001
 43
0.0000000001
 12
1.0
 22
0.0
 32
0.0
 13
1.0
 23
0.0
 33
0.0
 40
0.0
 40
0.0
 40
0.0
 40
0.0
 40
1.0
 40
1.0
 40
1.0
 40
2.0
 40
2.0
 40
2.0
 40
3.0
 40
3.0
 40
3.0
 40
3.0
 10
553.7962570501379
 20
-1607.448828323058
 30
0.0
 10
560.2020675954114
 20
-1608.418192065219
 30
0.0
 10
566.6130027202167
 20
-1609.387469679994
 30
0.0
 10
573.0239378450253
 20
-1610.353732836221
 30
0.0
 10
570.3643671941053
 20
-1607.056259692514
 30
0.0
 10
567.7151318296443
 20
-1603.756030472419
 30
0.0
 10
565.0658964651795
 20
-1600.452614538998
 30
0.0
 10
561.3196996345189
 20
-1602.789767316192
 30
0.0
 10
557.5579998741746
 20
-1605.120848112593
 30
0.0
 10
553.7962570501379
 20
-1607.448828323058
 30
0.0
  0
HATCH
  5
61
330
43
100
AcDbEntity
  8
Layer 1
 62
    45
420
 10783355
100
AcDbHatch
 10
0.0
 20
0.0
 30
0.0
210
0.0
220
0.0
230
1.0
  2
SOLID
 70
     1
 71
     0
 91
        1
 92
        1
 93
        1
 72
     4
 94
        3
 73
     0
 74
     1
 95
       14
 96
       10
 40
0.0
 40
0.0
 40
0.0
 40
0.0
 40
1.0
 40
1.0
 40
1.0
 40
2.0
 40
2.0
 40
2.0
 40
3.0
 40
3.0
 40
3.0
 40
3.0
 10
553.7962570501379
 20
-1607.448828323058
 10
560.2020675954114
 20
-1608.418192065219
 10
566.6130027202167
 20
-1609.387469679994
 10
573.0239378450253
 20
-1610.353732836221
 10
570.3643671941053
 20
-1607.056259692514
 10
567.7151318296443
 20
-1603.756030472419
 10
565.0658964651795
 20
-1600.452614538998
 10
561.3196996345189
 20
-1602.789767316192
 10
557.5579998741746
 20
-1605.120848112593
 10
553.7962570501379
 20
-1607.448828323058
 97
        0
 97
        0
 75
     2
 76
     1
 98
        0
  0
SPLINE
  5
62
330
43
100
AcDbEntity
  8
Layer 1
370
     0
100
AcDbSpline
210
0.0
220
0.0
230
1.0
 70
    11
 71
     3
 72
    17
 73
    13
 74
     0
 42
0.0000000001
 43
0.0000000001
 12
1.0
 22
0.0
 32
0.0
 13
1.0
 23
0.0
 33
0.0
 40
0.0
 40
0.0
 40
0.0
 40
0.0
 40
1.0
 40
1.0
 40
1.0
 40
2.0
 40
2.0
 40
2.0
 40
3.0
 40
3.0
 40
3.0
 40
4.0
 40
4.0
 40
4.0
 40
4.0
 10
578.1412826788154
 20
-1614.502575201718
 30
0.0
 10
575.6162860702906
 20
-1636.735498915778
 30
0.0
 10
570.97492424148
 20
-1634.416432889882
 30
0.0
 10
539.2358193638889
 20
-1644.873158961487
 30
0.0
 10
545.5174342169192
 20
-1651.878502248583
 30
0.0
 10
569.5623489651392
 20
-1652.452196774262
 30
0.0
 10
580.7439661905364
 20
-1654.025399627602
 30
0.0
 10
577.0340289898561
 20
-1646.775454561057
 30
0.0
 10
574.3692476320153
 20
-1639.235690836813
 30
0.0
 10
576.2061294810576
 20
-1631.689812068081
 30
0.0
 10
578.0481789733285
 20
-1624.128861006604
 30
0.0
 10
591.5323688299815
 20
-1619.490858145893
 30
0.0
 10
578.1412826788154
 20
-1614.502575201718
 30
0.0
  0
HATCH
  5
63
330
43
100
AcDbEntity
  8
Layer 1
 62
    45
420
 10783355
100
AcDbHatch
 10
0.0
 20
0.0
 30
0.0
210
0.0
220
0.0
230
1.0
  2
SOLID
 70
     1
 71
     0
 91
        1
 92
        1
 93
        1
 72
     4
 94
        3
 73
     0
 74
     1
 95
       17
 96
       13
 40
0.0
 40
0.0
 40
0.0
 40
0.0
 40
1.0
 40
1.0
 40
1.0
 40
2.0
 40
2.0
 40
2.0
 40
3.0
 40
3.0
 40
3.0
 40
4.0
 40
4.0
 40
4.0
 40
4.0
 10
578.1412826788154
 20
-1614.502575201718
 10
575.6162860702906
 20
-1636.735498915778
 10
570.97492424148
 20
-1634.416432889882
 10
539.2358193638889
 20
-1644.873158961487
 10
545.5174342169192
 20
-1651.878502248583
 10
569.5623489651392
 20
-1652.452196774262
 10
580.7439661905364
 20
-1654.025399627602
 10
577.0340289898561
 20
-1646.775454561057
 10
574.3692476320153
 20
-1639.235690836813
 10
576.2061294810576
 20
-1631.689812068081
 10
578.0481789733285
 20
-1624.128861006604
 10
591.5323688299815
 20
-1619.490858145893
 10
578.1412826788154
 20
-1614.502575201718
 97
        0
 97
        0
 75
     2
 76
     1
 98
        0
  0
SPLINE
  5
64
330
43
100
AcDbEntity
  8
Layer 1
370
     0
100
AcDbSpline
210
0.0
220
0.0
230
1.0
 70
    11
 71
     3
 72
    98
 73
    94
 74
     0
 42
0.0000000001
 43
0.0000000001
 12
1.0
 22
0.0
 32
0.0
 13
1.0
 23
0.0
 33
0.0
 40
0.0
 40
0.0
 40
0.0
 40
0.0
 40
1.0
 40
1.0
 40
1.0
 40
2.0
 40
2.0
 40
2.0
 40
3.0
 40
3.0
 40
3.0
 40
4.0
 40
4.0
 40
4.0
 40
5.0
 40
5.0
 40
5.0
 40
6.0
 40
6.0
 40
6.0
 40
7.0
 40
7.0
 40
7.0
 40
8.0
 40
8.0
 40
8.0
 40
9.0
 40
9.0
 40
9.0
 40
10.0
 40
10.0
 40
10.0
 40
11.0
 40
11.0
 40
11.0
 40
12.0
 40
12.0
 40
12.0
 40
13.0
 40
13.0
 40
13.0
 40
14.0
 40
14.0
 40
14.0
 40
15.0
 40
15.0
 40
15.0
 40
16.0
 40
16.0
 40
16.0
 40
17.0
 40
17.0
 40
17.0
 40
18.0
 40
18.0
 40
18.0
 40
19.0
 40
19.0
 40
19.0
 40
20.0
 40
20.0
 40
20.0
 40
21.0
 40
21.0
 40
21.0
 40
22.0
 40
22.0
 40
22.0
 40
23.0
 40
23.0
 40
23.0
 40
24.0
 40
24.0
 40
24.0
 40
25.0
 40
25.0
 40
25.0
 40
26.0
 40
26.0
 40
26.0
 40
27.0
 40
27.0
 40
27.0
 40
28.0
 40
28.0
 40
28.0
 40
29.0
 40
29.0
 40
29.0
 40
30.0
 40
30.0
 40
30.0
 40
31.0
 40
31.0
 40
31.0
 40
31.0
 10
552.2439831518695
 20
-1716.599357945292
 30
0.0
 10
552.9218056885925
 20
-1715.334232755722
 30
0.0
 10
546.516081270708
 20
-1703.7572477597
 30
0.0
 10
546.4125561513763
 20
-1702.935936996016
 30
0.0
 10
545.8485940204408
 20
-1698.427685044018
 30
0.0
 10
549.4291678856462
 20
-1693.472690334973
 30
0.0
 10
548.67374457312
 20
-1689.166837742733
 30
0.0
 10
555.9280821364106
 20
-1683.517311783857
 30
0.0
 10
553.7600835475429
 20
-1680.171607303357
 30
0.0
 10
542.1748303223557
 20
-1679.126882097455
 30
0.0
 10
540.7260384797268
 20
-1678.468524350224
 30
0.0
 10
539.2824142803289
 20
-1677.810338857767
 30
0.0
 10
537.8335793740071
 20
-1677.149052779373
 30
0.0
 10
532.6075848413496
 20
-1672.903575485514
 30
0.0
 10
524.7374795237636
 20
-1669.878006502979
 30
0.0
 10
519.7494980254446
 20
-1665.146340108762
 30
0.0
 10
511.6827208193469
 20
-1666.967159200106
 30
0.0
 10
511.9725394770416
 20
-1672.991167038225
 30
0.0
 10
500.6356345726487
 20
-1674.757553620901
 30
0.0
 10
488.8382926566552
 20
-1676.593445004991
 30
0.0
 10
477.7652820664317
 20
-1673.253855568975
 30
0.0
 10
471.3698498713069
 20
-1667.918263936194
 30
0.0
 10
469.522675799505
 20
-1664.980286506373
 30
0.0
 10
468.3118539275177
 20
-1661.957731982389
 30
0.0
 10
467.7271781599779
 20
-1658.853614822794
 30
0.0
 10
468.9793411777849
 20
-1653.370142466307
 30
0.0
 10
464.9330334666661
 20
-1652.129132945135
 30
0.0
 10
455.5831304470871
 20
-1655.136615176369
 30
0.0
 10
444.75330053443
 20
-1652.763202769195
 30
0.0
 10
427.4608590646852
 20
-1650.595204180327
 30
0.0
 10
420.0874934523793
 20
-1651.615813717833
 30
0.0
 10
408.9938122892446
 20
-1653.14974248264
 30
0.0
 10
388.4984655468631
 20
-1666.031126756764
 30
0.0
 10
379.0760863310122
 20
-1670.39735464738
 30
0.0
 10
366.0627548998038
 20
-1676.421362485503
 30
0.0
 10
354.1618878644751
 20
-1682.994863053519
 30
0.0
 10
342.5559425345324
 20
-1689.915715373837
 30
0.0
 10
330.5527561632928
 20
-1697.071350951476
 30
0.0
 10
318.8809018503471
 20
-1704.430419417518
 30
0.0
 10
307.435218056008
 20
-1711.912219410224
 30
0.0
 10
311.2204090611923
 20
-1713.356575692415
 30
0.0
 10
315.0350556327755
 20
-1714.740901185774
 30
0.0
 10
318.8743777007718
 20
-1716.072602845597
 30
0.0
 10
360.0130595684715
 20
-1689.461307279333
 30
0.0
 10
401.2724920329284
 20
-1665.040403422591
 30
0.0
 10
407.6122859359668
 20
-1669.76328482332
 30
0.0
 10
418.1422633503255
 20
-1677.797161367537
 30
0.0
 10
349.090341268793
 20
-1712.933431839437
 30
0.0
 10
335.3140503786823
 20
-1721.381322733592
 30
0.0
 10
340.7104264149309
 20
-1722.993541293304
 30
0.0
 10
346.1561103803121
 20
-1724.490952045968
 30
0.0
 10
351.6455039946624
 20
-1725.878894889586
 30
0.0
 10
376.6896686883797
 20
-1708.268772552409
 30
0.0
 10
404.7029458623659
 20
-1689.518668119162
 30
0.0
 10
437.1729708108456
 20
-1678.504870107593
 30
0.0
 10
441.8712197788551
 20
-1676.409218523915
 30
0.0
 10
447.1128033685811
 20
-1675.889870379514
 30
0.0
 10
452.8873001661829
 20
-1676.943725088452
 30
0.0
 10
436.295160481204
 20
-1697.135429727501
 30
0.0
 10
407.7042269217304
 20
-1714.872848342859
 30
0.0
 10
380.2398395859296
 20
-1732.000485057327
 30
0.0
 10
386.3290458561087
 20
-1733.071479116305
 30
0.0
 10
392.4647178516461
 20
-1734.007425432259
 30
0.0
 10
398.6454775343437
 20
-1734.799625139092
 30
0.0
 10
416.5992481461748
 20
-1721.92366689036
 30
0.0
 10
434.3177618000597
 20
-1708.841089039898
 30
0.0
 10
453.3633692985516
 20
-1696.576807494568
 30
0.0
 10
458.7601113761954
 20
-1693.101309041663
 30
0.0
 10
511.3826530025816
 20
-1667.362742289198
 30
0.0
 10
504.5525789482996
 20
-1683.852433447187
 30
0.0
 10
499.0936959608392
 20
-1697.087112263323
 30
0.0
 10
463.722254658375
 20
-1712.396169198512
 30
0.0
 10
448.2304354076926
 20
-1722.451283263926
 30
0.0
 10
440.6246119775175
 20
-1727.386985438254
 30
0.0
 10
433.0649097631521
 20
-1732.347147790532
 30
0.0
 10
425.5424145800313
 20
-1737.326516550138
 30
0.0
 10
433.2453035755014
 20
-1737.791173803709
 30
0.0
 10
441.0067591942208
 20
-1738.037842640453
 30
0.0
 10
448.8211831560239
 20
-1738.060408015881
 30
0.0
 10
452.2198129159158
 20
-1735.976211374694
 30
0.0
 10
455.625074484618
 20
-1733.895890465926
 30
0.0
 10
459.0395086200492
 20
-1731.82090945516
 30
0.0
 10
466.9924254203632
 20
-1726.98967980142
 30
0.0
 10
523.6767346238552
 20
-1689.269501588194
 30
0.0
 10
527.4332667409716
 20
-1706.677138438223
 30
0.0
 10
528.9473000793537
 20
-1713.696089852486
 30
0.0
 10
505.7848034759844
 20
-1726.8566129883
 30
0.0
 10
488.1959976671227
 20
-1736.259914987904
 30
0.0
 10
502.1479022995952
 20
-1734.938117977599
 30
0.0
 10
515.8913786552063
 20
-1732.901894291042
 30
0.0
 10
529.3886168110141
 20
-1730.184058462729
 30
0.0
 10
539.9187234164546
 20
-1725.434908208927
 30
0.0
 10
550.2670581713519
 20
-1720.295945400964
 30
0.0
 10
552.2439831518695
 20
-1716.599357945292
 30
0.0
  0
HATCH
  5
65
330
43
100
AcDbEntity
  8
Layer 1
 62
    45
420
 10783355
100
AcDbHatch
 10
0.0
 20
0.0
 30
0.0
210
0.0
220
0.0
230
1.0
  2
SOLID
 70
     1
 71
     0
 91
        1
 92
        1
 93
        1
 72
     4
 94
        3
 73
     0
 74
     1
 95
       98
 96
       94
 40
0.0
 40
0.0
 40
0.0
 40
0.0
 40
1.0
 40
1.0
 40
1.0
 40
2.0
 40
2.0
 40
2.0
 40
3.0
 40
3.0
 40
3.0
 40
4.0
 40
4.0
 40
4.0
 40
5.0
 40
5.0
 40
5.0
 40
6.0
 40
6.0
 40
6.0
 40
7.0
 40
7.0
 40
7.0
 40
8.0
 40
8.0
 40
8.0
 40
9.0
 40
9.0
 40
9.0
 40
10.0
 40
10.0
 40
10.0
 40
11.0
 40
11.0
 40
11.0
 40
12.0
 40
12.0
 40
12.0
 40
13.0
 40
13.0
 40
13.0
 40
14.0
 40
14.0
 40
14.0
 40
15.0
 40
15.0
 40
15.0
 40
16.0
 40
16.0
 40
16.0
 40
17.0
 40
17.0
 40
17.0
 40
18.0
 40
18.0
 40
18.0
 40
19.0
 40
19.0
 40
19.0
 40
20.0
 40
20.0
 40
20.0
 40
21.0
 40
21.0
 40
21.0
 40
22.0
 40
22.0
 40
22.0
 40
23.0
 40
23.0
 40
23.0
 40
24.0
 40
24.0
 40
24.0
 40
25.0
 40
25.0
 40
25.0
 40
26.0
 40
26.0
 40
26.0
 40
27.0
 40
27.0
 40
27.0
 40
28.0
 40
28.0
 40
28.0
 40
29.0
 40
29.0
 40
29.0
 40
30.0
 40
30.0
 40
30.0
 40
31.0
 40
31.0
 40
31.0
 40
31.0
 10
552.2439831518695
 20
-1716.599357945292
 10
552.9218056885925
 20
-1715.334232755722
 10
546.516081270708
 20
-1703.7572477597
 10
546.4125561513763
 20
-1702.935936996016
 10
545.8485940204408
 20
-1698.427685044018
 10
549.4291678856462
 20
-1693.472690334973
 10
548.67374457312
 20
-1689.166837742733
 10
555.9280821364106
 20
-1683.517311783857
 10
553.7600835475429
 20
-1680.171607303357
 10
542.1748303223557
 20
-1679.126882097455
 10
540.7260384797268
 20
-1678.468524350224
 10
539.2824142803289
 20
-1677.810338857767
 10
537.8335793740071
 20
-1677.149052779373
 10
532.6075848413496
 20
-1672.903575485514
 10
524.7374795237636
 20
-1669.878006502979
 10
519.7494980254446
 20
-1665.146340108762
 10
511.6827208193469
 20
-1666.967159200106
 10
511.9725394770416
 20
-1672.991167038225
 10
500.6356345726487
 20
-1674.757553620901
 10
488.8382926566552
 20
-1676.593445004991
 10
477.7652820664317
 20
-1673.253855568975
 10
471.3698498713069
 20
-1667.918263936194
 10
469.522675799505
 20
-1664.980286506373
 10
468.3118539275177
 20
-1661.957731982389
 10
467.7271781599779
 20
-1658.853614822794
 10
468.9793411777849
 20
-1653.370142466307
 10
464.9330334666661
 20
-1652.129132945135
 10
455.5831304470871
 20
-1655.136615176369
 10
444.75330053443
 20
-1652.763202769195
 10
427.4608590646852
 20
-1650.595204180327
 10
420.0874934523793
 20
-1651.615813717833
 10
408.9938122892446
 20
-1653.14974248264
 10
388.4984655468631
 20
-1666.031126756764
 10
379.0760863310122
 20
-1670.39735464738
 10
366.0627548998038
 20
-1676.421362485503
 10
354.1618878644751
 20
-1682.994863053519
 10
342.5559425345324
 20
-1689.915715373837
 10
330.5527561632928
 20
-1697.071350951476
 10
318.8809018503471
 20
-1704.430419417518
 10
307.435218056008
 20
-1711.912219410224
 10
311.2204090611923
 20
-1713.356575692415
 10
315.0350556327755
 20
-1714.740901185774
 10
318.8743777007718
 20
-1716.072602845597
 10
360.0130595684715
 20
-1689.461307279333
 10
401.2724920329284
 20
-1665.040403422591
 10
407.6122859359668
 20
-1669.76328482332
 10
418.1422633503255
 20
-1677.797161367537
 10
349.090341268793
 20
-1712.933431839437
 10
335.3140503786823
 20
-1721.381322733592
 10
340.7104264149309
 20
-1722.993541293304
 10
346.1561103803121
 20
-1724.490952045968
 10
351.6455039946624
 20
-1725.878894889586
 10
376.6896686883797
 20
-1708.268772552409
 10
404.7029458623659
 20
-1689.518668119162
 10
437.1729708108456
 20
-1678.504870107593
 10
441.8712197788551
 20
-1676.409218523915
 10
447.1128033685811
 20
-1675.889870379514
 10
452.8873001661829
 20
-1676.943725088452
 10
436.295160481204
 20
-1697.135429727501
 10
407.7042269217304
 20
-1714.872848342859
 10
380.2398395859296
 20
-1732.000485057327
 10
386.3290458561087
 20
-1733.071479116305
 10
392.4647178516461
 20
-1734.007425432259
 10
398.6454775343437
 20
-1734.799625139092
 10
416.5992481461748
 20
-1721.92366689036
 10
434.3177618000597
 20
-1708.841089039898
 10
453.3633692985516
 20
-1696.576807494568
 10
458.7601113761954
 20
-1693.101309041663
 10
511.3826530025816
 20
-1667.362742289198
 10
504.5525789482996
 20
-1683.852433447187
 10
499.0936959608392
 20
-1697.087112263323
 10
463.722254658375
 20
-1712.396169198512
 10
448.2304354076926
 20
-1722.451283263926
 10
440.6246119775175
 20
-1727.386985438254
 10
433.0649097631521
 20
-1732.347147790532
 10
425.5424145800313
 20
-1737.326516550138
 10
433.2453035755014
 20
-1737.791173803709
 10
441.0067591942208
 20
-1738.037842640453
 10
448.8211831560239
 20
-1738.060408015881
 10
452.2198129159158
 20
-1735.976211374694
 10
455.625074484618
 20
-1733.895890465926
 10
459.0395086200492
 20
-1731.82090945516
 10
466.9924254203632
 20
-1726.98967980142
 10
523.6767346238552
 20
-1689.269501588194
 10
527.4332667409716
 20
-1706.677138438223
 10
528.9473000793537
 20
-1713.696089852486
 10
505.7848034759844
 20
-1726.8566129883
 10
488.1959976671227
 20
-1736.259914987904
 10
502.1479022995952
 20
-1734.938117977599
 10
515.8913786552063
 20
-1732.901894291042
 10
529.3886168110141
 20
-1730.184058462729
 10
539.9187234164546
 20
-1725.434908208927
 10
550.2670581713519
 20
-1720.295945400964
 10
552.2439831518695
 20
-1716.599357945292
 97
        0
 97
        0
 75
     2
 76
     1
 98
        0
  0
SPLINE
  5
66
330
43
100
AcDbEntity
  8
Layer 1
370
     0
100
AcDbSpline
210
0.0
220
0.0
230
1.0
 70
    11
 71
     3
 72
    14
 73
    10
 74
     0
 42
0.0000000001
 43
0.0000000001
 12
1.0
 22
0.0
 32
0.0
 13
1.0
 23
0.0
 33
0.0
 40
0.0
 40
0.0
 40
0.0
 40
0.0
 40
1.0
 40
1.0
 40
1.0
 40
2.0
 40
2.0
 40
2.0
 40
3.0
 40
3.0
 40
3.0
 40
3.0
 10
734.1893803774356
 20
-1619.547831412482
 30
0.0
 10
740.6640928324141
 20
-1613.011150302461
 30
0.0
 10
746.9170272655277
 20
-1606.254672100482
 30
0.0
 10
752.9314749636769
 20
-1599.286105207693
 30
0.0
 10
747.8501313777076
 20
-1599.674927296896
 30
0.0
 10
742.653721602531
 20
-1600.616514956711
 30
0.0
 10
737.3489635743433
 20
-1602.264390254691
 30
0.0
 10
716.3898639159546
 20
-1608.774888639023
 30
0.0
 10
723.5863238750931
 20
-1613.753955952774
 30
0.0
 10
734.1893803774356
 20
-1619.547831412482
 30
0.0
  0
HATCH
  5
67
330
43
100
AcDbEntity
  8
Layer 1
 62
    45
420
 10783355
100
AcDbHatch
 10
0.0
 20
0.0
 30
0.0
210
0.0
220
0.0
230
1.0
  2
SOLID
 70
     1
 71
     0
 91
        1
 92
        1
 93
        1
 72
     4
 94
        3
 73
     0
 74
     1
 95
       14
 96
       10
 40
0.0
 40
0.0
 40
0.0
 40
0.0
 40
1.0
 40
1.0
 40
1.0
 40
2.0
 40
2.0
 40
2.0
 40
3.0
 40
3.0
 40
3.0
 40
3.0
 10
734.1893803774356
 20
-1619.547831412482
 10
740.6640928324141
 20
-1613.011150302461
 10
746.9170272655277
 20
-1606.254672100482
 10
752.9314749636769
 20
-1599.286105207693
 10
747.8501313777076
 20
-1599.674927296896
 10
742.653721602531
 20
-1600.616514956711
 10
737.3489635743433
 20
-1602.264390254691
 10
716.3898639159546
 20
-1608.774888639023
 10
723.5863238750931
 20
-1613.753955952774
 10
734.1893803774356
 20
-1619.547831412482
 97
        0
 97
        0
 75
     2
 76
     1
 98
        0
  0
SPLINE
  5
68
330
43
100
AcDbEntity
  8
Layer 1
370
     0
100
AcDbSpline
210
0.0
220
0.0
230
1.0
 70
    11
 71
     3
 72
    20
 73
    16
 74
     0
 42
0.0000000001
 43
0.0000000001
 12
1.0
 22
0.0
 32
0.0
 13
1.0
 23
0.0
 33
0.0
 40
0.0
 40
0.0
 40
0.0
 40
0.0
 40
1.0
 40
1.0
 40
1.0
 40
2.0
 40
2.0
 40
2.0
 40
3.0
 40
3.0
 40
3.0
 40
4.0
 40
4.0
 40
4.0
 40
5.0
 40
5.0
 40
5.0
 40
5.0
 10
593.8814933139881
 20
-1669.307326435847
 30
0.0
 10
590.5492677695726
 20
-1666.185122524954
 30
0.0
 10
587.2118745819297
 20
-1663.062918614057
 30
0.0
 10
583.869270687366
 20
-1659.943729161712
 30
0.0
 10
583.869270687366
 20
-1679.160127268887
 30
0.0
 10
557.0819307418059
 20
-1687.684240900656
 30
0.0
 10
570.4109190468523
 20
-1708.99017554702
 30
0.0
 10
572.0966042677851
 20
-1711.684240216485
 30
0.0
 10
574.8557812419217
 20
-1714.463743253985
 30
0.0
 10
578.3091449563361
 20
-1717.045067173698
 30
0.0
 10
581.5104999360045
 20
-1715.961584643587
 30
0.0
 10
584.692820763115
 20
-1714.836933222427
 30
0.0
 10
587.857227093706
 20
-1713.675160897411
 30
0.0
 10
561.2485153490561
 20
-1706.318331743435
 30
0.0
 10
585.1806462838264
 20
-1679.835538238771
 30
0.0
 10
593.8814933139881
 20
-1669.307326435847
 30
0.0
  0
HATCH
  5
69
330
43
100
AcDbEntity
  8
Layer 1
 62
    45
420
 10783355
100
AcDbHatch
 10
0.0
 20
0.0
 30
0.0
210
0.0
220
0.0
230
1.0
  2
SOLID
 70
     1
 71
     0
 91
        1
 92
        1
 93
        1
 72
     4
 94
        3
 73
     0
 74
     1
 95
       20
 96
       16
 40
0.0
 40
0.0
 40
0.0
 40
0.0
 40
1.0
 40
1.0
 40
1.0
 40
2.0
 40
2.0
 40
2.0
 40
3.0
 40
3.0
 40
3.0
 40
4.0
 40
4.0
 40
4.0
 40
5.0
 40
5.0
 40
5.0
 40
5.0
 10
593.8814933139881
 20
-1669.307326435847
 10
590.5492677695726
 20
-1666.185122524954
 10
587.2118745819297
 20
-1663.062918614057
 10
583.869270687366
 20
-1659.943729161712
 10
583.869270687366
 20
-1679.160127268887
 10
557.0819307418059
 20
-1687.684240900656
 10
570.4109190468523
 20
-1708.99017554702
 10
572.0966042677851
 20
-1711.684240216485
 10
574.8557812419217
 20
-1714.463743253985
 10
578.3091449563361
 20
-1717.045067173698
 10
581.5104999360045
 20
-1715.961584643587
 10
584.692820763115
 20
-1714.836933222427
 10
587.857227093706
 20
-1713.675160897411
 10
561.2485153490561
 20
-1706.318331743435
 10
585.1806462838264
 20
-1679.835538238771
 10
593.8814933139881
 20
-1669.307326435847
 97
        0
 97
        0
 75
     2
 76
     1
 98
        0
  0
SPLINE
  5
6A
330
43
100
AcDbEntity
  8
Layer 1
370
     0
100
AcDbSpline
210
0.0
220
0.0
230
1.0
 70
    11
 71
     3
 72
    38
 73
    34
 74
     0
 42
0.0000000001
 43
0.0000000001
 12
1.0
 22
0.0
 32
0.0
 13
1.0
 23
0.0
 33
0.0
 40
0.0
 40
0.0
 40
0.0
 40
0.0
 40
1.0
 40
1.0
 40
1.0
 40
2.0
 40
2.0
 40
2.0
 40
3.0
 40
3.0
 40
3.0
 40
4.0
 40
4.0
 40
4.0
 40
5.0
 40
5.0
 40
5.0
 40
6.0
 40
6.0
 40
6.0
 40
7.0
 40
7.0
 40
7.0
 40
8.0
 40
8.0
 40
8.0
 40
9.0
 40
9.0
 40
9.0
 40
10.0
 40
10.0
 40
10.0
 40
11.0
 40
11.0
 40
11.0
 40
11.0
 10
776.6528521821389
 20
-1461.722667335184
 30
0.0
 10
780.1455761124743
 20
-1419.020278158575
 30
0.0
 10
783.8555133131507
 20
-1376.287744396474
 30
0.0
 10
784.5023299905064
 20
-1333.53096577489
 30
0.0
 10
785.7234440852532
 20
-1252.2116184984
 30
0.0
 10
791.213375995773
 20
-1162.482857737951
 30
0.0
 10
748.3960928847346
 20
-1084.113610321022
 30
0.0
 10
730.0221928784773
 20
-1050.484935165311
 30
0.0
 10
690.8838841724403
 20
-1019.459115776096
 30
0.0
 10
650.3743843995816
 20
-993.6601306615617
 30
0.0
 10
640.5248564072523
 20
-987.3872362064784
 30
0.0
 10
630.1841439261123
 20
-981.285240019307
 30
0.0
 10
619.2830436006066
 20
-975.5515460713616
 30
0.0
 10
572.1643865214554
 20
-953.5108802172228
 30
0.0
 10
520.0412976130452
 20
-940.3869396890937
 30
0.0
 10
465.0845746043241
 20
-938.3493164324946
 30
0.0
 10
549.1184202728766
 20
-952.1692739078813
 30
0.0
 10
621.1492518249664
 20
-995.8554962276891
 30
0.0
 10
665.6644071822174
 20
-1037.174787226204
 30
0.0
 10
741.540180614313
 20
-1107.602637380852
 30
0.0
 10
761.9734725742636
 20
-1186.391605087119
 30
0.0
 10
763.9190041221733
 20
-1268.091420096266
 30
0.0
 10
765.9110444591299
 20
-1351.65729260684
 30
0.0
 10
762.5632729213384
 20
-1435.337929860768
 30
0.0
 10
747.9200668160582
 20
-1518.508262345943
 30
0.0
 10
746.3263656445816
 20
-1527.551637994723
 30
0.0
 10
737.8715845594558
 20
-1537.803122502796
 30
0.0
 10
755.935081462492
 20
-1538.829760957401
 30
0.0
 10
774.2364622087847
 20
-1539.868500309896
 30
0.0
 10
769.2278101375542
 20
-1532.271332682131
 30
0.0
 10
770.5161897216524
 20
-1522.267464412062
 30
0.0
 10
773.1085379469139
 20
-1502.096904046551
 30
0.0
 10
774.9971392919279
 20
-1481.929487330673
 30
0.0
 10
776.6528521821389
 20
-1461.722667335184
 30
0.0
  0
HATCH
  5
6B
330
43
100
AcDbEntity
  8
Layer 1
 62
    45
420
 10783355
100
AcDbHatch
 10
0.0
 20
0.0
 30
0.0
210
0.0
220
0.0
230
1.0
  2
SOLID
 70
     1
 71
     0
 91
        1
 92
        1
 93
        1
 72
     4
 94
        3
 73
     0
 74
     1
 95
       38
 96
       34
 40
0.0
 40
0.0
 40
0.0
 40
0.0
 40
1.0
 40
1.0
 40
1.0
 40
2.0
 40
2.0
 40
2.0
 40
3.0
 40
3.0
 40
3.0
 40
4.0
 40
4.0
 40
4.0
 40
5.0
 40
5.0
 40
5.0
 40
6.0
 40
6.0
 40
6.0
 40
7.0
 40
7.0
 40
7.0
 40
8.0
 40
8.0
 40
8.0
 40
9.0
 40
9.0
 40
9.0
 40
10.0
 40
10.0
 40
10.0
 40
11.0
 40
11.0
 40
11.0
 40
11.0
 10
776.6528521821389
 20
-1461.722667335184
 10
780.1455761124743
 20
-1419.020278158575
 10
783.8555133131507
 20
-1376.287744396474
 10
784.5023299905064
 20
-1333.53096577489
 10
785.7234440852532
 20
-1252.2116184984
 10
791.213375995773
 20
-1162.482857737951
 10
748.3960928847346
 20
-1084.113610321022
 10
730.0221928784773
 20
-1050.484935165311
 10
690.8838841724403
 20
-1019.459115776096
 10
650.3743843995816
 20
-993.6601306615617
 10
640.5248564072523
 20
-987.3872362064784
 10
630.1841439261123
 20
-981.285240019307
 10
619.2830436006066
 20
-975.5515460713616
 10
572.1643865214554
 20
-953.5108802172228
 10
520.0412976130452
 20
-940.3869396890937
 10
465.0845746043241
 20
-938.3493164324946
 10
549.1184202728766
 20
-952.1692739078813
 10
621.1492518249664
 20
-995.8554962276891
 10
665.6644071822174
 20
-1037.174787226204
 10
741.540180614313
 20
-1107.602637380852
 10
761.9734725742636
 20
-1186.391605087119
 10
763.9190041221733
 20
-1268.091420096266
 10
765.9110444591299
 20
-1351.65729260684
 10
762.5632729213384
 20
-1435.337929860768
 10
747.9200668160582
 20
-1518.508262345943
 10
746.3263656445816
 20
-1527.551637994723
 10
737.8715845594558
 20
-1537.803122502796
 10
755.935081462492
 20
-1538.829760957401
 10
774.2364622087847
 20
-1539.868500309896
 10
769.2278101375542
 20
-1532.271332682131
 10
770.5161897216524
 20
-1522.267464412062
 10
773.1085379469139
 20
-1502.096904046551
 10
774.9971392919279
 20
-1481.929487330673
 10
776.6528521821389
 20
-1461.722667335184
 97
        0
 97
        0
 75
     2
 76
     1
 98
        0
  0
SPLINE
  5
6C
330
43
100
AcDbEntity
  8
Layer 1
370
     0
100
AcDbSpline
210
0.0
220
0.0
230
1.0
 70
    11
 71
     3
 72
    17
 73
    13
 74
     0
 42
0.0000000001
 43
0.0000000001
 12
1.0
 22
0.0
 32
0.0
 13
1.0
 23
0.0
 33
0.0
 40
0.0
 40
0.0
 40
0.0
 40
0.0
 40
1.0
 40
1.0
 40
1.0
 40
2.0
 40
2.0
 40
2.0
 40
3.0
 40
3.0
 40
3.0
 40
4.0
 40
4.0
 40
4.0
 40
4.0
 10
623.0800125259785
 20
-1614.339536057881
 30
0.0
 10
612.2036307605775
 20
-1606.277323603299
 30
0.0
 10
593.3071528329009
 20
-1639.190387831182
 30
0.0
 10
592.5672324500576
 20
-1643.209350096885
 30
0.0
 10
589.2401745488705
 20
-1661.326676616881
 30
0.0
 10
612.229555104106
 20
-1669.080811407692
 30
0.0
 10
639.9430228434865
 20
-1659.686897293287
 30
0.0
 10
684.5195439640718
 20
-1644.577225259304
 30
0.0
 10
620.8085318814751
 20
-1649.438685625929
 30
0.0
 10
613.1246770385592
 20
-1648.013449623681
 30
0.0
 10
581.9185714962324
 20
-1642.215956813714
 30
0.0
 10
613.1919425279106
 20
-1622.123815434188
 30
0.0
 10
623.0800125259785
 20
-1614.339536057881
 30
0.0
  0
HATCH
  5
6D
330
43
100
AcDbEntity
  8
Layer 1
 62
    45
420
 10783355
100
AcDbHatch
 10
0.0
 20
0.0
 30
0.0
210
0.0
220
0.0
230
1.0
  2
SOLID
 70
     1
 71
     0
 91
        1
 92
        1
 93
        1
 72
     4
 94
        3
 73
     0
 74
     1
 95
       17
 96
       13
 40
0.0
 40
0.0
 40
0.0
 40
0.0
 40
1.0
 40
1.0
 40
1.0
 40
2.0
 40
2.0
 40
2.0
 40
3.0
 40
3.0
 40
3.0
 40
4.0
 40
4.0
 40
4.0
 40
4.0
 10
623.0800125259785
 20
-1614.339536057881
 10
612.2036307605775
 20
-1606.277323603299
 10
593.3071528329009
 20
-1639.190387831182
 10
592.5672324500576
 20
-1643.209350096885
 10
589.2401745488705
 20
-1661.326676616881
 10
612.229555104106
 20
-1669.080811407692
 10
639.9430228434865
 20
-1659.686897293287
 10
684.5195439640718
 20
-1644.577225259304
 10
620.8085318814751
 20
-1649.438685625929
 10
613.1246770385592
 20
-1648.013449623681
 10
581.9185714962324
 20
-1642.215956813714
 10
613.1919425279106
 20
-1622.123815434188
 10
623.0800125259785
 20
-1614.339536057881
 97
        0
 97
        0
 75
     2
 76
     1
 98
        0
  0
SPLINE
  5
6E
330
43
100
AcDbEntity
  8
Layer 1
370
     0
100
AcDbSpline
210
0.0
220
0.0
230
1.0
 70
    11
 71
     3
 72
    59
 73
    55
 74
     0
 42
0.0000000001
 43
0.0000000001
 12
1.0
 22
0.0
 32
0.0
 13
1.0
 23
0.0
 33
0.0
 40
0.0
 40
0.0
 40
0.0
 40
0.0
 40
1.0
 40
1.0
 40
1.0
 40
2.0
 40
2.0
 40
2.0
 40
3.0
 40
3.0
 40
3.0
 40
4.0
 40
4.0
 40
4.0
 40
5.0
 40
5.0
 40
5.0
 40
6.0
 40
6.0
 40
6.0
 40
7.0
 40
7.0
 40
7.0
 40
8.0
 40
8.0
 40
8.0
 40
9.0
 40
9.0
 40
9.0
 40
10.0
 40
10.0
 40
10.0
 40
11.0
 40
11.0
 40
11.0
 40
12.0
 40
12.0
 40
12.0
 40
13.0
 40
13.0
 40
13.0
 40
14.0
 40
14.0
 40
14.0
 40
15.0
 40
15.0
 40
15.0
 40
16.0
 40
16.0
 40
16.0
 40
17.0
 40
17.0
 40
17.0
 40
18.0
 40
18.0
 40
18.0
 40
18.0
 10
678.0206297133074
 20
-1631.967486764192
 30
0.0
 10
674.5589977697283
 20
-1625.961737932146
 30
0.0
 10
672.7583324869773
 20
-1619.526988584796
 30
0.0
 10
673.8190773868857
 20
-1613.170959669284
 30
0.0
 10
675.1230029643567
 20
-1605.344305618504
 30
0.0
 10
686.7651433287427
 20
-1598.547304480881
 30
0.0
 10
687.9242026410622
 20
-1591.744274426158
 30
0.0
 10
692.415487497794
 20
-1565.308161965319
 30
0.0
 10
629.1494525608135
 20
-1555.687905077533
 30
0.0
 10
594.6059107671472
 20
-1566.796787724496
 30
0.0
 10
575.285126266769
 20
-1573.011007897096
 30
0.0
 10
568.6568486805373
 20
-1583.032876791074
 30
0.0
 10
577.6031587640193
 20
-1594.975171099614
 30
0.0
 10
582.4204357810443
 20
-1601.400790943928
 30
0.0
 10
616.813943666328
 20
-1618.246791102477
 30
0.0
 10
619.6184236460956
 20
-1603.472154604435
 30
0.0
 10
622.0037646963865
 20
-1590.892732949593
 30
0.0
 10
570.8559392561575
 20
-1597.581041324657
 30
0.0
 10
593.7004104825421
 20
-1577.655082738599
 30
0.0
 10
605.6374940841586
 20
-1567.246717194869
 30
0.0
 10
634.4324203600551
 20
-1572.920444949527
 30
0.0
 10
647.9114425734841
 20
-1579.466815390599
 30
0.0
 10
642.5042790819955
 20
-1587.673894110335
 30
0.0
 10
631.8866670512298
 20
-1577.359192100112
 30
0.0
 10
624.4822525158636
 20
-1577.404322850969
 30
0.0
 10
613.1557259616193
 20
-1577.476928238319
 30
0.0
 10
607.821038666406
 20
-1582.04848381986
 30
0.0
 10
599.0506007074422
 20
-1587.045853203374
 30
0.0
 10
624.052778299935
 20
-1589.826863470149
 30
0.0
 10
649.9242396107413
 20
-1592.260521984623
 30
0.0
 10
630.43266450168
 20
-1609.755836514756
 30
0.0
 10
644.9620963285618
 20
-1608.013565600476
 30
0.0
 10
659.5121987283511
 20
-1605.329190262062
 30
0.0
 10
674.1554048336313
 20
-1608.587260126159
 30
0.0
 10
650.1933015681394
 20
-1618.488378423378
 30
0.0
 10
621.0723831319492
 20
-1617.772745963707
 30
0.0
 10
619.1579005071029
 20
-1638.420408990229
 30
0.0
 10
641.08653616243
 20
-1633.610280546334
 30
0.0
 10
662.8030400632508
 20
-1630.246317059762
 30
0.0
 10
670.574830968426
 20
-1646.917392495049
 30
0.0
 10
678.2482643974972
 20
-1663.37995352609
 30
0.0
 10
659.5483722309463
 20
-1673.90308381317
 30
0.0
 10
634.572118981982
 20
-1675.741903528422
 30
0.0
 10
611.4844240143387
 20
-1677.438957564457
 30
0.0
 10
584.4591140981337
 20
-1677.919031620326
 30
0.0
 10
589.4212573803134
 20
-1697.932624822788
 30
0.0
 10
592.8799609927299
 20
-1711.891634964697
 30
0.0
 10
603.3499076182597
 20
-1702.127545340403
 30
0.0
 10
619.7906784203581
 20
-1700.343502643366
 30
0.0
 10
649.6350238447546
 20
-1686.331868667921
 30
0.0
 10
677.4628687542454
 20
-1668.739316317718
 30
0.0
 10
702.7263568392943
 20
-1648.122142386241
 30
0.0
 10
692.0156411030378
 20
-1645.195103134583
 30
0.0
 10
684.7322786102859
 20
-1643.612684650823
 30
0.0
 10
678.0206297133074
 20
-1631.967486764192
 30
0.0
  0
HATCH
  5
6F
330
43
100
AcDbEntity
  8
Layer 1
 62
    45
420
 10783355
100
AcDbHatch
 10
0.0
 20
0.0
 30
0.0
210
0.0
220
0.0
230
1.0
  2
SOLID
 70
     1
 71
     0
 91
        1
 92
        1
 93
        1
 72
     4
 94
        3
 73
     0
 74
     1
 95
       59
 96
       55
 40
0.0
 40
0.0
 40
0.0
 40
0.0
 40
1.0
 40
1.0
 40
1.0
 40
2.0
 40
2.0
 40
2.0
 40
3.0
 40
3.0
 40
3.0
 40
4.0
 40
4.0
 40
4.0
 40
5.0
 40
5.0
 40
5.0
 40
6.0
 40
6.0
 40
6.0
 40
7.0
 40
7.0
 40
7.0
 40
8.0
 40
8.0
 40
8.0
 40
9.0
 40
9.0
 40
9.0
 40
10.0
 40
10.0
 40
10.0
 40
11.0
 40
11.0
 40
11.0
 40
12.0
 40
12.0
 40
12.0
 40
13.0
 40
13.0
 40
13.0
 40
14.0
 40
14.0
 40
14.0
 40
15.0
 40
15.0
 40
15.0
 40
16.0
 40
16.0
 40
16.0
 40
17.0
 40
17.0
 40
17.0
 40
18.0
 40
18.0
 40
18.0
 40
18.0
 10
678.0206297133074
 20
-1631.967486764192
 10
674.5589977697283
 20
-1625.961737932146
 10
672.7583324869773
 20
-1619.526988584796
 10
673.8190773868857
 20
-1613.170959669284
 10
675.1230029643567
 20
-1605.344305618504
 10
686.7651433287427
 20
-1598.547304480881
 10
687.9242026410622
 20
-1591.744274426158
 10
692.415487497794
 20
-1565.308161965319
 10
629.1494525608135
 20
-1555.687905077533
 10
594.6059107671472
 20
-1566.796787724496
 10
575.285126266769
 20
-1573.011007897096
 10
568.6568486805373
 20
-1583.032876791074
 10
577.6031587640193
 20
-1594.975171099614
 10
582.4204357810443
 20
-1601.400790943928
 10
616.813943666328
 20
-1618.246791102477
 10
619.6184236460956
 20
-1603.472154604435
 10
622.0037646963865
 20
-1590.892732949593
 10
570.8559392561575
 20
-1597.581041324657
 10
593.7004104825421
 20
-1577.655082738599
 10
605.6374940841586
 20
-1567.246717194869
 10
634.4324203600551
 20
-1572.920444949527
 10
647.9114425734841
 20
-1579.466815390599
 10
642.5042790819955
 20
-1587.673894110335
 10
631.8866670512298
 20
-1577.359192100112
 10
624.4822525158636
 20
-1577.404322850969
 10
613.1557259616193
 20
-1577.476928238319
 10
607.821038666406
 20
-1582.04848381986
 10
599.0506007074422
 20
-1587.045853203374
 10
624.052778299935
 20
-1589.826863470149
 10
649.9242396107413
 20
-1592.260521984623
 10
630.43266450168
 20
-1609.755836514756
 10
644.9620963285618
 20
-1608.013565600476
 10
659.5121987283511
 20
-1605.329190262062
 10
674.1554048336313
 20
-1608.587260126159
 10
650.1933015681394
 20
-1618.488378423378
 10
621.0723831319492
 20
-1617.772745963707
 10
619.1579005071029
 20
-1638.420408990229
 10
641.08653616243
 20
-1633.610280546334
 10
662.8030400632508
 20
-1630.246317059762
 10
670.574830968426
 20
-1646.917392495049
 10
678.2482643974972
 20
-1663.37995352609
 10
659.5483722309463
 20
-1673.90308381317
 10
634.572118981982
 20
-1675.741903528422
 10
611.4844240143387
 20
-1677.438957564457
 10
584.4591140981337
 20
-1677.919031620326
 10
589.4212573803134
 20
-1697.932624822788
 10
592.8799609927299
 20
-1711.891634964697
 10
603.3499076182597
 20
-1702.127545340403
 10
619.7906784203581
 20
-1700.343502643366
 10
649.6350238447546
 20
-1686.331868667921
 10
677.4628687542454
 20
-1668.739316317718
 10
702.7263568392943
 20
-1648.122142386241
 10
692.0156411030378
 20
-1645.195103134583
 10
684.7322786102859
 20
-1643.612684650823
 10
678.0206297133074
 20
-1631.967486764192
 97
        0
 97
        0
 75
     2
 76
     1
 98
        0
  0
SPLINE
  5
70
330
43
100
AcDbEntity
  8
Layer 1
370
     0
100
AcDbSpline
210
0.0
220
0.0
230
1.0
 70
    11
 71
     3
 72
    17
 73
    13
 74
     0
 42
0.0000000001
 43
0.0000000001
 12
1.0
 22
0.0
 32
0.0
 13
1.0
 23
0.0
 33
0.0
 40
0.0
 40
0.0
 40
0.0
 40
0.0
 40
1.0
 40
1.0
 40
1.0
 40
2.0
 40
2.0
 40
2.0
 40
3.0
 40
3.0
 40
3.0
 40
4.0
 40
4.0
 40
4.0
 40
4.0
 10
708.4726038539168
 20
-1643.349134846201
 30
0.0
 10
715.9758495660167
 20
-1636.990005344753
 30
0.0
 10
723.2394888871174
 20
-1630.357421389161
 30
0.0
 10
730.2524975116663
 20
-1623.470158749824
 30
0.0
 10
726.0251069691014
 20
-1623.82603711345
 30
0.0
 10
723.7425589553491
 20
-1628.08503640709
 30
0.0
 10
719.114805253706
 20
-1627.571200415465
 30
0.0
 10
692.8138697269702
 20
-1624.66336757114
 30
0.0
 10
699.700873984148
 20
-1610.175578335938
 30
0.0
 10
715.3065536406178
 20
-1599.268965857656
 30
0.0
 10
675.97678375299
 20
-1582.24812710323
 30
0.0
 10
685.1783754119297
 20
-1635.953031603693
 30
0.0
 10
708.4726038539168
 20
-1643.349134846201
 30
0.0
  0
HATCH
  5
71
330
43
100
AcDbEntity
  8
Layer 1
 62
    45
420
 10783355
100
AcDbHatch
 10
0.0
 20
0.0
 30
0.0
210
0.0
220
0.0
230
1.0
  2
SOLID
 70
     1
 71
     0
 91
        1
 92
        1
 93
        1
 72
     4
 94
        3
 73
     0
 74
     1
 95
       17
 96
       13
 40
0.0
 40
0.0
 40
0.0
 40
0.0
 40
1.0
 40
1.0
 40
1.0
 40
2.0
 40
2.0
 40
2.0
 40
3.0
 40
3.0
 40
3.0
 40
4.0
 40
4.0
 40
4.0
 40
4.0
 10
708.4726038539168
 20
-1643.349134846201
 10
715.9758495660167
 20
-1636.990005344753
 10
723.2394888871174
 20
-1630.357421389161
 10
730.2524975116663
 20
-1623.470158749824
 10
726.0251069691014
 20
-1623.82603711345
 10
723.7425589553491
 20
-1628.08503640709
 10
719.114805253706
 20
-1627.571200415465
 10
692.8138697269702
 20
-1624.66336757114
 10
699.700873984148
 20
-1610.175578335938
 10
715.3065536406178
 20
-1599.268965857656
 10
675.97678375299
 20
-1582.24812710323
 10
685.1783754119297
 20
-1635.953031603693
 10
708.4726038539168
 20
-1643.349134846201
 97
        0
 97
        0
 75
     2
 76
     1
 98
        0
  0
SPLINE
  5
72
330
43
100
AcDbEntity
  8
Layer 1
370
     0
100
AcDbSpline
210
0.0
220
0.0
230
1.0
 70
    11
 71
     3
 72
    14
 73
    10
 74
     0
 42
0.0000000001
 43
0.0000000001
 12
1.0
 22
0.0
 32
0.0
 13
1.0
 23
0.0
 33
0.0
 40
0.0
 40
0.0
 40
0.0
 40
0.0
 40
1.0
 40
1.0
 40
1.0
 40
2.0
 40
2.0
 40
2.0
 40
3.0
 40
3.0
 40
3.0
 40
3.0
 10
275.3270573245602
 20
-1698.008761433012
 30
0.0
 10
279.4885388841209
 20
-1700.031979884114
 30
0.0
 10
283.6908017614883
 20
-1701.984057113442
 30
0.0
 10
287.9314128579759
 20
-1703.865596012711
 30
0.0
 10
297.999661349925
 20
-1700.96611752494
 30
0.0
 10
306.4137687764782
 20
-1697.263415024778
 30
0.0
 10
312.1725257940814
 20
-1692.618220527242
 30
0.0
 10
299.7587271046936
 20
-1694.226821736694
 30
0.0
 10
287.5180444634395
 20
-1696.163482163727
 30
0.0
 10
275.3270573245602
 20
-1698.008761433012
 30
0.0
  0
HATCH
  5
73
330
43
100
AcDbEntity
  8
Layer 1
 62
    45
420
 10783355
100
AcDbHatch
 10
0.0
 20
0.0
 30
0.0
210
0.0
220
0.0
230
1.0
  2
SOLID
 70
     1
 71
     0
 91
        1
 92
        1
 93
        1
 72
     4
 94
        3
 73
     0
 74
     1
 95
       14
 96
       10
 40
0.0
 40
0.0
 40
0.0
 40
0.0
 40
1.0
 40
1.0
 40
1.0
 40
2.0
 40
2.0
 40
2.0
 40
3.0
 40
3.0
 40
3.0
 40
3.0
 10
275.3270573245602
 20
-1698.008761433012
 10
279.4885388841209
 20
-1700.031979884114
 10
283.6908017614883
 20
-1701.984057113442
 10
287.9314128579759
 20
-1703.865596012711
 10
297.999661349925
 20
-1700.96611752494
 10
306.4137687764782
 20
-1697.263415024778
 10
312.1725257940814
 20
-1692.618220527242
 10
299.7587271046936
 20
-1694.226821736694
 10
287.5180444634395
 20
-1696.163482163727
 10
275.3270573245602
 20
-1698.008761433012
 97
        0
 97
        0
 75
     2
 76
     1
 98
        0
  0
SPLINE
  5
74
330
43
100
AcDbEntity
  8
Layer 1
370
     0
100
AcDbSpline
210
0.0
220
0.0
230
1.0
 70
    11
 71
     3
 72
    35
 73
    31
 74
     0
 42
0.0000000001
 43
0.0000000001
 12
1.0
 22
0.0
 32
0.0
 13
1.0
 23
0.0
 33
0.0
 40
0.0
 40
0.0
 40
0.0
 40
0.0
 40
1.0
 40
1.0
 40
1.0
 40
2.0
 40
2.0
 40
2.0
 40
3.0
 40
3.0
 40
3.0
 40
4.0
 40
4.0
 40
4.0
 40
5.0
 40
5.0
 40
5.0
 40
6.0
 40
6.0
 40
6.0
 40
7.0
 40
7.0
 40
7.0
 40
8.0
 40
8.0
 40
8.0
 40
9.0
 40
9.0
 40
9.0
 40
10.0
 40
10.0
 40
10.0
 40
10.0
 10
818.2230968549061
 20
-1410.248548288806
 30
0.0
 10
818.1817557090831
 20
-1393.616876133133
 30
0.0
 10
817.9851268842643
 20
-1376.985203977463
 30
0.0
 10
817.8454282623375
 20
-1360.350560426934
 30
0.0
 10
817.4210786259399
 20
-1309.142101306161
 30
0.0
 10
816.4121824130845
 20
-1258.027154995968
 30
0.0
 10
812.1226940244
 20
-1206.858077622965
 30
0.0
 10
810.7891836894488
 20
-1190.954375675172
 30
0.0
 10
809.5202688948422
 20
-1174.859320205019
 30
0.0
 10
807.6464814604149
 20
-1158.75440314904
 30
0.0
 10
801.8458019371254
 20
-1147.207584270365
 30
0.0
 10
795.5028643844577
 20
-1135.98077169857
 30
0.0
 10
788.6503972095214
 20
-1125.106736904468
 30
0.0
 10
792.3298453151574
 20
-1136.299378435418
 30
0.0
 10
795.083854646066
 20
-1147.55041433484
 30
0.0
 10
796.9516131633943
 20
-1158.750699671395
 30
0.0
 10
816.9916474737036
 20
-1278.988946135208
 30
0.0
 10
794.7318520148588
 20
-1401.410328076172
 30
0.0
 10
794.7318520148588
 20
-1521.874895781518
 30
0.0
 10
799.6158777569123
 20
-1521.181311932948
 30
0.0
 10
803.3997983831364
 20
-1520.593578643164
 30
0.0
 10
806.3400151250229
 20
-1519.970748443124
 30
0.0
 10
810.1992972149849
 20
-1512.425601757186
 30
0.0
 10
813.8217289903399
 20
-1504.739464538512
 30
0.0
 10
817.2064491772088
 20
-1496.92637555121
 30
0.0
 10
817.4858464210625
 20
-1487.962021780119
 30
0.0
 10
817.5368338342442
 20
-1478.995342569581
 30
0.0
 10
817.6746376536543
 20
-1470.032496027766
 30
0.0
 10
817.9799592410365
 20
-1450.106494378019
 30
0.0
 10
818.269691771346
 20
-1430.177521333412
 30
0.0
 10
818.2230968549061
 20
-1410.248548288806
 30
0.0
  0
HATCH
  5
75
330
43
100
AcDbEntity
  8
Layer 1
 62
    45
420
 10783355
100
AcDbHatch
 10
0.0
 20
0.0
 30
0.0
210
0.0
220
0.0
230
1.0
  2
SOLID
 70
     1
 71
     0
 91
        1
 92
        1
 93
        1
 72
     4
 94
        3
 73
     0
 74
     1
 95
       35
 96
       31
 40
0.0
 40
0.0
 40
0.0
 40
0.0
 40
1.0
 40
1.0
 40
1.0
 40
2.0
 40
2.0
 40
2.0
 40
3.0
 40
3.0
 40
3.0
 40
4.0
 40
4.0
 40
4.0
 40
5.0
 40
5.0
 40
5.0
 40
6.0
 40
6.0
 40
6.0
 40
7.0
 40
7.0
 40
7.0
 40
8.0
 40
8.0
 40
8.0
 40
9.0
 40
9.0
 40
9.0
 40
10.0
 40
10.0
 40
10.0
 40
10.0
 10
818.2230968549061
 20
-1410.248548288806
 10
818.1817557090831
 20
-1393.616876133133
 10
817.9851268842643
 20
-1376.985203977463
 10
817.8454282623375
 20
-1360.350560426934
 10
817.4210786259399
 20
-1309.142101306161
 10
816.4121824130845
 20
-1258.027154995968
 10
812.1226940244
 20
-1206.858077622965
 10
810.7891836894488
 20
-1190.954375675172
 10
809.5202688948422
 20
-1174.859320205019
 10
807.6464814604149
 20
-1158.75440314904
 10
801.8458019371254
 20
-1147.207584270365
 10
795.5028643844577
 20
-1135.98077169857
 10
788.6503972095214
 20
-1125.106736904468
 10
792.3298453151574
 20
-1136.299378435418
 10
795.083854646066
 20
-1147.55041433484
 10
796.9516131633943
 20
-1158.750699671395
 10
816.9916474737036
 20
-1278.988946135208
 10
794.7318520148588
 20
-1401.410328076172
 10
794.7318520148588
 20
-1521.874895781518
 10
799.6158777569123
 20
-1521.181311932948
 10
803.3997983831364
 20
-1520.593578643164
 10
806.3400151250229
 20
-1519.970748443124
 10
810.1992972149849
 20
-1512.425601757186
 10
813.8217289903399
 20
-1504.739464538512
 10
817.2064491772088
 20
-1496.92637555121
 10
817.4858464210625
 20
-1487.962021780119
 10
817.5368338342442
 20
-1478.995342569581
 10
817.6746376536543
 20
-1470.032496027766
 10
817.9799592410365
 20
-1450.106494378019
 10
818.269691771346
 20
-1430.177521333412
 10
818.2230968549061
 20
-1410.248548288806
 97
        0
 97
        0
 75
     2
 76
     1
 98
        0
  0
SPLINE
  5
76
330
43
100
AcDbEntity
  8
Layer 1
370
     0
100
AcDbSpline
210
0.0
220
0.0
230
1.0
 70
    11
 71
     3
 72
    11
 73
     7
 74
     0
 42
0.0000000001
 43
0.0000000001
 12
1.0
 22
0.0
 32
0.0
 13
1.0
 23
0.0
 33
0.0
 40
0.0
 40
0.0
 40
0.0
 40
0.0
 40
1.0
 40
1.0
 40
1.0
 40
2.0
 40
2.0
 40
2.0
 40
2.0
 10
839.0059798792242
 20
-1244.569104801307
 30
0.0
 10
837.7050256966087
 20
-1239.136512198772
 30
0.0
 10
836.298823846915
 20
-1233.744851636967
 30
0.0
 10
834.7786754640484
 20
-1228.400948711329
 30
0.0
 10
834.7676511584956
 20
-1234.542498901036
 30
0.0
 10
835.3720931613827
 20
-1241.026943750762
 30
0.0
 10
839.0059798792242
 20
-1244.569104801307
 30
0.0
  0
HATCH
  5
77
330
43
100
AcDbEntity
  8
Layer 1
 62
    45
420
 10783355
100
AcDbHatch
 10
0.0
 20
0.0
 30
0.0
210
0.0
220
0.0
230
1.0
  2
SOLID
 70
     1
 71
     0
 91
        1
 92
        1
 93
        1
 72
     4
 94
        3
 73
     0
 74
     1
 95
       11
 96
        7
 40
0.0
 40
0.0
 40
0.0
 40
0.0
 40
1.0
 40
1.0
 40
1.0
 40
2.0
 40
2.0
 40
2.0
 40
2.0
 10
839.0059798792242
 20
-1244.569104801307
 10
837.7050256966087
 20
-1239.136512198772
 10
836.298823846915
 20
-1233.744851636967
 10
834.7786754640484
 20
-1228.400948711329
 10
834.7676511584956
 20
-1234.542498901036
 10
835.3720931613827
 20
-1241.026943750762
 10
839.0059798792242
 20
-1244.569104801307
 97
        0
 97
        0
 75
     2
 76
     1
 98
        0
  0
SPLINE
  5
78
330
43
100
AcDbEntity
  8
Layer 1
370
     0
100
AcDbSpline
210
0.0
220
0.0
230
1.0
 70
    11
 71
     3
 72
    47
 73
    43
 74
     0
 42
0.0000000001
 43
0.0000000001
 12
1.0
 22
0.0
 32
0.0
 13
1.0
 23
0.0
 33
0.0
 40
0.0
 40
0.0
 40
0.0
 40
0.0
 40
1.0
 40
1.0
 40
1.0
 40
2.0
 40
2.0
 40
2.0
 40
3.0
 40
3.0
 40
3.0
 40
4.0
 40
4.0
 40
4.0
 40
5.0
 40
5.0
 40
5.0
 40
6.0
 40
6.0
 40
6.0
 40
7.0
 40
7.0
 40
7.0
 40
8.0
 40
8.0
 40
8.0
 40
9.0
 40
9.0
 40
9.0
 40
10.0
 40
10.0
 40
10.0
 40
11.0
 40
11.0
 40
11.0
 40
12.0
 40
12.0
 40
12.0
 40
13.0
 40
13.0
 40
13.0
 40
14.0
 40
14.0
 40
14.0
 40
14.0
 10
676.1630342276607
 20
-1540.218737329664
 30
0.0
 10
680.1524117358871
 20
-1532.08099115657
 30
0.0
 10
683.1224716174139
 20
-1523.732060630227
 30
0.0
 10
685.6733925694671
 20
-1515.404145186347
 30
0.0
 10
691.7893844570459
 20
-1495.453941740814
 30
0.0
 10
694.8214991209995
 20
-1475.07512535322
 30
0.0
 10
697.2638134378822
 20
-1454.877391797071
 30
0.0
 10
701.8999645597681
 20
-1416.550316950425
 30
0.0
 10
702.4950186774598
 20
-1378.108477360428
 30
0.0
 10
702.0655013978344
 20
-1339.69988294186
 30
0.0
 10
701.2169743798173
 20
-1264.706527654619
 30
0.0
 10
706.8672754851756
 20
-1188.662289053295
 30
0.0
 10
656.3196287421702
 20
-1118.219345074053
 30
0.0
 10
616.6483637645656
 20
-1062.940548701154
 30
0.0
 10
537.5541821301533
 20
-985.6855097596912
 30
0.0
 10
424.1079198836658
 20
-978.6167767156696
 30
0.0
 10
369.5812309188894
 20
-975.2166397265023
 30
0.0
 10
313.1763404910961
 20
-988.496707675655
 30
0.0
 10
268.1496745816714
 20
-1005.442271093728
 30
0.0
 10
243.1733782690135
 20
-1014.84223565708
 30
0.0
 10
221.6121189834967
 20
-1026.23195818163
 30
0.0
 10
199.9473776423417
 20
-1037.984018623841
 30
0.0
 10
190.4111380207023
 20
-1043.158315192371
 30
0.0
 10
179.5946793848977
 20
-1050.407205198426
 30
0.0
 10
167.26935505394
 20
-1055.114476010238
 30
0.0
 10
159.3662198833898
 20
-1063.011431540761
 30
0.0
 10
151.7922420546087
 20
-1071.237630540441
 30
0.0
 10
144.5690395417657
 20
-1079.770313847226
 30
0.0
 10
182.1817953713925
 20
-1052.855742219027
 30
0.0
 10
232.503099341017
 20
-1023.291633780511
 30
0.0
 10
291.1442227801328
 20
-1013.98468679526
 30
0.0
 10
397.3257906450262
 20
-997.1296001973683
 30
0.0
 10
525.9224201159152
 20
-1015.19854465764
 30
0.0
 10
593.9694724399402
 20
-1067.107520881642
 30
0.0
 10
679.6919316605911
 20
-1132.498770627936
 30
0.0
 10
684.0848590412184
 20
-1225.77249157901
 30
0.0
 10
687.5774968441647
 20
-1304.467752688081
 30
0.0
 10
691.3288613180532
 20
-1389.069436219991
 30
0.0
 10
680.1886283021751
 20
-1469.996236397786
 30
0.0
 10
644.677488377784
 20
-1551.952732552425
 30
0.0
 10
668.6344670637442
 20
-1553.607411913991
 30
0.0
 10
669.317457243695
 20
-1554.190192879014
 30
0.0
 10
676.1630342276607
 20
-1540.218737329664
 30
0.0
  0
HATCH
  5
79
330
43
100
AcDbEntity
  8
Layer 1
 62
    45
420
 10783355
100
AcDbHatch
 10
0.0
 20
0.0
 30
0.0
210
0.0
220
0.0
230
1.0
  2
SOLID
 70
     1
 71
     0
 91
        1
 92
        1
 93
        1
 72
     4
 94
        3
 73
     0
 74
     1
 95
       47
 96
       43
 40
0.0
 40
0.0
 40
0.0
 40
0.0
 40
1.0
 40
1.0
 40
1.0
 40
2.0
 40
2.0
 40
2.0
 40
3.0
 40
3.0
 40
3.0
 40
4.0
 40
4.0
 40
4.0
 40
5.0
 40
5.0
 40
5.0
 40
6.0
 40
6.0
 40
6.0
 40
7.0
 40
7.0
 40
7.0
 40
8.0
 40
8.0
 40
8.0
 40
9.0
 40
9.0
 40
9.0
 40
10.0
 40
10.0
 40
10.0
 40
11.0
 40
11.0
 40
11.0
 40
12.0
 40
12.0
 40
12.0
 40
13.0
 40
13.0
 40
13.0
 40
14.0
 40
14.0
 40
14.0
 40
14.0
 10
676.1630342276607
 20
-1540.218737329664
 10
680.1524117358871
 20
-1532.08099115657
 10
683.1224716174139
 20
-1523.732060630227
 10
685.6733925694671
 20
-1515.404145186347
 10
691.7893844570459
 20
-1495.453941740814
 10
694.8214991209995
 20
-1475.07512535322
 10
697.2638134378822
 20
-1454.877391797071
 10
701.8999645597681
 20
-1416.550316950425
 10
702.4950186774598
 20
-1378.108477360428
 10
702.0655013978344
 20
-1339.69988294186
 10
701.2169743798173
 20
-1264.706527654619
 10
706.8672754851756
 20
-1188.662289053295
 10
656.3196287421702
 20
-1118.219345074053
 10
616.6483637645656
 20
-1062.940548701154
 10
537.5541821301533
 20
-985.6855097596912
 10
424.1079198836658
 20
-978.6167767156696
 10
369.5812309188894
 20
-975.2166397265023
 10
313.1763404910961
 20
-988.496707675655
 10
268.1496745816714
 20
-1005.442271093728
 10
243.1733782690135
 20
-1014.84223565708
 10
221.6121189834967
 20
-1026.23195818163
 10
199.9473776423417
 20
-1037.984018623841
 10
190.4111380207023
 20
-1043.158315192371
 10
179.5946793848977
 20
-1050.407205198426
 10
167.26935505394
 20
-1055.114476010238
 10
159.3662198833898
 20
-1063.011431540761
 10
151.7922420546087
 20
-1071.237630540441
 10
144.5690395417657
 20
-1079.770313847226
 10
182.1817953713925
 20
-1052.855742219027
 10
232.503099341017
 20
-1023.291633780511
 10
291.1442227801328
 20
-1013.98468679526
 10
397.3257906450262
 20
-997.1296001973683
 10
525.9224201159152
 20
-1015.19854465764
 10
593.9694724399402
 20
-1067.107520881642
 10
679.6919316605911
 20
-1132.498770627936
 10
684.0848590412184
 20
-1225.77249157901
 10
687.5774968441647
 20
-1304.467752688081
 10
691.3288613180532
 20
-1389.069436219991
 10
680.1886283021751
 20
-1469.996236397786
 10
644.677488377784
 20
-1551.952732552425
 10
668.6344670637442
 20
-1553.607411913991
 10
669.317457243695
 20
-1554.190192879014
 10
676.1630342276607
 20
-1540.218737329664
 97
        0
 97
        0
 75
     2
 76
     1
 98
        0
  0
SPLINE
  5
7A
330
43
100
AcDbEntity
  8
Layer 1
370
     0
100
AcDbSpline
210
0.0
220
0.0
230
1.0
 70
    11
 71
     3
 72
   203
 73
   199
 74
     0
 42
0.0000000001
 43
0.0000000001
 12
1.0
 22
0.0
 32
0.0
 13
1.0
 23
0.0
 33
0.0
 40
0.0
 40
0.0
 40
0.0
 40
0.0
 40
1.0
 40
1.0
 40
1.0
 40
2.0
 40
2.0
 40
2.0
 40
3.0
 40
3.0
 40
3.0
 40
4.0
 40
4.0
 40
4.0
 40
5.0
 40
5.0
 40
5.0
 40
6.0
 40
6.0
 40
6.0
 40
7.0
 40
7.0
 40
7.0
 40
8.0
 40
8.0
 40
8.0
 40
9.0
 40
9.0
 40
9.0
 40
10.0
 40
10.0
 40
10.0
 40
11.0
 40
11.0
 40
11.0
 40
12.0
 40
12.0
 40
12.0
 40
13.0
 40
13.0
 40
13.0
 40
14.0
 40
14.0
 40
14.0
 40
15.0
 40
15.0
 40
15.0
 40
16.0
 40
16.0
 40
16.0
 40
17.0
 40
17.0
 40
17.0
 40
18.0
 40
18.0
 40
18.0
 40
19.0
 40
19.0
 40
19.0
 40
20.0
 40
20.0
 40
20.0
 40
21.0
 40
21.0
 40
21.0
 40
22.0
 40
22.0
 40
22.0
 40
23.0
 40
23.0
 40
23.0
 40
24.0
 40
24.0
 40
24.0
 40
25.0
 40
25.0
 40
25.0
 40
26.0
 40
26.0
 40
26.0
 40
27.0
 40
27.0
 40
27.0
 40
28.0
 40
28.0
 40
28.0
 40
29.0
 40
29.0
 40
29.0
 40
30.0
 40
30.0
 40
30.0
 40
31.0
 40
31.0
 40
31.0
 40
32.0
 40
32.0
 40
32.0
 40
33.0
 40
33.0
 40
33.0
 40
34.0
 40
34.0
 40
34.0
 40
35.0
 40
35.0
 40
35.0
 40
36.0
 40
36.0
 40
36.0
 40
37.0
 40
37.0
 40
37.0
 40
38.0
 40
38.0
 40
38.0
 40
39.0
 40
39.0
 40
39.0
 40
40.0
 40
40.0
 40
40.0
 40
41.0
 40
41.0
 40
41.0
 40
42.0
 40
42.0
 40
42.0
 40
43.0
 40
43.0
 40
43.0
 40
44.0
 40
44.0
 40
44.0
 40
45.0
 40
45.0
 40
45.0
 40
46.0
 40
46.0
 40
46.0
 40
47.0
 40
47.0
 40
47.0
 40
48.0
 40
48.0
 40
48.0
 40
49.0
 40
49.0
 40
49.0
 40
50.0
 40
50.0
 40
50.0
 40
51.0
 40
51.0
 40
51.0
 40
52.0
 40
52.0
 40
52.0
 40
53.0
 40
53.0
 40
53.0
 40
54.0
 40
54.0
 40
54.0
 40
55.0
 40
55.0
 40
55.0
 40
56.0
 40
56.0
 40
56.0
 40
57.0
 40
57.0
 40
57.0
 40
58.0
 40
58.0
 40
58.0
 40
59.0
 40
59.0
 40
59.0
 40
60.0
 40
60.0
 40
60.0
 40
61.0
 40
61.0
 40
61.0
 40
62.0
 40
62.0
 40
62.0
 40
63.0
 40
63.0
 40
63.0
 40
64.0
 40
64.0
 40
64.0
 40
65.0
 40
65.0
 40
65.0
 40
66.0
 40
66.0
 40
66.0
 40
66.0
 10
515.0304923571384
 20
-1455.792323030568
 30
0.0
 10
534.7445345071578
 20
-1384.497837574758
 30
0.0
 10
529.83932142787
 20
-1295.282396041615
 30
0.0
 10
469.1759700026068
 20
-1230.818156894862
 30
0.0
 10
407.6381672157988
 20
-1165.429921607116
 30
0.0
 10
282.3530927164126
 20
-1121.987741238745
 30
0.0
 10
171.9648264137149
 20
-1178.59212422698
 30
0.0
 10
93.85135580471642
 20
-1218.64846475245
 30
0.0
 10
62.62847695374393
 20
-1277.948398107581
 30
0.0
 10
50.00508726777249
 20
-1337.265492344597
 30
0.0
 10
50.0045705034497
 20
-1337.533219327493
 30
0.0
 10
50.00000575193175
 20
-1337.800041972826
 30
0.0
 10
50.00000575193175
 20
-1338.067941210497
 30
0.0
 10
50.00000575193175
 20
-1415.32291555642
 30
0.0
 10
71.90562386304573
 20
-1487.459683794677
 30
0.0
 10
109.8379984263165
 20
-1548.613918262895
 30
0.0
 10
133.7696556604598
 20
-1569.335306332802
 30
0.0
 10
166.0391545198509
 20
-1587.624715372285
 30
0.0
 10
207.3052187931173
 20
-1591.565990734796
 30
0.0
 10
268.2635134556121
 20
-1597.387771467935
 30
0.0
 10
322.2106512323814
 20
-1559.936396829943
 30
0.0
 10
353.8203712426536
 20
-1534.587211994701
 30
0.0
 10
392.3015495167269
 20
-1503.72746773972
 30
0.0
 10
406.5049891833149
 20
-1463.174990400684
 30
0.0
 10
411.6482583606296
 20
-1425.82029375475
 30
0.0
 10
418.0695287718942
 20
-1379.198548635654
 30
0.0
 10
412.8124422524846
 20
-1223.287415014417
 30
0.0
 10
267.6684593379223
 20
-1271.914141110391
 30
0.0
 10
214.9528140060491
 20
-1289.578480637769
 30
0.0
 10
186.8408994419508
 20
-1322.283030461405
 30
0.0
 10
178.4844327692352
 20
-1356.500666222167
 30
0.0
 10
172.9272353693659
 20
-1379.249880558384
 30
0.0
 10
173.1962973267639
 20
-1452.014861958377
 30
0.0
 10
236.6330798087345
 20
-1449.149317661135
 30
0.0
 10
291.056265186025
 20
-1446.688270637554
 30
0.0
 10
303.6815281426669
 20
-1382.326824527342
 30
0.0
 10
280.3402956791554
 20
-1361.745565716297
 30
0.0
 10
258.0494728290966
 20
-1342.088367641784
 30
0.0
 10
245.874376193143
 20
-1367.144547106006
 30
0.0
 10
243.8356978760528
 20
-1379.950397661617
 30
0.0
 10
240.9070437358887
 20
-1398.372658195746
 30
0.0
 10
240.8242537850088
 20
-1398.798299742949
 30
0.0
 10
271.1352373928825
 20
-1394.595240187251
 30
0.0
 10
273.5516273662367
 20
-1403.397200769905
 30
0.0
 10
251.6695650955027
 20
-1413.612296456911
 30
0.0
 10
237.3678325483512
 20
-1409.345674889511
 30
0.0
 10
221.6845736479209
 20
-1404.665383481718
 30
0.0
 10
230.5739965922046
 20
-1375.949522147207
 30
0.0
 10
233.2077074951378
 20
-1368.566768649706
 30
0.0
 10
244.6584082097772
 20
-1336.484058561154
 30
0.0
 10
284.5159451938993
 20
-1344.537098449006
 30
0.0
 10
305.0630544959456
 20
-1368.720764417897
 30
0.0
 10
305.9737224237779
 20
-1357.406511016317
 30
0.0
 10
294.0107790741753
 20
-1340.183057583666
 30
0.0
 10
271.9734721881373
 20
-1338.519248719065
 30
0.0
 10
244.2392908121498
 20
-1336.423683262776
 30
0.0
 10
223.0247157916831
 20
-1358.273124785632
 30
0.0
 10
216.867296630896
 20
-1371.139264512234
 30
0.0
 10
208.0192794279756
 20
-1389.637144892268
 30
0.0
 10
220.4841301260856
 20
-1400.299112527405
 30
0.0
 10
233.1456096490161
 20
-1416.145690485683
 30
0.0
 10
236.3847099560948
 20
-1420.197897922822
 30
0.0
 10
255.45714613568
 20
-1428.341629949323
 30
0.0
 10
224.6959962071181
 20
-1421.725797770531
 30
0.0
 10
174.0397212970937
 20
-1410.825257273037
 30
0.0
 10
206.1151320895845
 20
-1356.165458431452
 30
0.0
 10
231.8675653513756
 20
-1340.795983134185
 30
0.0
 10
277.4582149235825
 20
-1313.583862915294
 30
0.0
 10
321.7346036318602
 20
-1347.203473163509
 30
0.0
 10
323.9750784169989
 20
-1374.696411728141
 30
0.0
 10
326.2414129501237
 20
-1402.449024364975
 30
0.0
 10
315.0546065496544
 20
-1449.433150465427
 30
0.0
 10
262.8615606710468
 20
-1460.303503313728
 30
0.0
 10
194.4264183406078
 20
-1474.558662476288
 30
0.0
 10
171.0593261291102
 20
-1430.243968612585
 30
0.0
 10
164.5138600256036
 20
-1399.831096305734
 30
0.0
 10
150.7398945749453
 20
-1335.795642355816
 30
0.0
 10
199.4920436784256
 20
-1239.547533622007
 30
0.0
 10
340.8380887345062
 20
-1253.093326092309
 30
0.0
 10
306.0513447314299
 20
-1235.782281106943
 30
0.0
 10
250.5208841333333
 20
-1252.26295042113
 30
0.0
 10
222.6935559881634
 20
-1267.218777409852
 30
0.0
 10
189.9092522040418
 20
-1284.840699199064
 30
0.0
 10
171.5664011208457
 20
-1310.271446669922
 30
0.0
 10
160.6797056008349
 20
-1335.007533699868
 30
0.0
 10
143.8218629265554
 20
-1373.298348916533
 30
0.0
 10
133.7423532787392
 20
-1465.880639203718
 30
0.0
 10
231.6761257016296
 20
-1474.256699857006
 30
0.0
 10
328.1610847500452
 20
-1482.5062393786
 30
0.0
 10
351.4298625491326
 20
-1377.876019542559
 30
0.0
 10
334.225335609803
 20
-1341.810563754591
 30
0.0
 10
323.3386400897925
 20
-1318.994859075508
 30
0.0
 10
299.5162139143788
 20
-1305.268048369305
 30
0.0
 10
257.1957135723113
 20
-1312.478719347322
 30
0.0
 10
212.396725410768
 20
-1320.112103541375
 30
0.0
 10
221.6173081585714
 20
-1346.330830477095
 30
0.0
 10
191.7927074376747
 20
-1359.930861669441
 30
0.0
 10
183.3275695342462
 20
-1330.031308589895
 30
0.0
 10
244.9792111949943
 20
-1293.102296554857
 30
0.0
 10
296.3081625303609
 20
-1302.299840226603
 30
0.0
 10
359.491407516464
 20
-1313.623093940133
 30
0.0
 10
356.1125870556126
 20
-1367.947728054699
 30
0.0
 10
347.5646592013033
 20
-1397.946887457465
 30
0.0
 10
338.6338305156562
 20
-1429.265475367385
 30
0.0
 10
308.9489499485332
 20
-1480.785069674169
 30
0.0
 10
245.7553481441276
 20
-1486.093315861534
 30
0.0
 10
174.117322072899
 20
-1492.111380909943
 30
0.0
 10
153.8806804696136
 20
-1449.804531758737
 30
0.0
 10
141.7418003999487
 20
-1418.032827665117
 30
0.0
 10
143.7649542555084
 20
-1450.000816074007
 30
0.0
 10
155.6606321157615
 20
-1494.838044795437
 30
0.0
 10
215.2891414527967
 20
-1507.517115837191
 30
0.0
 10
275.0935659780474
 20
-1520.238475426024
 30
0.0
 10
315.4375073809931
 20
-1483.593253131581
 30
0.0
 10
333.3405489618038
 20
-1455.698702560755
 30
0.0
 10
356.5834454810572
 20
-1419.4792510046
 30
0.0
 10
364.3500256793118
 20
-1376.619851601252
 30
0.0
 10
351.9990353869894
 20
-1338.543407451155
 30
0.0
 10
346.7729977906397
 20
-1322.446241860021
 30
0.0
 10
338.069846852874
 20
-1303.513676557134
 30
0.0
 10
312.2501481017335
 20
-1294.575850021283
 30
0.0
 10
282.2806595838352
 20
-1284.200686585294
 30
0.0
 10
265.7074033284842
 20
-1295.916508929368
 30
0.0
 10
237.4144059329424
 20
-1298.990395376082
 30
0.0
 10
231.7744185821931
 20
-1285.218281664248
 30
0.0
 10
289.3487466724545
 20
-1280.719159215286
 30
0.0
 10
305.0941034190064
 20
-1282.425084372196
 30
0.0
 10
329.2787167891539
 20
-1285.043098558823
 30
0.0
 10
341.3865694676048
 20
-1295.723239072646
 30
0.0
 10
353.5099250757396
 20
-1307.146185236782
 30
0.0
 10
353.4737085094519
 20
-1301.363764719564
 30
0.0
 10
333.7027361565374
 20
-1277.853614918044
 30
0.0
 10
337.8732180280534
 20
-1276.352888260973
 30
0.0
 10
351.0314372562634
 20
-1271.627293847552
 30
0.0
 10
359.0671009437629
 20
-1286.755224887607
 30
0.0
 10
362.6425502294368
 20
-1292.16320658927
 30
0.0
 10
379.5987073161247
 20
-1317.814138725328
 30
0.0
 10
387.2721407451959
 20
-1345.874872089622
 30
0.0
 10
390.9096878769895
 20
-1373.165497421884
 30
0.0
 10
397.739718867579
 20
-1424.428302923935
 30
0.0
 10
385.3369444837458
 20
-1476.258774034566
 30
0.0
 10
337.8628612097509
 20
-1520.528294083719
 30
0.0
 10
317.0984525099724
 20
-1539.889644583438
 30
0.0
 10
280.9922584678922
 20
-1562.487791482626
 30
0.0
 10
237.7662578412204
 20
-1558.342092766759
 30
0.0
 10
197.3550509489251
 20
-1554.464982307659
 30
0.0
 10
166.650831223257
 20
-1531.238665310427
 30
0.0
 10
147.4386964217449
 20
-1511.970849153133
 30
0.0
 10
124.9150281805768
 20
-1489.387731482997
 30
0.0
 10
111.2031605760407
 20
-1463.727669843904
 30
0.0
 10
103.6590474187467
 20
-1438.064593746262
 30
0.0
 10
99.52994975674729
 20
-1424.008604166443
 30
0.0
 10
97.3567619928049
 20
-1409.723128163613
 30
0.0
 10
96.67891792423522
 20
-1395.470897332216
 30
0.0
 10
96.12010190468123
 20
-1383.715800899606
 30
0.0
 10
103.410677566107
 20
-1366.410784831341
 30
0.0
 10
97.13425188815165
 20
-1355.150877811046
 30
0.0
 10
86.2992973959599
 20
-1392.261101868609
 30
0.0
 10
87.24101424685294
 20
-1429.247474743477
 30
0.0
 10
102.3447650229707
 20
-1465.980245526934
 30
0.0
 10
109.0195944619487
 20
-1482.210305676417
 30
0.0
 10
117.5623546730291
 20
-1498.02665292181
 30
0.0
 10
130.8913214462268
 20
-1512.807318336951
 30
0.0
 10
133.3387603426422
 20
-1515.518866866006
 30
0.0
 10
155.2518715364366
 20
-1533.307014512382
 30
0.0
 10
148.8047198453401
 20
-1536.296409992322
 30
0.0
 10
89.06237163436418
 20
-1519.957614016587
 30
0.0
 10
75.85757902156296
 20
-1452.845259161404
 30
0.0
 10
70.76090476068434
 20
-1419.328269694956
 30
0.0
 10
63.26336498798223
 20
-1370.025163695997
 30
0.0
 10
88.3327865379754
 20
-1325.988144528406
 30
0.0
 10
120.2064223942648
 20
-1280.915271275785
 30
0.0
 10
145.0533553714515
 20
-1245.779991268831
 30
0.0
 10
178.5568659018126
 20
-1203.793234551898
 30
0.0
 10
242.6818277388087
 20
-1188.236539846858
 30
0.0
 10
305.1872286563421
 20
-1173.072392240512
 30
0.0
 10
370.3211513017359
 20
-1192.506175872807
 30
0.0
 10
411.891395974503
 20
-1220.207478118759
 30
0.0
 10
503.372849063068
 20
-1281.163016704867
 30
0.0
 10
512.6348160203879
 20
-1383.960402679059
 30
0.0
 10
494.5351886784496
 20
-1460.43334034983
 30
0.0
 10
478.8053133297364
 20
-1526.908610922402
 30
0.0
 10
418.3385907292922
 20
-1616.259918408744
 30
0.0
 10
297.5499902617128
 20
-1639.154042073813
 30
0.0
 10
256.0268572697064
 20
-1647.025137856348
 30
0.0
 10
215.5557057159679
 20
-1642.813680880404
 30
0.0
 10
179.0640700846285
 20
-1632.329307917533
 30
0.0
 10
189.3703316109148
 20
-1641.823474310559
 30
0.0
 10
200.1745601577472
 20
-1650.784684432016
 30
0.0
 10
211.4368141493435
 20
-1659.165740473758
 30
0.0
 10
236.7992626022043
 20
-1659.940456321001
 30
0.0
 10
262.1443563865581
 20
-1658.622190533571
 30
0.0
 10
283.527654958415
 20
-1655.492838049544
 30
0.0
 10
350.0379793775513
 20
-1645.754845023551
 30
0.0
 10
392.7724079421715
 20
-1614.883042934371
 30
0.0
 10
427.8903332806142
 20
-1582.435023533305
 30
0.0
 10
468.9069080452088
 20
-1544.54276280059
 30
0.0
 10
502.7312430926332
 20
-1500.267170770642
 30
0.0
 10
515.0304923571384
 20
-1455.792323030568
 30
0.0
  0
HATCH
  5
7B
330
43
100
AcDbEntity
  8
Layer 1
 62
    45
420
 10783355
100
AcDbHatch
 10
0.0
 20
0.0
 30
0.0
210
0.0
220
0.0
230
1.0
  2
SOLID
 70
     1
 71
     0
 91
        1
 92
        1
 93
        1
 72
     4
 94
        3
 73
     0
 74
     1
 95
      203
 96
      199
 40
0.0
 40
0.0
 40
0.0
 40
0.0
 40
1.0
 40
1.0
 40
1.0
 40
2.0
 40
2.0
 40
2.0
 40
3.0
 40
3.0
 40
3.0
 40
4.0
 40
4.0
 40
4.0
 40
5.0
 40
5.0
 40
5.0
 40
6.0
 40
6.0
 40
6.0
 40
7.0
 40
7.0
 40
7.0
 40
8.0
 40
8.0
 40
8.0
 40
9.0
 40
9.0
 40
9.0
 40
10.0
 40
10.0
 40
10.0
 40
11.0
 40
11.0
 40
11.0
 40
12.0
 40
12.0
 40
12.0
 40
13.0
 40
13.0
 40
13.0
 40
14.0
 40
14.0
 40
14.0
 40
15.0
 40
15.0
 40
15.0
 40
16.0
 40
16.0
 40
16.0
 40
17.0
 40
17.0
 40
17.0
 40
18.0
 40
18.0
 40
18.0
 40
19.0
 40
19.0
 40
19.0
 40
20.0
 40
20.0
 40
20.0
 40
21.0
 40
21.0
 40
21.0
 40
22.0
 40
22.0
 40
22.0
 40
23.0
 40
23.0
 40
23.0
 40
24.0
 40
24.0
 40
24.0
 40
25.0
 40
25.0
 40
25.0
 40
26.0
 40
26.0
 40
26.0
 40
27.0
 40
27.0
 40
27.0
 40
28.0
 40
28.0
 40
28.0
 40
29.0
 40
29.0
 40
29.0
 40
30.0
 40
30.0
 40
30.0
 40
31.0
 40
31.0
 40
31.0
 40
32.0
 40
32.0
 40
32.0
 40
33.0
 40
33.0
 40
33.0
 40
34.0
 40
34.0
 40
34.0
 40
35.0
 40
35.0
 40
35.0
 40
36.0
 40
36.0
 40
36.0
 40
37.0
 40
37.0
 40
37.0
 40
38.0
 40
38.0
 40
38.0
 40
39.0
 40
39.0
 40
39.0
 40
40.0
 40
40.0
 40
40.0
 40
41.0
 40
41.0
 40
41.0
 40
42.0
 40
42.0
 40
42.0
 40
43.0
 40
43.0
 40
43.0
 40
44.0
 40
44.0
 40
44.0
 40
45.0
 40
45.0
 40
45.0
 40
46.0
 40
46.0
 40
46.0
 40
47.0
 40
47.0
 40
47.0
 40
48.0
 40
48.0
 40
48.0
 40
49.0
 40
49.0
 40
49.0
 40
50.0
 40
50.0
 40
50.0
 40
51.0
 40
51.0
 40
51.0
 40
52.0
 40
52.0
 40
52.0
 40
53.0
 40
53.0
 40
53.0
 40
54.0
 40
54.0
 40
54.0
 40
55.0
 40
55.0
 40
55.0
 40
56.0
 40
56.0
 40
56.0
 40
57.0
 40
57.0
 40
57.0
 40
58.0
 40
58.0
 40
58.0
 40
59.0
 40
59.0
 40
59.0
 40
60.0
 40
60.0
 40
60.0
 40
61.0
 40
61.0
 40
61.0
 40
62.0
 40
62.0
 40
62.0
 40
63.0
 40
63.0
 40
63.0
 40
64.0
 40
64.0
 40
64.0
 40
65.0
 40
65.0
 40
65.0
 40
66.0
 40
66.0
 40
66.0
 40
66.0
 10
515.0304923571384
 20
-1455.792323030568
 10
534.7445345071578
 20
-1384.497837574758
 10
529.83932142787
 20
-1295.282396041615
 10
469.1759700026068
 20
-1230.818156894862
 10
407.6381672157988
 20
-1165.429921607116
 10
282.3530927164126
 20
-1121.987741238745
 10
171.9648264137149
 20
-1178.59212422698
 10
93.85135580471642
 20
-1218.64846475245
 10
62.62847695374393
 20
-1277.948398107581
 10
50.00508726777249
 20
-1337.265492344597
 10
50.0045705034497
 20
-1337.533219327493
 10
50.00000575193175
 20
-1337.800041972826
 10
50.00000575193175
 20
-1338.067941210497
 10
50.00000575193175
 20
-1415.32291555642
 10
71.90562386304573
 20
-1487.459683794677
 10
109.8379984263165
 20
-1548.613918262895
 10
133.7696556604598
 20
-1569.335306332802
 10
166.0391545198509
 20
-1587.624715372285
 10
207.3052187931173
 20
-1591.565990734796
 10
268.2635134556121
 20
-1597.387771467935
 10
322.2106512323814
 20
-1559.936396829943
 10
353.8203712426536
 20
-1534.587211994701
 10
392.3015495167269
 20
-1503.72746773972
 10
406.5049891833149
 20
-1463.174990400684
 10
411.6482583606296
 20
-1425.82029375475
 10
418.0695287718942
 20
-1379.198548635654
 10
412.8124422524846
 20
-1223.287415014417
 10
267.6684593379223
 20
-1271.914141110391
 10
214.9528140060491
 20
-1289.578480637769
 10
186.8408994419508
 20
-1322.283030461405
 10
178.4844327692352
 20
-1356.500666222167
 10
172.9272353693659
 20
-1379.249880558384
 10
173.1962973267639
 20
-1452.014861958377
 10
236.6330798087345
 20
-1449.149317661135
 10
291.056265186025
 20
-1446.688270637554
 10
303.6815281426669
 20
-1382.326824527342
 10
280.3402956791554
 20
-1361.745565716297
 10
258.0494728290966
 20
-1342.088367641784
 10
245.874376193143
 20
-1367.144547106006
 10
243.8356978760528
 20
-1379.950397661617
 10
240.9070437358887
 20
-1398.372658195746
 10
240.8242537850088
 20
-1398.798299742949
 10
271.1352373928825
 20
-1394.595240187251
 10
273.5516273662367
 20
-1403.397200769905
 10
251.6695650955027
 20
-1413.612296456911
 10
237.3678325483512
 20
-1409.345674889511
 10
221.6845736479209
 20
-1404.665383481718
 10
230.5739965922046
 20
-1375.949522147207
 10
233.2077074951378
 20
-1368.566768649706
 10
244.6584082097772
 20
-1336.484058561154
 10
284.5159451938993
 20
-1344.537098449006
 10
305.0630544959456
 20
-1368.720764417897
 10
305.9737224237779
 20
-1357.406511016317
 10
294.0107790741753
 20
-1340.183057583666
 10
271.9734721881373
 20
-1338.519248719065
 10
244.2392908121498
 20
-1336.423683262776
 10
223.0247157916831
 20
-1358.273124785632
 10
216.867296630896
 20
-1371.139264512234
 10
208.0192794279756
 20
-1389.637144892268
 10
220.4841301260856
 20
-1400.299112527405
 10
233.1456096490161
 20
-1416.145690485683
 10
236.3847099560948
 20
-1420.197897922822
 10
255.45714613568
 20
-1428.341629949323
 10
224.6959962071181
 20
-1421.725797770531
 10
174.0397212970937
 20
-1410.825257273037
 10
206.1151320895845
 20
-1356.165458431452
 10
231.8675653513756
 20
-1340.795983134185
 10
277.4582149235825
 20
-1313.583862915294
 10
321.7346036318602
 20
-1347.203473163509
 10
323.9750784169989
 20
-1374.696411728141
 10
326.2414129501237
 20
-1402.449024364975
 10
315.0546065496544
 20
-1449.433150465427
 10
262.8615606710468
 20
-1460.303503313728
 10
194.4264183406078
 20
-1474.558662476288
 10
171.0593261291102
 20
-1430.243968612585
 10
164.5138600256036
 20
-1399.831096305734
 10
150.7398945749453
 20
-1335.795642355816
 10
199.4920436784256
 20
-1239.547533622007
 10
340.8380887345062
 20
-1253.093326092309
 10
306.0513447314299
 20
-1235.782281106943
 10
250.5208841333333
 20
-1252.26295042113
 10
222.6935559881634
 20
-1267.218777409852
 10
189.9092522040418
 20
-1284.840699199064
 10
171.5664011208457
 20
-1310.271446669922
 10
160.6797056008349
 20
-1335.007533699868
 10
143.8218629265554
 20
-1373.298348916533
 10
133.7423532787392
 20
-1465.880639203718
 10
231.6761257016296
 20
-1474.256699857006
 10
328.1610847500452
 20
-1482.5062393786
 10
351.4298625491326
 20
-1377.876019542559
 10
334.225335609803
 20
-1341.810563754591
 10
323.3386400897925
 20
-1318.994859075508
 10
299.5162139143788
 20
-1305.268048369305
 10
257.1957135723113
 20
-1312.478719347322
 10
212.396725410768
 20
-1320.112103541375
 10
221.6173081585714
 20
-1346.330830477095
 10
191.7927074376747
 20
-1359.930861669441
 10
183.3275695342462
 20
-1330.031308589895
 10
244.9792111949943
 20
-1293.102296554857
 10
296.3081625303609
 20
-1302.299840226603
 10
359.491407516464
 20
-1313.623093940133
 10
356.1125870556126
 20
-1367.947728054699
 10
347.5646592013033
 20
-1397.946887457465
 10
338.6338305156562
 20
-1429.265475367385
 10
308.9489499485332
 20
-1480.785069674169
 10
245.7553481441276
 20
-1486.093315861534
 10
174.117322072899
 20
-1492.111380909943
 10
153.8806804696136
 20
-1449.804531758737
 10
141.7418003999487
 20
-1418.032827665117
 10
143.7649542555084
 20
-1450.000816074007
 10
155.6606321157615
 20
-1494.838044795437
 10
215.2891414527967
 20
-1507.517115837191
 10
275.0935659780474
 20
-1520.238475426024
 10
315.4375073809931
 20
-1483.593253131581
 10
333.3405489618038
 20
-1455.698702560755
 10
356.5834454810572
 20
-1419.4792510046
 10
364.3500256793118
 20
-1376.619851601252
 10
351.9990353869894
 20
-1338.543407451155
 10
346.7729977906397
 20
-1322.446241860021
 10
338.069846852874
 20
-1303.513676557134
 10
312.2501481017335
 20
-1294.575850021283
 10
282.2806595838352
 20
-1284.200686585294
 10
265.7074033284842
 20
-1295.916508929368
 10
237.4144059329424
 20
-1298.990395376082
 10
231.7744185821931
 20
-1285.218281664248
 10
289.3487466724545
 20
-1280.719159215286
 10
305.0941034190064
 20
-1282.425084372196
 10
329.2787167891539
 20
-1285.043098558823
 10
341.3865694676048
 20
-1295.723239072646
 10
353.5099250757396
 20
-1307.146185236782
 10
353.4737085094519
 20
-1301.363764719564
 10
333.7027361565374
 20
-1277.853614918044
 10
337.8732180280534
 20
-1276.352888260973
 10
351.0314372562634
 20
-1271.627293847552
 10
359.0671009437629
 20
-1286.755224887607
 10
362.6425502294368
 20
-1292.16320658927
 10
379.5987073161247
 20
-1317.814138725328
 10
387.2721407451959
 20
-1345.874872089622
 10
390.9096878769895
 20
-1373.165497421884
 10
397.739718867579
 20
-1424.428302923935
 10
385.3369444837458
 20
-1476.258774034566
 10
337.8628612097509
 20
-1520.528294083719
 10
317.0984525099724
 20
-1539.889644583438
 10
280.9922584678922
 20
-1562.487791482626
 10
237.7662578412204
 20
-1558.342092766759
 10
197.3550509489251
 20
-1554.464982307659
 10
166.650831223257
 20
-1531.238665310427
 10
147.4386964217449
 20
-1511.970849153133
 10
124.9150281805768
 20
-1489.387731482997
 10
111.2031605760407
 20
-1463.727669843904
 10
103.6590474187467
 20
-1438.064593746262
 10
99.52994975674729
 20
-1424.008604166443
 10
97.3567619928049
 20
-1409.723128163613
 10
96.67891792423522
 20
-1395.470897332216
 10
96.12010190468123
 20
-1383.715800899606
 10
103.410677566107
 20
-1366.410784831341
 10
97.13425188815165
 20
-1355.150877811046
 10
86.2992973959599
 20
-1392.261101868609
 10
87.24101424685294
 20
-1429.247474743477
 10
102.3447650229707
 20
-1465.980245526934
 10
109.0195944619487
 20
-1482.210305676417
 10
117.5623546730291
 20
-1498.02665292181
 10
130.8913214462268
 20
-1512.807318336951
 10
133.3387603426422
 20
-1515.518866866006
 10
155.2518715364366
 20
-1533.307014512382
 10
148.8047198453401
 20
-1536.296409992322
 10
89.06237163436418
 20
-1519.957614016587
 10
75.85757902156296
 20
-1452.845259161404
 10
70.76090476068434
 20
-1419.328269694956
 10
63.26336498798223
 20
-1370.025163695997
 10
88.3327865379754
 20
-1325.988144528406
 10
120.2064223942648
 20
-1280.915271275785
 10
145.0533553714515
 20
-1245.779991268831
 10
178.5568659018126
 20
-1203.793234551898
 10
242.6818277388087
 20
-1188.236539846858
 10
305.1872286563421
 20
-1173.072392240512
 10
370.3211513017359
 20
-1192.506175872807
 10
411.891395974503
 20
-1220.207478118759
 10
503.372849063068
 20
-1281.163016704867
 10
512.6348160203879
 20
-1383.960402679059
 10
494.5351886784496
 20
-1460.43334034983
 10
478.8053133297364
 20
-1526.908610922402
 10
418.3385907292922
 20
-1616.259918408744
 10
297.5499902617128
 20
-1639.154042073813
 10
256.0268572697064
 20
-1647.025137856348
 10
215.5557057159679
 20
-1642.813680880404
 10
179.0640700846285
 20
-1632.329307917533
 10
189.3703316109148
 20
-1641.823474310559
 10
200.1745601577472
 20
-1650.784684432016
 10
211.4368141493435
 20
-1659.165740473758
 10
236.7992626022043
 20
-1659.940456321001
 10
262.1443563865581
 20
-1658.622190533571
 10
283.527654958415
 20
-1655.492838049544
 10
350.0379793775513
 20
-1645.754845023551
 10
392.7724079421715
 20
-1614.883042934371
 10
427.8903332806142
 20
-1582.435023533305
 10
468.9069080452088
 20
-1544.54276280059
 10
502.7312430926332
 20
-1500.267170770642
 10
515.0304923571384
 20
-1455.792323030568
 97
        0
 97
        0
 75
     2
 76
     1
 98
        0
  0
SPLINE
  5
7C
330
43
100
AcDbEntity
  8
Layer 1
370
     0
100
AcDbSpline
210
0.0
220
0.0
230
1.0
 70
    11
 71
     3
 72
    20
 73
    16
 74
     0
 42
0.0000000001
 43
0.0000000001
 12
1.0
 22
0.0
 32
0.0
 13
1.0
 23
0.0
 33
0.0
 40
0.0
 40
0.0
 40
0.0
 40
0.0
 40
1.0
 40
1.0
 40
1.0
 40
2.0
 40
2.0
 40
2.0
 40
3.0
 40
3.0
 40
3.0
 40
4.0
 40
4.0
 40
4.0
 40
5.0
 40
5.0
 40
5.0
 40
5.0
 10
413.2626301050177
 20
-1616.854800271662
 30
0.0
 10
377.875642809177
 20
-1636.611647733084
 30
0.0
 10
347.5698268445312
 20
-1656.114936166795
 30
0.0
 10
299.8163247948376
 20
-1665.868087612922
 30
0.0
 10
278.6166282804978
 20
-1670.19745298185
 30
0.0
 10
255.2989301255199
 20
-1672.756642163068
 30
0.0
 10
231.8589095489689
 20
-1673.398032815033
 30
0.0
 10
239.1103833766373
 20
-1678.124962202959
 30
0.0
 10
246.5236044373383
 20
-1682.623998524532
 30
0.0
 10
254.0904336929878
 20
-1686.882997818172
 30
0.0
 10
254.1694125069872
 20
-1686.874298952074
 30
0.0
 10
254.2502861235034
 20
-1686.865600085971
 30
0.0
 10
254.3291572782688
 20
-1686.856901219873
 30
0.0
 10
311.4326054112369
 20
-1680.546089182603
 30
0.0
 10
413.2626301050177
 20
-1657.096271615768
 30
0.0
 10
413.2626301050177
 20
-1616.854800271662
 30
0.0
  0
HATCH
  5
7D
330
43
100
AcDbEntity
  8
Layer 1
 62
    45
420
 10783355
100
AcDbHatch
 10
0.0
 20
0.0
 30
0.0
210
0.0
220
0.0
230
1.0
  2
SOLID
 70
     1
 71
     0
 91
        1
 92
        1
 93
        1
 72
     4
 94
        3
 73
     0
 74
     1
 95
       20
 96
       16
 40
0.0
 40
0.0
 40
0.0
 40
0.0
 40
1.0
 40
1.0
 40
1.0
 40
2.0
 40
2.0
 40
2.0
 40
3.0
 40
3.0
 40
3.0
 40
4.0
 40
4.0
 40
4.0
 40
5.0
 40
5.0
 40
5.0
 40
5.0
 10
413.2626301050177
 20
-1616.854800271662
 10
377.875642809177
 20
-1636.611647733084
 10
347.5698268445312
 20
-1656.114936166795
 10
299.8163247948376
 20
-1665.868087612922
 10
278.6166282804978
 20
-1670.19745298185
 10
255.2989301255199
 20
-1672.756642163068
 10
231.8589095489689
 20
-1673.398032815033
 10
239.1103833766373
 20
-1678.124962202959
 10
246.5236044373383
 20
-1682.623998524532
 10
254.0904336929878
 20
-1686.882997818172
 10
254.1694125069872
 20
-1686.874298952074
 10
254.2502861235034
 20
-1686.865600085971
 10
254.3291572782688
 20
-1686.856901219873
 10
311.4326054112369
 20
-1680.546089182603
 10
413.2626301050177
 20
-1657.096271615768
 10
413.2626301050177
 20
-1616.854800271662
 97
        0
 97
        0
 75
     2
 76
     1
 98
        0
  0
ENDBLK
  5
46
330
43
100
AcDbEntity
  8
0
100
AcDbBlockEnd
  0
BLOCK
  5
80
330
7E
100
AcDbEntity
  8
0
100
AcDbBlockBegin
  2
block 3
 70
     0
 10
0.0
 20
0.0
 30
0.0
  3
block 3
  1

  0
SPLINE
  5
82
330
7E
100
AcDbEntity
  8
Layer 1
370
     0
100
AcDbSpline
210
0.0
220
0.0
230
1.0
 70
    11
 71
     3
 72
    89
 73
    85
 74
     0
 42
0.0000000001
 43
0.0000000001
 12
1.0
 22
0.0
 32
0.0
 13
1.0
 23
0.0
 33
0.0
 40
0.0
 40
0.0
 40
0.0
 40
0.0
 40
1.0
 40
1.0
 40
1.0
 40
2.0
 40
2.0
 40
2.0
 40
3.0
 40
3.0
 40
3.0
 40
4.0
 40
4.0
 40
4.0
 40
5.0
 40
5.0
 40
5.0
 40
6.0
 40
6.0
 40
6.0
 40
7.0
 40
7.0
 40
7.0
 40
8.0
 40
8.0
 40
8.0
 40
9.0
 40
9.0
 40
9.0
 40
10.0
 40
10.0
 40
10.0
 40
11.0
 40
11.0
 40
11.0
 40
12.0
 40
12.0
 40
12.0
 40
13.0
 40
13.0
 40
13.0
 40
14.0
 40
14.0
 40
14.0
 40
15.0
 40
15.0
 40
15.0
 40
16.0
 40
16.0
 40
16.0
 40
17.0
 40
17.0
 40
17.0
 40
18.0
 40
18.0
 40
18.0
 40
19.0
 40
19.0
 40
19.0
 40
20.0
 40
20.0
 40
20.0
 40
21.0
 40
21.0
 40
21.0
 40
22.0
 40
22.0
 40
22.0
 40
23.0
 40
23.0
 40
23.0
 40
24.0
 40
24.0
 40
24.0
 40
25.0
 40
25.0
 40
25.0
 40
26.0
 40
26.0
 40
26.0
 40
27.0
 40
27.0
 40
27.0
 40
28.0
 40
28.0
 40
28.0
 40
28.0
 10
334.5529211267568
 20
-1169.819059382713
 30
0.0
 10
345.5105856137635
 20
-1139.907470000814
 30
0.0
 10
347.6477290661914
 20
-1123.703678704408
 30
0.0
 10
347.6477290661914
 20
-1123.703678704408
 30
0.0
 10
353.4711462196825
 20
-1122.629863973503
 30
0.0
 10
364.844009308204
 20
-1092.951701342574
 30
0.0
 10
355.0889415277113
 20
-1086.79895459254
 30
0.0
 10
362.1282836008742
 20
-1058.846763267876
 30
0.0
 10
348.4447088430103
 20
-1035.421771920379
 30
0.0
 10
348.4447088430103
 20
-1035.421771920379
 30
0.0
 10
352.711093560097
 20
-1031.831551787815
 30
0.0
 10
348.4449887570186
 20
-1025.372837494995
 30
0.0
 10
337.2682377289968
 20
-1020.418983973828
 30
0.0
 10
326.0941351181293
 20
-1015.466314704233
 30
0.0
 10
318.4436546377285
 20
-1016.643266981227
 30
0.0
 10
318.6467214847372
 20
-1022.214460081506
 30
0.0
 10
318.6467214847372
 20
-1022.214460081506
 30
0.0
 10
292.1006674142253
 20
-1027.808584598607
 30
0.0
 10
276.1207642606682
 20
-1051.798076373211
 30
0.0
 10
265.0089317506965
 20
-1048.702012124309
 30
0.0
 10
250.6603459049456
 20
-1077.0612630124
 30
0.0
 10
253.7758318796442
 20
-1082.097045210579
 30
0.0
 10
253.7758318796442
 20
-1082.097045210579
 30
0.0
 10
243.9997274848443
 20
-1093.626229506742
 30
0.0
 10
230.0846853740652
 20
-1119.599191943281
 30
0.0
 10
210.9884995674786
 20
-1123.637511339243
 30
0.0
 10
183.7658072118168
 20
-1129.07077142903
 30
0.0
 10
175.9519861417216
 20
-1128.975600666252
 30
0.0
 10
163.5389410669712
 20
-1128.821281920361
 30
0.0
 10
160.6955745719141
 20
-1132.904990449339
 30
0.0
 10
166.1967245746075
 20
-1138.914873395972
 30
0.0
 10
168.5996356118757
 20
-1141.537603057045
 30
0.0
 10
171.1785264328998
 20
-1141.893179974819
 30
0.0
 10
166.3191761872617
 20
-1157.241769380704
 30
0.0
 10
164.6479173036731
 20
-1162.518256094064
 30
0.0
 10
173.9623573716027
 20
-1163.256453929164
 30
0.0
 10
174.0958978853497
 20
-1177.400035061698
 30
0.0
 10
174.1671252345073
 20
-1184.786793482704
 30
0.0
 10
174.5587034000995
 20
-1192.010943396802
 30
0.0
 10
183.0434352841003
 20
-1187.38346960917
 30
0.0
 10
189.5046903348396
 20
-1183.857845016951
 30
0.0
 10
197.5291143983174
 20
-1177.31474741659
 30
0.0
 10
205.6732555299077
 20
-1169.955937332711
 30
0.0
 10
182.6138749407832
 20
-1221.538275441018
 30
0.0
 10
155.8121301897254
 20
-1299.568654653282
 30
0.0
 10
168.2403552164577
 20
-1399.822698885488
 30
0.0
 10
173.2261404664048
 20
-1420.885366726904
 30
0.0
 10
148.7643261007755
 20
-1464.213557498405
 30
0.0
 10
134.3175550336949
 20
-1485.872399113541
 30
0.0
 10
112.8460189537221
 20
-1518.055576799181
 30
0.0
 10
128.5392901629064
 20
-1514.399899852397
 30
0.0
 10
133.4492187166377
 20
-1512.790265114299
 30
0.0
 10
147.3076536022247
 20
-1508.247174634207
 30
0.0
 10
163.6955852523161
 20
-1517.530802629392
 30
0.0
 10
170.497323396232
 20
-1518.516875084656
 30
0.0
 10
179.8210221582786
 20
-1519.868558298294
 30
0.0
 10
188.7605281781788
 20
-1514.604194014672
 30
0.0
 10
200.2910689806889
 20
-1523.127704754729
 30
0.0
 10
204.4465000913038
 20
-1526.199438016763
 30
0.0
 10
225.5926684345415
 20
-1535.492712279306
 30
0.0
 10
214.8458653230789
 20
-1498.327495885061
 30
0.0
 10
207.6173659759277
 20
-1473.316490235388
 30
0.0
 10
197.385992212752
 20
-1424.618902831655
 30
0.0
 10
208.5027770474837
 20
-1406.051991350838
 30
0.0
 10
249.4683643988959
 20
-1316.782074245333
 30
0.0
 10
287.6540611395665
 20
-1261.518070251172
 30
0.0
 10
311.9465705939426
 20
-1218.415468638414
 30
0.0
 10
311.951092281767
 20
-1229.546012323237
 30
0.0
 10
312.4842208081095
 20
-1240.056374225178
 30
0.0
 10
314.2329512764222
 20
-1247.300677947869
 30
0.0
 10
316.5027739687259
 20
-1256.694096829799
 30
0.0
 10
322.1180427593685
 20
-1252.132725811787
 30
0.0
 10
327.6382915101586
 20
-1247.224648996878
 30
0.0
 10
338.2074999493566
 20
-1237.825222729697
 30
0.0
 10
345.0099486442163
 20
-1244.230085873714
 30
0.0
 10
347.7970308917834
 20
-1239.447755044016
 30
0.0
 10
355.9046540112297
 20
-1225.539689251595
 30
0.0
 10
357.89942889273
 20
-1227.214027189272
 30
0.0
 10
361.4580402742188
 20
-1227.230111478819
 30
0.0
 10
369.6046575681891
 20
-1227.269665481358
 30
0.0
 10
370.7215575245071
 20
-1222.419983034927
 30
0.0
 10
362.2696186431585
 20
-1213.327127202237
 30
0.0
 10
357.2488441421887
 20
-1207.923796379479
 30
0.0
 10
344.2632887933287
 20
-1186.397009580661
 30
0.0
 10
334.5529211267568
 20
-1169.819059382713
 30
0.0
  0
HATCH
  5
83
330
7E
100
AcDbEntity
  8
Layer 1
 62
    12
420
 14878227
100
AcDbHatch
 10
0.0
 20
0.0
 30
0.0
210
0.0
220
0.0
230
1.0
  2
SOLID
 70
     1
 71
     0
 91
        1
 92
        1
 93
        1
 72
     4
 94
        3
 73
     0
 74
     1
 95
       89
 96
       85
 40
0.0
 40
0.0
 40
0.0
 40
0.0
 40
1.0
 40
1.0
 40
1.0
 40
2.0
 40
2.0
 40
2.0
 40
3.0
 40
3.0
 40
3.0
 40
4.0
 40
4.0
 40
4.0
 40
5.0
 40
5.0
 40
5.0
 40
6.0
 40
6.0
 40
6.0
 40
7.0
 40
7.0
 40
7.0
 40
8.0
 40
8.0
 40
8.0
 40
9.0
 40
9.0
 40
9.0
 40
10.0
 40
10.0
 40
10.0
 40
11.0
 40
11.0
 40
11.0
 40
12.0
 40
12.0
 40
12.0
 40
13.0
 40
13.0
 40
13.0
 40
14.0
 40
14.0
 40
14.0
 40
15.0
 40
15.0
 40
15.0
 40
16.0
 40
16.0
 40
16.0
 40
17.0
 40
17.0
 40
17.0
 40
18.0
 40
18.0
 40
18.0
 40
19.0
 40
19.0
 40
19.0
 40
20.0
 40
20.0
 40
20.0
 40
21.0
 40
21.0
 40
21.0
 40
22.0
 40
22.0
 40
22.0
 40
23.0
 40
23.0
 40
23.0
 40
24.0
 40
24.0
 40
24.0
 40
25.0
 40
25.0
 40
25.0
 40
26.0
 40
26.0
 40
26.0
 40
27.0
 40
27.0
 40
27.0
 40
28.0
 40
28.0
 40
28.0
 40
28.0
 10
334.5529211267568
 20
-1169.819059382713
 10
345.5105856137635
 20
-1139.907470000814
 10
347.6477290661914
 20
-1123.703678704408
 10
347.6477290661914
 20
-1123.703678704408
 10
353.4711462196825
 20
-1122.629863973503
 10
364.844009308204
 20
-1092.951701342574
 10
355.0889415277113
 20
-1086.79895459254
 10
362.1282836008742
 20
-1058.846763267876
 10
348.4447088430103
 20
-1035.421771920379
 10
348.4447088430103
 20
-1035.421771920379
 10
352.711093560097
 20
-1031.831551787815
 10
348.4449887570186
 20
-1025.372837494995
 10
337.2682377289968
 20
-1020.418983973828
 10
326.0941351181293
 20
-1015.466314704233
 10
318.4436546377285
 20
-1016.643266981227
 10
318.6467214847372
 20
-1022.214460081506
 10
318.6467214847372
 20
-1022.214460081506
 10
292.1006674142253
 20
-1027.808584598607
 10
276.1207642606682
 20
-1051.798076373211
 10
265.0089317506965
 20
-1048.702012124309
 10
250.6603459049456
 20
-1077.0612630124
 10
253.7758318796442
 20
-1082.097045210579
 10
253.7758318796442
 20
-1082.097045210579
 10
243.9997274848443
 20
-1093.626229506742
 10
230.0846853740652
 20
-1119.599191943281
 10
210.9884995674786
 20
-1123.637511339243
 10
183.7658072118168
 20
-1129.07077142903
 10
175.9519861417216
 20
-1128.975600666252
 10
163.5389410669712
 20
-1128.821281920361
 10
160.6955745719141
 20
-1132.904990449339
 10
166.1967245746075
 20
-1138.914873395972
 10
168.5996356118757
 20
-1141.537603057045
 10
171.1785264328998
 20
-1141.893179974819
 10
166.3191761872617
 20
-1157.241769380704
 10
164.6479173036731
 20
-1162.518256094064
 10
173.9623573716027
 20
-1163.256453929164
 10
174.0958978853497
 20
-1177.400035061698
 10
174.1671252345073
 20
-1184.786793482704
 10
174.5587034000995
 20
-1192.010943396802
 10
183.0434352841003
 20
-1187.38346960917
 10
189.5046903348396
 20
-1183.857845016951
 10
197.5291143983174
 20
-1177.31474741659
 10
205.6732555299077
 20
-1169.955937332711
 10
182.6138749407832
 20
-1221.538275441018
 10
155.8121301897254
 20
-1299.568654653282
 10
168.2403552164577
 20
-1399.822698885488
 10
173.2261404664048
 20
-1420.885366726904
 10
148.7643261007755
 20
-1464.213557498405
 10
134.3175550336949
 20
-1485.872399113541
 10
112.8460189537221
 20
-1518.055576799181
 10
128.5392901629064
 20
-1514.399899852397
 10
133.4492187166377
 20
-1512.790265114299
 10
147.3076536022247
 20
-1508.247174634207
 10
163.6955852523161
 20
-1517.530802629392
 10
170.497323396232
 20
-1518.516875084656
 10
179.8210221582786
 20
-1519.868558298294
 10
188.7605281781788
 20
-1514.604194014672
 10
200.2910689806889
 20
-1523.127704754729
 10
204.4465000913038
 20
-1526.199438016763
 10
225.5926684345415
 20
-1535.492712279306
 10
214.8458653230789
 20
-1498.327495885061
 10
207.6173659759277
 20
-1473.316490235388
 10
197.385992212752
 20
-1424.618902831655
 10
208.5027770474837
 20
-1406.051991350838
 10
249.4683643988959
 20
-1316.782074245333
 10
287.6540611395665
 20
-1261.518070251172
 10
311.9465705939426
 20
-1218.415468638414
 10
311.951092281767
 20
-1229.546012323237
 10
312.4842208081095
 20
-1240.056374225178
 10
314.2329512764222
 20
-1247.300677947869
 10
316.5027739687259
 20
-1256.694096829799
 10
322.1180427593685
 20
-1252.132725811787
 10
327.6382915101586
 20
-1247.224648996878
 10
338.2074999493566
 20
-1237.825222729697
 10
345.0099486442163
 20
-1244.230085873714
 10
347.7970308917834
 20
-1239.447755044016
 10
355.9046540112297
 20
-1225.539689251595
 10
357.89942889273
 20
-1227.214027189272
 10
361.4580402742188
 20
-1227.230111478819
 10
369.6046575681891
 20
-1227.269665481358
 10
370.7215575245071
 20
-1222.419983034927
 10
362.2696186431585
 20
-1213.327127202237
 10
357.2488441421887
 20
-1207.923796379479
 10
344.2632887933287
 20
-1186.397009580661
 10
334.5529211267568
 20
-1169.819059382713
 97
        0
 97
        0
 75
     2
 76
     1
 98
        0
  0
SPLINE
  5
84
330
7E
100
AcDbEntity
  8
Layer 1
370
     0
100
AcDbSpline
210
0.0
220
0.0
230
1.0
 70
    11
 71
     3
 72
    89
 73
    85
 74
     0
 42
0.0000000001
 43
0.0000000001
 12
1.0
 22
0.0
 32
0.0
 13
1.0
 23
0.0
 33
0.0
 40
0.0
 40
0.0
 40
0.0
 40
0.0
 40
1.0
 40
1.0
 40
1.0
 40
2.0
 40
2.0
 40
2.0
 40
3.0
 40
3.0
 40
3.0
 40
4.0
 40
4.0
 40
4.0
 40
5.0
 40
5.0
 40
5.0
 40
6.0
 40
6.0
 40
6.0
 40
7.0
 40
7.0
 40
7.0
 40
8.0
 40
8.0
 40
8.0
 40
9.0
 40
9.0
 40
9.0
 40
10.0
 40
10.0
 40
10.0
 40
11.0
 40
11.0
 40
11.0
 40
12.0
 40
12.0
 40
12.0
 40
13.0
 40
13.0
 40
13.0
 40
14.0
 40
14.0
 40
14.0
 40
15.0
 40
15.0
 40
15.0
 40
16.0
 40
16.0
 40
16.0
 40
17.0
 40
17.0
 40
17.0
 40
18.0
 40
18.0
 40
18.0
 40
19.0
 40
19.0
 40
19.0
 40
20.0
 40
20.0
 40
20.0
 40
21.0
 40
21.0
 40
21.0
 40
22.0
 40
22.0
 40
22.0
 40
23.0
 40
23.0
 40
23.0
 40
24.0
 40
24.0
 40
24.0
 40
25.0
 40
25.0
 40
25.0
 40
26.0
 40
26.0
 40
26.0
 40
27.0
 40
27.0
 40
27.0
 40
28.0
 40
28.0
 40
28.0
 40
28.0
 10
799.713546213919
 20
-1280.774840571065
 30
0.0
 10
784.728500509113
 20
-1277.607548973008
 30
0.0
 10
783.7352794807156
 20
-1270.853267019402
 30
0.0
 10
773.0765846862901
 20
-1266.281280800926
 30
0.0
 10
762.4179760192499
 20
-1261.7093161143
 30
0.0
 10
750.361089222132
 20
-1263.502983546847
 30
0.0
 10
739.9570731114518
 20
-1248.265197024505
 30
0.0
 10
736.4423005700146
 20
-1244.437416026385
 30
0.0
 10
726.6984508816935
 20
-1231.482715813966
 30
0.0
 10
724.2286619283178
 20
-1270.316176633251
 30
0.0
 10
722.5727767833325
 20
-1296.44395304816
 30
0.0
 10
715.6972274686452
 20
-1346.018144998115
 30
0.0
 10
698.8633712716837
 20
-1359.812221193667
 30
0.0
 10
628.0657977759282
 20
-1432.08851579908
 30
0.0
 10
576.1017861515475
 20
-1471.527495213591
 30
0.0
 10
538.6620387108206
 20
-1503.192358283475
 30
0.0
 10
543.637187228459
 20
-1492.142559024084
 30
0.0
 10
547.9057466620687
 20
-1481.317509181414
 30
0.0
 10
549.3471746130973
 20
-1473.390947361562
 30
0.0
 10
551.084019501986
 20
-1463.82749148559
 30
0.0
 10
544.0586946610792
 20
-1465.736418893967
 30
0.0
 10
536.9887988973277
 20
-1468.00148304813
 30
0.0
 10
523.4426403856324
 20
-1472.343379951887
 30
0.0
 10
519.7894611330735
 20
-1463.686716271325
 30
0.0
 10
515.2816398180131
 20
-1466.948747995227
 30
0.0
 10
502.1626300827927
 20
-1476.439727674927
 30
0.0
 10
501.0081785856855
 20
-1474.08969885336
 30
0.0
 10
497.7441228681855
 20
-1472.623939915464
 30
0.0
 10
490.2697298307766
 20
-1469.269105931928
 30
0.0
 10
487.2649175485416
 20
-1473.278551121358
 30
0.0
 10
491.3371926668812
 20
-1485.080199406708
 30
0.0
 10
493.8977598862932
 20
-1492.510495221909
 30
0.0
 10
497.3140026968521
 20
-1520.218149362661
 30
0.0
 10
499.4938007377587
 20
-1539.727552840857
 30
0.0
 10
479.0925481658172
 20
-1561.224862541427
 30
0.0
 10
471.1738239381962
 20
-1574.203656890397
 30
0.0
 10
471.1738239381962
 20
-1574.203656890397
 30
0.0
 10
465.3810681345228
 20
-1572.816489193262
 30
0.0
 10
442.8358465147251
 20
-1595.485260549898
 30
0.0
 10
449.3063387277361
 20
-1605.114862259187
 30
0.0
 10
431.4513992926354
 20
-1627.954725670362
 30
0.0
 10
434.4980264213234
 20
-1655.070813852601
 30
0.0
 10
434.4980264213234
 20
-1655.070813852601
 30
0.0
 10
429.1165719548963
 20
-1656.63592073155
 30
0.0
 10
430.4105928828487
 20
-1664.312799256106
 30
0.0
 10
438.6730084488161
 20
-1673.418789515333
 30
0.0
 10
446.9335292122703
 20
-1682.522712717265
 30
0.0
 10
454.4471963382111
 20
-1684.552649104564
 30
0.0
 10
456.5282062660763
 20
-1679.350038157514
 30
0.0
 10
456.5282062660763
 20
-1679.350038157514
 30
0.0
 10
483.2197294934535
 20
-1685.008176855099
 30
0.0
 10
507.6840415533097
 20
-1669.45253721055
 30
0.0
 10
516.6393519487501
 20
-1676.823577383406
 30
0.0
 10
541.3861618383967
 20
-1656.581143713334
 30
0.0
 10
540.5671334504708
 20
-1650.681503822233
 30
0.0
 10
540.5671334504708
 20
-1650.681503822233
 30
0.0
 10
555.3654119162802
 20
-1643.520700601367
 30
0.0
 10
580.4649565199235
 20
-1623.605034238071
 30
0.0
 10
599.3624249125503
 20
-1627.637863013105
 30
0.0
 10
624.0180689629191
 20
-1633.233989991959
 30
0.0
 10
630.7677861650096
 20
-1636.322604221871
 30
0.0
 10
642.1193757889079
 20
-1641.512123806077
 30
0.0
 10
646.389571642875
 20
-1638.913143772005
 30
0.0
 10
643.7824095070232
 20
-1631.149276586446
 30
0.0
 10
642.6381641052903
 20
-1627.756718807346
 30
0.0
 10
640.4113835747062
 20
-1626.379714141892
 30
0.0
 10
651.128688056077
 20
-1614.242384365197
 30
0.0
 10
654.8139497603416
 20
-1610.066368809055
 30
0.0
 10
646.546323487454
 20
-1605.601094423237
 30
0.0
 10
652.1824566376265
 20
-1592.540608247574
 30
0.0
 10
655.1279271501293
 20
-1585.715098944811
 30
0.0
 10
657.7083467322743
 20
-1578.914954157555
 30
0.0
 10
648.0213411194636
 20
-1579.716584813279
 30
0.0
 10
641.1625866452649
 20
-1580.28472412249
 30
0.0
 10
631.9998384379202
 20
-1582.700898777377
 30
0.0
 10
622.3193785065315
 20
-1585.811475491009
 30
0.0
 10
662.6063251110431
 20
-1544.448582502761
 30
0.0
 10
712.9603574877775
 20
-1476.62623653176
 30
0.0
 10
734.8572982646364
 20
-1379.398148855332
 30
0.0
 10
737.2961674860338
 20
-1357.770700672804
 30
0.0
 10
775.1857582697453
 20
-1325.069208371408
 30
0.0
 10
796.223578359972
 20
-1309.481486275154
 30
0.0
 10
827.4880782707775
 20
-1286.32010932782
 30
0.0
 10
806.977960681502
 20
-1282.176649924014
 30
0.0
 10
799.713546213919
 20
-1280.774840571065
 30
0.0
  0
HATCH
  5
85
330
7E
100
AcDbEntity
  8
Layer 1
 62
    12
420
 14878227
100
AcDbHatch
 10
0.0
 20
0.0
 30
0.0
210
0.0
220
0.0
230
1.0
  2
SOLID
 70
     1
 71
     0
 91
        1
 92
        1
 93
        1
 72
     4
 94
        3
 73
     0
 74
     1
 95
       89
 96
       85
 40
0.0
 40
0.0
 40
0.0
 40
0.0
 40
1.0
 40
1.0
 40
1.0
 40
2.0
 40
2.0
 40
2.0
 40
3.0
 40
3.0
 40
3.0
 40
4.0
 40
4.0
 40
4.0
 40
5.0
 40
5.0
 40
5.0
 40
6.0
 40
6.0
 40
6.0
 40
7.0
 40
7.0
 40
7.0
 40
8.0
 40
8.0
 40
8.0
 40
9.0
 40
9.0
 40
9.0
 40
10.0
 40
10.0
 40
10.0
 40
11.0
 40
11.0
 40
11.0
 40
12.0
 40
12.0
 40
12.0
 40
13.0
 40
13.0
 40
13.0
 40
14.0
 40
14.0
 40
14.0
 40
15.0
 40
15.0
 40
15.0
 40
16.0
 40
16.0
 40
16.0
 40
17.0
 40
17.0
 40
17.0
 40
18.0
 40
18.0
 40
18.0
 40
19.0
 40
19.0
 40
19.0
 40
20.0
 40
20.0
 40
20.0
 40
21.0
 40
21.0
 40
21.0
 40
22.0
 40
22.0
 40
22.0
 40
23.0
 40
23.0
 40
23.0
 40
24.0
 40
24.0
 40
24.0
 40
25.0
 40
25.0
 40
25.0
 40
26.0
 40
26.0
 40
26.0
 40
27.0
 40
27.0
 40
27.0
 40
28.0
 40
28.0
 40
28.0
 40
28.0
 10
799.713546213919
 20
-1280.774840571065
 10
784.728500509113
 20
-1277.607548973008
 10
783.7352794807156
 20
-1270.853267019402
 10
773.0765846862901
 20
-1266.281280800926
 10
762.4179760192499
 20
-1261.7093161143
 10
750.361089222132
 20
-1263.502983546847
 10
739.9570731114518
 20
-1248.265197024505
 10
736.4423005700146
 20
-1244.437416026385
 10
726.6984508816935
 20
-1231.482715813966
 10
724.2286619283178
 20
-1270.316176633251
 10
722.5727767833325
 20
-1296.44395304816
 10
715.6972274686452
 20
-1346.018144998115
 10
698.8633712716837
 20
-1359.812221193667
 10
628.0657977759282
 20
-1432.08851579908
 10
576.1017861515475
 20
-1471.527495213591
 10
538.6620387108206
 20
-1503.192358283475
 10
543.637187228459
 20
-1492.142559024084
 10
547.9057466620687
 20
-1481.317509181414
 10
549.3471746130973
 20
-1473.390947361562
 10
551.084019501986
 20
-1463.82749148559
 10
544.0586946610792
 20
-1465.736418893967
 10
536.9887988973277
 20
-1468.00148304813
 10
523.4426403856324
 20
-1472.343379951887
 10
519.7894611330735
 20
-1463.686716271325
 10
515.2816398180131
 20
-1466.948747995227
 10
502.1626300827927
 20
-1476.439727674927
 10
501.0081785856855
 20
-1474.08969885336
 10
497.7441228681855
 20
-1472.623939915464
 10
490.2697298307766
 20
-1469.269105931928
 10
487.2649175485416
 20
-1473.278551121358
 10
491.3371926668812
 20
-1485.080199406708
 10
493.8977598862932
 20
-1492.510495221909
 10
497.3140026968521
 20
-1520.218149362661
 10
499.4938007377587
 20
-1539.727552840857
 10
479.0925481658172
 20
-1561.224862541427
 10
471.1738239381962
 20
-1574.203656890397
 10
471.1738239381962
 20
-1574.203656890397
 10
465.3810681345228
 20
-1572.816489193262
 10
442.8358465147251
 20
-1595.485260549898
 10
449.3063387277361
 20
-1605.114862259187
 10
431.4513992926354
 20
-1627.954725670362
 10
434.4980264213234
 20
-1655.070813852601
 10
434.4980264213234
 20
-1655.070813852601
 10
429.1165719548963
 20
-1656.63592073155
 10
430.4105928828487
 20
-1664.312799256106
 10
438.6730084488161
 20
-1673.418789515333
 10
446.9335292122703
 20
-1682.522712717265
 10
454.4471963382111
 20
-1684.552649104564
 10
456.5282062660763
 20
-1679.350038157514
 10
456.5282062660763
 20
-1679.350038157514
 10
483.2197294934535
 20
-1685.008176855099
 10
507.6840415533097
 20
-1669.45253721055
 10
516.6393519487501
 20
-1676.823577383406
 10
541.3861618383967
 20
-1656.581143713334
 10
540.5671334504708
 20
-1650.681503822233
 10
540.5671334504708
 20
-1650.681503822233
 10
555.3654119162802
 20
-1643.520700601367
 10
580.4649565199235
 20
-1623.605034238071
 10
599.3624249125503
 20
-1627.637863013105
 10
624.0180689629191
 20
-1633.233989991959
 10
630.7677861650096
 20
-1636.322604221871
 10
642.1193757889079
 20
-1641.512123806077
 10
646.389571642875
 20
-1638.913143772005
 10
643.7824095070232
 20
-1631.149276586446
 10
642.6381641052903
 20
-1627.756718807346
 10
640.4113835747062
 20
-1626.379714141892
 10
651.128688056077
 20
-1614.242384365197
 10
654.8139497603416
 20
-1610.066368809055
 10
646.546323487454
 20
-1605.601094423237
 10
652.1824566376265
 20
-1592.540608247574
 10
655.1279271501293
 20
-1585.715098944811
 10
657.7083467322743
 20
-1578.914954157555
 10
648.0213411194636
 20
-1579.716584813279
 10
641.1625866452649
 20
-1580.28472412249
 10
631.9998384379202
 20
-1582.700898777377
 10
622.3193785065315
 20
-1585.811475491009
 10
662.6063251110431
 20
-1544.448582502761
 10
712.9603574877775
 20
-1476.62623653176
 10
734.8572982646364
 20
-1379.398148855332
 10
737.2961674860338
 20
-1357.770700672804
 10
775.1857582697453
 20
-1325.069208371408
 10
796.223578359972
 20
-1309.481486275154
 10
827.4880782707775
 20
-1286.32010932782
 10
806.977960681502
 20
-1282.176649924014
 10
799.713546213919
 20
-1280.774840571065
 97
        0
 97
        0
 75
     2
 76
     1
 98
        0
  0
ENDBLK
  5
81
330
7E
100
AcDbEntity
  8
0
100
AcDbBlockEnd
  0
BLOCK
  5
88
330
86
100
AcDbEntity
  8
0
100
AcDbBlockBegin
  2
block 4
 70
     0
 10
0.0
 20
0.0
 30
0.0
  3
block 4
  1

  0
SPLINE
  5
8A
330
86
100
AcDbEntity
  8
Layer 1
370
     0
100
AcDbSpline
210
0.0
220
0.0
230
1.0
 70
    11
 71
     3
 72
    32
 73
    28
 74
     0
 42
0.0000000001
 43
0.0000000001
 12
1.0
 22
0.0
 32
0.0
 13
1.0
 23
0.0
 33
0.0
 40
0.0
 40
0.0
 40
0.0
 40
0.0
 40
1.0
 40
1.0
 40
1.0
 40
2.0
 40
2.0
 40
2.0
 40
3.0
 40
3.0
 40
3.0
 40
4.0
 40
4.0
 40
4.0
 40
5.0
 40
5.0
 40
5.0
 40
6.0
 40
6.0
 40
6.0
 40
7.0
 40
7.0
 40
7.0
 40
8.0
 40
8.0
 40
8.0
 40
9.0
 40
9.0
 40
9.0
 40
9.0
 10
140.467285567399
 20
-499.8366412206221
 30
0.0
 10
137.7516514965269
 20
-504.5402574062212
 30
0.0
 10
132.2153543484869
 20
-506.8334667703141
 30
0.0
 10
126.9691521807973
 20
-505.427751136194
 30
0.0
 10
126.9691521807973
 20
-505.427751136194
 30
0.0
 10
50.86185092597648
 20
-485.0348612274635
 30
0.0
 10
50.86185092597648
 20
-485.0348612274635
 30
0.0
 10
44.46025768603777
 20
-483.3195594886009
 30
0.0
 10
40.66126781276532
 20
-476.7395160107649
 30
0.0
 10
42.37656955162819
 20
-470.3379227708272
 30
0.0
 10
42.37656955162819
 20
-470.3379227708272
 30
0.0
 10
139.6925305074582
 20
-107.1498120854094
 30
0.0
 10
139.6925305074582
 20
-107.1498120854094
 30
0.0
 10
141.4078322463207
 20
-100.7482188454701
 30
0.0
 10
147.9878757241545
 20
-96.94922897219763
 30
0.0
 10
154.3894689640932
 20
-98.66453071106018
 30
0.0
 10
154.3894689640932
 20
-98.66453071106018
 30
0.0
 10
239.3909416777032
 20
-121.4406066794427
 30
0.0
 10
239.3909416777032
 20
-121.4406066794427
 30
0.0
 10
239.3909416777032
 20
-121.4406066794427
 30
0.0
 10
233.1792845954161
 20
-144.622826510427
 30
0.0
 10
233.1792845954161
 20
-144.622826510427
 30
0.0
 10
233.1792845954161
 20
-144.622826510427
 30
0.0
 10
330.4952455541575
 20
-170.6985596591996
 30
0.0
 10
330.4952455541575
 20
-170.6985596591996
 30
0.0
 10
330.4952455541575
 20
-170.6985596591996
 30
0.0
 10
140.467285567399
 20
-499.8366412206221
 30
0.0
 10
140.467285567399
 20
-499.8366412206221
 30
0.0
  0
HATCH
  5
8B
330
86
100
AcDbEntity
  8
Layer 1
 62
     7
420
 16777215
100
AcDbHatch
 10
0.0
 20
0.0
 30
0.0
210
0.0
220
0.0
230
1.0
  2
SOLID
 70
     1
 71
     0
 91
        1
 92
        1
 93
        1
 72
     4
 94
        3
 73
     0
 74
     1
 95
       32
 96
       28
 40
0.0
 40
0.0
 40
0.0
 40
0.0
 40
1.0
 40
1.0
 40
1.0
 40
2.0
 40
2.0
 40
2.0
 40
3.0
 40
3.0
 40
3.0
 40
4.0
 40
4.0
 40
4.0
 40
5.0
 40
5.0
 40
5.0
 40
6.0
 40
6.0
 40
6.0
 40
7.0
 40
7.0
 40
7.0
 40
8.0
 40
8.0
 40
8.0
 40
9.0
 40
9.0
 40
9.0
 40
9.0
 10
140.467285567399
 20
-499.8366412206221
 10
137.7516514965269
 20
-504.5402574062212
 10
132.2153543484869
 20
-506.8334667703141
 10
126.9691521807973
 20
-505.427751136194
 10
126.9691521807973
 20
-505.427751136194
 10
50.86185092597648
 20
-485.0348612274635
 10
50.86185092597648
 20
-485.0348612274635
 10
44.46025768603777
 20
-483.3195594886009
 10
40.66126781276532
 20
-476.7395160107649
 10
42.37656955162819
 20
-470.3379227708272
 10
42.37656955162819
 20
-470.3379227708272
 10
139.6925305074582
 20
-107.1498120854094
 10
139.6925305074582
 20
-107.1498120854094
 10
141.4078322463207
 20
-100.7482188454701
 10
147.9878757241545
 20
-96.94922897219763
 10
154.3894689640932
 20
-98.66453071106018
 10
154.3894689640932
 20
-98.66453071106018
 10
239.3909416777032
 20
-121.4406066794427
 10
239.3909416777032
 20
-121.4406066794427
 10
239.3909416777032
 20
-121.4406066794427
 10
233.1792845954161
 20
-144.622826510427
 10
233.1792845954161
 20
-144.622826510427
 10
233.1792845954161
 20
-144.622826510427
 10
330.4952455541575
 20
-170.6985596591996
 10
330.4952455541575
 20
-170.6985596591996
 10
330.4952455541575
 20
-170.6985596591996
 10
140.467285567399
 20
-499.8366412206221
 10
140.467285567399
 20
-499.8366412206221
 97
        0
 97
        0
 75
     2
 76
     1
 98
        0
  0
ENDBLK
  5
89
330
86
100
AcDbEntity
  8
0
100
AcDbBlockEnd
  0
BLOCK
  5
8E
330
8C
100
AcDbEntity
  8
0
100
AcDbBlockBegin
  2
block 5
 70
     0
 10
0.0
 20
0.0
 30
0.0
  3
block 5
  1

  0
SPLINE
  5
90
330
8C
100
AcDbEntity
  8
Layer 1
370
     0
100
AcDbSpline
210
0.0
220
0.0
230
1.0
 70
    11
 71
     3
 72
    32
 73
    28
 74
     0
 42
0.0000000001
 43
0.0000000001
 12
1.0
 22
0.0
 32
0.0
 13
1.0
 23
0.0
 33
0.0
 40
0.0
 40
0.0
 40
0.0
 40
0.0
 40
1.0
 40
1.0
 40
1.0
 40
2.0
 40
2.0
 40
2.0
 40
3.0
 40
3.0
 40
3.0
 40
4.0
 40
4.0
 40
4.0
 40
5.0
 40
5.0
 40
5.0
 40
6.0
 40
6.0
 40
6.0
 40
7.0
 40
7.0
 40
7.0
 40
8.0
 40
8.0
 40
8.0
 40
9.0
 40
9.0
 40
9.0
 40
9.0
 10
754.0606269641207
 20
-499.8366412226788
 30
0.0
 10
756.7762610347842
 20
-504.5402574083978
 30
0.0
 10
762.3125581827197
 20
-506.8334667727414
 30
0.0
 10
767.5587603504706
 20
-505.4277511388541
 30
0.0
 10
767.5587603504706
 20
-505.4277511388541
 30
0.0
 10
843.6660616062074
 20
-485.034861233542
 30
0.0
 10
843.6660616062074
 20
-485.034861233542
 30
0.0
 10
850.0676548462267
 20
-483.319559494965
 30
0.0
 10
853.8666447197933
 20
-476.7395160173019
 30
0.0
 10
852.1513429812167
 20
-470.3379227772865
 30
0.0
 10
852.1513429812167
 20
-470.3379227772865
 30
0.0
 10
754.8353820416928
 20
-107.1498120874985
 30
0.0
 10
754.8353820416928
 20
-107.1498120874985
 30
0.0
 10
753.1200803031194
 20
-100.7482188474828
 30
0.0
 10
746.540036825456
 20
-96.94922897391481
 30
0.0
 10
740.138443585438
 20
-98.66453071248957
 30
0.0
 10
740.138443585438
 20
-98.66453071248957
 30
0.0
 10
655.1369708708074
 20
-121.4406066770559
 30
0.0
 10
655.1369708708074
 20
-121.4406066770559
 30
0.0
 10
655.1369708708074
 20
-121.4406066770559
 30
0.0
 10
661.3486279520537
 20
-144.622826508319
 30
0.0
 10
661.3486279520537
 20
-144.622826508319
 30
0.0
 10
661.3486279520537
 20
-144.622826508319
 30
0.0
 10
564.0326669921393
 20
-170.6985596527226
 30
0.0
 10
564.0326669921393
 20
-170.6985596527226
 30
0.0
 10
564.0326669921393
 20
-170.6985596527226
 30
0.0
 10
754.0606269641207
 20
-499.8366412226788
 30
0.0
 10
754.0606269641207
 20
-499.8366412226788
 30
0.0
  0
HATCH
  5
91
330
8C
100
AcDbEntity
  8
Layer 1
 62
     7
420
 16777215
100
AcDbHatch
 10
0.0
 20
0.0
 30
0.0
210
0.0
220
0.0
230
1.0
  2
SOLID
 70
     1
 71
     0
 91
        1
 92
        1
 93
        1
 72
     4
 94
        3
 73
     0
 74
     1
 95
       32
 96
       28
 40
0.0
 40
0.0
 40
0.0
 40
0.0
 40
1.0
 40
1.0
 40
1.0
 40
2.0
 40
2.0
 40
2.0
 40
3.0
 40
3.0
 40
3.0
 40
4.0
 40
4.0
 40
4.0
 40
5.0
 40
5.0
 40
5.0
 40
6.0
 40
6.0
 40
6.0
 40
7.0
 40
7.0
 40
7.0
 40
8.0
 40
8.0
 40
8.0
 40
9.0
 40
9.0
 40
9.0
 40
9.0
 10
754.0606269641207
 20
-499.8366412226788
 10
756.7762610347842
 20
-504.5402574083978
 10
762.3125581827197
 20
-506.8334667727414
 10
767.5587603504706
 20
-505.4277511388541
 10
767.5587603504706
 20
-505.4277511388541
 10
843.6660616062074
 20
-485.034861233542
 10
843.6660616062074
 20
-485.034861233542
 10
850.0676548462267
 20
-483.319559494965
 10
853.8666447197933
 20
-476.7395160173019
 10
852.1513429812167
 20
-470.3379227772865
 10
852.1513429812167
 20
-470.3379227772865
 10
754.8353820416928
 20
-107.1498120874985
 10
754.8353820416928
 20
-107.1498120874985
 10
753.1200803031194
 20
-100.7482188474828
 10
746.540036825456
 20
-96.94922897391481
 10
740.138443585438
 20
-98.66453071248957
 10
740.138443585438
 20
-98.66453071248957
 10
655.1369708708074
 20
-121.4406066770559
 10
655.1369708708074
 20
-121.4406066770559
 10
655.1369708708074
 20
-121.4406066770559
 10
661.3486279520537
 20
-144.622826508319
 10
661.3486279520537
 20
-144.622826508319
 10
661.3486279520537
 20
-144.622826508319
 10
564.0326669921393
 20
-170.6985596527226
 10
564.0326669921393
 20
-170.6985596527226
 10
564.0326669921393
 20
-170.6985596527226
 10
754.0606269641207
 20
-499.8366412226788
 10
754.0606269641207
 20
-499.8366412226788
 97
        0
 97
        0
 75
     2
 76
     1
 98
        0
  0
ENDBLK
  5
8F
330
8C
100
AcDbEntity
  8
0
100
AcDbBlockEnd
  0
BLOCK
  5
94
330
92
100
AcDbEntity
  8
0
100
AcDbBlockBegin
  2
block 6
 70
     0
 10
0.0
 20
0.0
 30
0.0
  3
block 6
  1

  0
SPLINE
  5
96
330
92
100
AcDbEntity
  8
Layer 1
370
     0
100
AcDbSpline
210
0.0
220
0.0
230
1.0
 70
    11
 71
     3
 72
    32
 73
    28
 74
     0
 42
0.0000000001
 43
0.0000000001
 12
1.0
 22
0.0
 32
0.0
 13
1.0
 23
0.0
 33
0.0
 40
0.0
 40
0.0
 40
0.0
 40
0.0
 40
1.0
 40
1.0
 40
1.0
 40
2.0
 40
2.0
 40
2.0
 40
3.0
 40
3.0
 40
3.0
 40
4.0
 40
4.0
 40
4.0
 40
5.0
 40
5.0
 40
5.0
 40
6.0
 40
6.0
 40
6.0
 40
7.0
 40
7.0
 40
7.0
 40
8.0
 40
8.0
 40
8.0
 40
9.0
 40
9.0
 40
9.0
 40
9.0
 10
627.3545366947677
 20
-683.603360427933
 30
0.0
 10
632.7858048365812
 20
-683.6033604287056
 30
0.0
 10
637.5399309755567
 20
-687.251329720469
 30
0.0
 10
638.9456466089713
 20
-692.4975318883509
 30
0.0
 10
638.9456466089713
 20
-692.4975318883509
 30
0.0
 10
659.3385365074539
 20
-768.6048331459184
 30
0.0
 10
659.3385365074539
 20
-768.6048331459184
 30
0.0
 10
661.0538382454517
 20
-775.0064263860887
 30
0.0
 10
657.254848371296
 20
-781.5864698634099
 30
0.0
 10
650.8532551311254
 20
-783.3017716014116
 30
0.0
 10
650.8532551311254
 20
-783.3017716014116
 30
0.0
 10
287.6651444325999
 20
-880.617732508321
 30
0.0
 10
287.6651444325999
 20
-880.617732508321
 30
0.0
 10
281.2635511924292
 20
-882.3330342463227
 30
0.0
 10
274.6835077151069
 20
-878.5340443721631
 30
0.0
 10
272.9682059771064
 20
-872.1324511319963
 30
0.0
 10
272.9682059771064
 20
-872.1324511319963
 30
0.0
 10
250.1921300201661
 20
-787.1309784153199
 30
0.0
 10
250.1921300201661
 20
-787.1309784153199
 30
0.0
 10
250.1921300201661
 20
-787.1309784153199
 30
0.0
 10
273.3743498519871
 20
-780.9193213361547
 30
0.0
 10
273.3743498519871
 20
-780.9193213361547
 30
0.0
 10
273.3743498519871
 20
-780.9193213361547
 30
0.0
 10
247.2986167163212
 20
-683.6033603739016
 30
0.0
 10
247.2986167163212
 20
-683.6033603739016
 30
0.0
 10
247.2986167163212
 20
-683.6033603739016
 30
0.0
 10
627.3545366947677
 20
-683.603360427933
 30
0.0
 10
627.3545366947677
 20
-683.603360427933
 30
0.0
  0
HATCH
  5
97
330
92
100
AcDbEntity
  8
Layer 1
 62
     7
420
 16777215
100
AcDbHatch
 10
0.0
 20
0.0
 30
0.0
210
0.0
220
0.0
230
1.0
  2
SOLID
 70
     1
 71
     0
 91
        1
 92
        1
 93
        1
 72
     4
 94
        3
 73
     0
 74
     1
 95
       32
 96
       28
 40
0.0
 40
0.0
 40
0.0
 40
0.0
 40
1.0
 40
1.0
 40
1.0
 40
2.0
 40
2.0
 40
2.0
 40
3.0
 40
3.0
 40
3.0
 40
4.0
 40
4.0
 40
4.0
 40
5.0
 40
5.0
 40
5.0
 40
6.0
 40
6.0
 40
6.0
 40
7.0
 40
7.0
 40
7.0
 40
8.0
 40
8.0
 40
8.0
 40
9.0
 40
9.0
 40
9.0
 40
9.0
 10
627.3545366947677
 20
-683.603360427933
 10
632.7858048365812
 20
-683.6033604287056
 10
637.5399309755567
 20
-687.251329720469
 10
638.9456466089713
 20
-692.4975318883509
 10
638.9456466089713
 20
-692.4975318883509
 10
659.3385365074539
 20
-768.6048331459184
 10
659.3385365074539
 20
-768.6048331459184
 10
661.0538382454517
 20
-775.0064263860887
 10
657.254848371296
 20
-781.5864698634099
 10
650.8532551311254
 20
-783.3017716014116
 10
650.8532551311254
 20
-783.3017716014116
 10
287.6651444325999
 20
-880.617732508321
 10
287.6651444325999
 20
-880.617732508321
 10
281.2635511924292
 20
-882.3330342463227
 10
274.6835077151069
 20
-878.5340443721631
 10
272.9682059771064
 20
-872.1324511319963
 10
272.9682059771064
 20
-872.1324511319963
 10
250.1921300201661
 20
-787.1309784153199
 10
250.1921300201661
 20
-787.1309784153199
 10
250.1921300201661
 20
-787.1309784153199
 10
273.3743498519871
 20
-780.9193213361547
 10
273.3743498519871
 20
-780.9193213361547
 10
273.3743498519871
 20
-780.9193213361547
 10
247.2986167163212
 20
-683.6033603739016
 10
247.2986167163212
 20
-683.6033603739016
 10
247.2986167163212
 20
-683.6033603739016
 10
627.3545366947677
 20
-683.603360427933
 10
627.3545366947677
 20
-683.603360427933
 97
        0
 97
        0
 75
     2
 76
     1
 98
        0
  0
ENDBLK
  5
95
330
92
100
AcDbEntity
  8
0
100
AcDbBlockEnd
  0
ENDSEC
  0
SECTION
  2
ENTITIES
  0
SPLINE
  5
41
330
1F
100
AcDbEntity
  8
Layer 1
 62
   179
420
  1907995
370
   100
100
AcDbSpline
210
0.0
220
0.0
230
1.0
 70
    11
 71
     3
 72
    17
 73
    13
 74
     0
 42
0.0000000001
 43
0.0000000001
 12
1.0
 22
0.0
 32
0.0
 13
1.0
 23
0.0
 33
0.0
 40
0.0
 40
0.0
 40
0.0
 40
0.0
 40
1.0
 40
1.0
 40
1.0
 40
2.0
 40
2.0
 40
2.0
 40
3.0
 40
3.0
 40
3.0
 40
4.0
 40
4.0
 40
4.0
 40
4.0
 10
849.9999997875005
 20
-1338.06793484615
 30
0.0
 10
849.9999997875005
 20
-1558.981834710918
 30
0.0
 10
670.9138997522712
 20
-1738.067934746148
 30
0.0
 10
449.9999998874991
 20
-1738.067934746148
 30
0.0
 10
229.0861000227279
 20
-1738.067934746148
 30
0.0
 10
49.99999998749922
 20
-1558.981834710918
 30
0.0
 10
49.99999998749922
 20
-1338.06793484615
 30
0.0
 10
49.99999998749922
 20
-1117.154034981374
 30
0.0
 10
229.0861000227279
 20
-938.0679349461445
 30
0.0
 10
449.9999998874991
 20
-938.0679349461445
 30
0.0
 10
670.9138997522712
 20
-938.0679349461445
 30
0.0
 10
849.9999997875005
 20
-1117.154034981374
 30
0.0
 10
849.9999997875005
 20
-1338.06793484615
 30
0.0
  0
HATCH
  5
42
330
1F
100
AcDbEntity
  8
Layer 1
 62
     9
420
 13351840
100
AcDbHatch
 10
0.0
 20
0.0
 30
0.0
210
0.0
220
0.0
230
1.0
  2
SOLID
 70
     1
 71
     0
 91
        1
 92
        1
 93
        1
 72
     4
 94
        3
 73
     0
 74
     1
 95
       17
 96
       13
 40
0.0
 40
0.0
 40
0.0
 40
0.0
 40
1.0
 40
1.0
 40
1.0
 40
2.0
 40
2.0
 40
2.0
 40
3.0
 40
3.0
 40
3.0
 40
4.0
 40
4.0
 40
4.0
 40
4.0
 10
849.9999997875005
 20
-1338.06793484615
 10
849.9999997875005
 20
-1558.981834710918
 10
670.9138997522712
 20
-1738.067934746148
 10
449.9999998874991
 20
-1738.067934746148
 10
229.0861000227279
 20
-1738.067934746148
 10
49.99999998749922
 20
-1558.981834710918
 10
49.99999998749922
 20
-1338.06793484615
 10
49.99999998749922
 20
-1117.154034981374
 10
229.0861000227279
 20
-938.0679349461445
 10
449.9999998874991
 20
-938.0679349461445
 10
670.9138997522712
 20
-938.0679349461445
 10
849.9999997875005
 20
-1117.154034981374
 10
849.9999997875005
 20
-1338.06793484615
 97
        0
 97
        0
 75
     2
 76
     1
 98
        0
  0
INSERT
  5
44
330
1F
100
AcDbEntity
  8
Layer 1
100
AcDbBlockReference
  2
block 2
 10
0.0
 20
0.0
 30
0.0
  0
INSERT
  5
7F
330
1F
100
AcDbEntity
  8
Layer 1
100
AcDbBlockReference
  2
block 3
 10
0.0
 20
0.0
 30
0.0
  0
INSERT
  5
87
330
1F
100
AcDbEntity
  8
Layer 1
100
AcDbBlockReference
  2
block 4
 10
0.0
 20
0.0
 30
0.0
  0
INSERT
  5
8D
330
1F
100
AcDbEntity
  8
Layer 1
100
AcDbBlockReference
  2
block 5
 10
0.0
 20
0.0
 30
0.0
  0
INSERT
  5
93
330
1F
100
AcDbEntity
  8
Layer 1
100
AcDbBlockReference
  2
block 6
 10
0.0
 20
0.0
 30
0.0
  0
SPLINE
  5
98
330
1F
100
AcDbEntity
  8
Layer 1
370
     0
100
AcDbSpline
210
0.0
220
0.0
230
1.0
 70
    11
 71
     3
 72
   149
 73
   145
 74
     0
 42
0.0000000001
 43
0.0000000001
 12
1.0
 22
0.0
 32
0.0
 13
1.0
 23
0.0
 33
0.0
 40
0.0
 40
0.0
 40
0.0
 40
0.0
 40
1.0
 40
1.0
 40
1.0
 40
2.0
 40
2.0
 40
2.0
 40
3.0
 40
3.0
 40
3.0
 40
4.0
 40
4.0
 40
4.0
 40
5.0
 40
5.0
 40
5.0
 40
6.0
 40
6.0
 40
6.0
 40
7.0
 40
7.0
 40
7.0
 40
8.0
 40
8.0
 40
8.0
 40
9.0
 40
9.0
 40
9.0
 40
10.0
 40
10.0
 40
10.0
 40
11.0
 40
11.0
 40
11.0
 40
12.0
 40
12.0
 40
12.0
 40
13.0
 40
13.0
 40
13.0
 40
14.0
 40
14.0
 40
14.0
 40
15.0
 40
15.0
 40
15.0
 40
16.0
 40
16.0
 40
16.0
 40
17.0
 40
17.0
 40
17.0
 40
18.0
 40
18.0
 40
18.0
 40
19.0
 40
19.0
 40
19.0
 40
20.0
 40
20.0
 40
20.0
 40
21.0
 40
21.0
 40
21.0
 40
22.0
 40
22.0
 40
22.0
 40
23.0
 40
23.0
 40
23.0
 40
24.0
 40
24.0
 40
24.0
 40
25.0
 40
25.0
 40
25.0
 40
26.0
 40
26.0
 40
26.0
 40
27.0
 40
27.0
 40
27.0
 40
28.0
 40
28.0
 40
28.0
 40
29.0
 40
29.0
 40
29.0
 40
30.0
 40
30.0
 40
30.0
 40
31.0
 40
31.0
 40
31.0
 40
32.0
 40
32.0
 40
32.0
 40
33.0
 40
33.0
 40
33.0
 40
34.0
 40
34.0
 40
34.0
 40
35.0
 40
35.0
 40
35.0
 40
36.0
 40
36.0
 40
36.0
 40
37.0
 40
37.0
 40
37.0
 40
38.0
 40
38.0
 40
38.0
 40
39.0
 40
39.0
 40
39.0
 40
40.0
 40
40.0
 40
40.0
 40
41.0
 40
41.0
 40
41.0
 40
42.0
 40
42.0
 40
42.0
 40
43.0
 40
43.0
 40
43.0
 40
44.0
 40
44.0
 40
44.0
 40
45.0
 40
45.0
 40
45.0
 40
46.0
 40
46.0
 40
46.0
 40
47.0
 40
47.0
 40
47.0
 40
48.0
 40
48.0
 40
48.0
 40
48.0
 10
707.6643421006627
 20
-592.0576750759902
 30
0.0
 10
708.7000602109061
 20
-591.148071306384
 30
0.0
 10
710.1141340542245
 20
-591.0899748611911
 30
0.0
 10
711.1827743447737
 20
-591.7201265339277
 30
0.0
 10
711.1827743447737
 20
-591.7201265339277
 30
0.0
 10
711.1835925549515
 20
-591.71870543204
 30
0.0
 10
711.1835925549515
 20
-591.71870543204
 30
0.0
 10
711.1835925549515
 20
-591.71870543204
 30
0.0
 10
798.4346406424053
 20
-642.0931499995245
 30
0.0
 10
798.4346406424053
 20
-642.0931499995245
 30
0.0
 10
798.4346406424053
 20
-642.0931499995245
 30
0.0
 10
804.4346189395163
 20
-631.7007610861069
 30
0.0
 10
804.4346189395163
 20
-631.7007610861069
 30
0.0
 10
804.4346189395163
 20
-631.7007610861069
 30
0.0
 10
717.1835708520626
 20
-581.3263165186224
 30
0.0
 10
717.1835708520626
 20
-581.3263165186224
 30
0.0
 10
717.1835708520626
 20
-581.3263165186224
 30
0.0
 10
470.0245400843168
 20
-153.2342728973468
 30
0.0
 10
470.0245400843168
 20
-153.2342728973468
 30
0.0
 10
470.0245400843168
 20
-153.2342728973468
 30
0.0
 10
470.0245400843168
 20
-52.48538376237779
 30
0.0
 10
470.0245400843168
 20
-52.48538376237779
 30
0.0
 10
470.0245400843168
 20
-52.48538376237779
 30
0.0
 10
458.024540426401
 20
-52.48538376237779
 30
0.0
 10
458.024540426401
 20
-52.48538376237779
 30
0.0
 10
458.024540426401
 20
-52.48538376237779
 30
0.0
 10
458.024540426401
 20
-153.2343590247339
 30
0.0
 10
458.024540426401
 20
-153.2343590247339
 30
0.0
 10
458.024540426401
 20
-153.2343590247339
 30
0.0
 10
458.024540426401
 20
-153.2343590247339
 30
0.0
 10
458.024540426401
 20
-153.2343590247339
 30
0.0
 10
458.0244973627075
 20
-154.8911915709777
 30
0.0
 10
456.6813407603956
 20
-156.2342620459024
 30
0.0
 10
455.0245082141519
 20
-156.2342620459024
 30
0.0
 10
454.010463467943
 20
-156.2342620459024
 30
0.0
 10
453.1139510793165
 20
-155.7311522552825
 30
0.0
 10
452.5709384580373
 20
-154.9609247851449
 30
0.0
 10
451.8206391260688
 20
-153.8966748328196
 30
0.0
 10
450.6261835795087
 20
-153.2343344144875
 30
0.0
 10
449.324040327575
 20
-153.2343299727478
 30
0.0
 10
449.324040327575
 20
-153.2343299727478
 30
0.0
 10
442.7258979026836
 20
-153.2343074658294
 30
0.0
 10
442.7258979026836
 20
-153.2343074658294
 30
0.0
 10
441.4138580724705
 20
-153.2343029903315
 30
0.0
 10
440.2280217662152
 20
-153.9178328333497
 30
0.0
 10
439.4622789737649
 20
-154.9832372128677
 30
0.0
 10
438.881923062599
 20
-155.7907064251559
 30
0.0
 10
437.9102803553647
 20
-156.2980512635885
 30
0.0
 10
436.8248557168087
 20
-156.2277849436024
 30
0.0
 10
435.2303375083573
 20
-156.1245618153641
 30
0.0
 10
434.02453773066
 20
-154.7293910437437
 30
0.0
 10
434.0245377834809
 20
-153.1315351893918
 30
0.0
 10
434.0245377834809
 20
-153.1315351893918
 30
0.0
 10
434.0245411105694
 20
-52.48538376237779
 30
0.0
 10
434.0245411105694
 20
-52.48538376237779
 30
0.0
 10
434.0245411105694
 20
-52.48538376237779
 30
0.0
 10
422.0245414526536
 20
-52.48538376237779
 30
0.0
 10
422.0245414526536
 20
-52.48538376237779
 30
0.0
 10
422.0245414526536
 20
-52.48538376237779
 30
0.0
 10
422.0245414526536
 20
-153.2342728973468
 30
0.0
 10
422.0245414526536
 20
-153.2342728973468
 30
0.0
 10
422.0245414526536
 20
-153.2342728973468
 30
0.0
 10
174.865489153061
 20
-581.3263165186224
 30
0.0
 10
174.865489153061
 20
-581.3263165186224
 30
0.0
 10
174.865489153061
 20
-581.3263165186224
 30
0.0
 10
87.6143764700669
 20
-631.7008472134941
 30
0.0
 10
87.6143764700669
 20
-631.7008472134941
 30
0.0
 10
87.6143764700669
 20
-631.7008472134941
 30
0.0
 10
93.61439783087158
 20
-642.0930638721373
 30
0.0
 10
93.61439783087158
 20
-642.0930638721373
 30
0.0
 10
93.61439783087158
 20
-642.0930638721373
 30
0.0
 10
180.5973744258793
 20
-591.8734332830212
 30
0.0
 10
180.5973744258793
 20
-591.8734332830212
 30
0.0
 10
181.663903225068
 20
-591.1010762978294
 30
0.0
 10
183.1745649162427
 20
-591.0805506024639
 30
0.0
 10
184.2824464856601
 20
-591.9998942995111
 30
0.0
 10
185.2774501061678
 20
-592.8255694730171
 30
0.0
 10
185.6290998559309
 20
-594.2436096239682
 30
0.0
 10
185.1334003912296
 20
-595.4377845431746
 30
0.0
 10
185.1274957254796
 20
-595.4520092987916
 30
0.0
 10
185.1215027305659
 20
-595.4661554500645
 30
0.0
 10
185.115422446717
 20
-595.4802229243967
 30
0.0
 10
184.5665633211581
 20
-596.7500750978108
 30
0.0
 10
184.6048834370708
 20
-598.1954273733803
 30
0.0
 10
185.2965780350265
 20
-599.3934797366742
 30
0.0
 10
185.2965780350265
 20
-599.3934797366742
 30
0.0
 10
188.3123173489931
 20
-604.61690293942
 30
0.0
 10
188.3123173489931
 20
-604.61690293942
 30
0.0
 10
189.0060844917842
 20
-605.8185450621902
 30
0.0
 10
190.2117803973888
 20
-606.6845924205918
 30
0.0
 10
191.5931828619495
 20
-606.8149146003532
 30
0.0
 10
192.0582961763589
 20
-606.8587936164438
 30
0.0
 10
192.519911727005
 20
-607.0124993638407
 30
0.0
 10
192.9391275559319
 20
-607.2847234267379
 30
0.0
 10
194.3286852880606
 20
-608.1871231254055
 30
0.0
 10
194.723622421751
 20
-610.0451061842944
 30
0.0
 10
193.8212227230833
 20
-611.4346854482699
 30
0.0
 10
193.5540555682022
 20
-611.8460298492087
 30
0.0
 10
192.8654886399347
 20
-612.5032248767136
 30
0.0
 10
192.8654886399347
 20
-612.5032248767136
 30
0.0
 10
192.8654886399347
 20
-612.5032248767136
 30
0.0
 10
105.6143759569406
 20
-662.8777555715852
 30
0.0
 10
105.6143759569406
 20
-662.8777555715852
 30
0.0
 10
105.6143759569406
 20
-662.8777555715852
 30
0.0
 10
111.6143757858985
 20
-673.2700583576157
 30
0.0
 10
111.6143757858985
 20
-673.2700583576157
 30
0.0
 10
111.6143757858985
 20
-673.2700583576157
 30
0.0
 10
198.8654669370458
 20
-622.895527662744
 30
0.0
 10
198.8654669370458
 20
-622.895527662744
 30
0.0
 10
198.8654669370458
 20
-622.895527662744
 30
0.0
 10
693.183571536231
 20
-622.895527662744
 30
0.0
 10
693.183571536231
 20
-622.895527662744
 30
0.0
 10
693.183571536231
 20
-622.895527662744
 30
0.0
 10
780.4347057510719
 20
-673.2699722302285
 30
0.0
 10
780.4347057510719
 20
-673.2699722302285
 30
0.0
 10
780.4347057510719
 20
-673.2699722302285
 30
0.0
 10
786.434684048183
 20
-662.8776694441982
 30
0.0
 10
786.434684048183
 20
-662.8776694441982
 30
0.0
 10
786.434684048183
 20
-662.8776694441982
 30
0.0
 10
699.1836359607292
 20
-612.5032248767136
 30
0.0
 10
699.1836359607292
 20
-612.5032248767136
 30
0.0
 10
699.1836359607292
 20
-612.5032248767136
 30
0.0
 10
698.4662378896196
 20
-611.8550301611639
 30
0.0
 10
698.1932140724135
 20
-611.4346854482699
 30
0.0
 10
697.2908574374395
 20
-610.0451061842944
 30
0.0
 10
697.6857515074362
 20
-608.1871231254055
 30
0.0
 10
699.0753307714117
 20
-607.2847234267379
 30
0.0
 10
699.4983761930881
 20
-607.0099893657016
 30
0.0
 10
699.9645687991645
 20
-606.8560516016695
 30
0.0
 10
700.4339557771222
 20
-606.8138999042268
 30
0.0
 10
701.8262424826349
 20
-606.6888703428615
 30
0.0
 10
703.0433430338318
 20
-605.8180204109918
 30
0.0
 10
703.7422867613622
 20
-604.6074121641558
 30
0.0
 10
703.7422867613622
 20
-604.6074121641558
 30
0.0
 10
706.732878984635
 20
-599.4275450792758
 30
0.0
 10
706.732878984635
 20
-599.4275450792758
 30
0.0
 10
707.4295654102676
 20
-598.2208466011174
 30
0.0
 10
707.4602266927785
 20
-596.7652970201149
 30
0.0
 10
706.9023006047804
 20
-595.4884995917101
 30
0.0
 10
706.8972403956117
 20
-595.4769194519877
 30
0.0
 10
706.8922392288803
 20
-595.4652864716837
 30
0.0
 10
706.8872976787322
 20
-595.453600718621
 30
0.0
 10
706.3936005235983
 20
-594.2861081566737
 30
0.0
 10
706.7119144320786
 20
-592.8941302746135
 30
0.0
 10
707.6643421006627
 20
-592.0576750759902
 30
0.0
  0
SPLINE
  5
99
330
1F
100
AcDbEntity
  8
Layer 1
370
     0
100
AcDbSpline
210
0.0
220
0.0
230
1.0
 70
    11
 71
     3
 72
    86
 73
    82
 74
     0
 42
0.0000000001
 43
0.0000000001
 12
1.0
 22
0.0
 32
0.0
 13
1.0
 23
0.0
 33
0.0
 40
0.0
 40
0.0
 40
0.0
 40
0.0
 40
1.0
 40
1.0
 40
1.0
 40
2.0
 40
2.0
 40
2.0
 40
3.0
 40
3.0
 40
3.0
 40
4.0
 40
4.0
 40
4.0
 40
5.0
 40
5.0
 40
5.0
 40
6.0
 40
6.0
 40
6.0
 40
7.0
 40
7.0
 40
7.0
 40
8.0
 40
8.0
 40
8.0
 40
9.0
 40
9.0
 40
9.0
 40
10.0
 40
10.0
 40
10.0
 40
11.0
 40
11.0
 40
11.0
 40
12.0
 40
12.0
 40
12.0
 40
13.0
 40
13.0
 40
13.0
 40
14.0
 40
14.0
 40
14.0
 40
15.0
 40
15.0
 40
15.0
 40
16.0
 40
16.0
 40
16.0
 40
17.0
 40
17.0
 40
17.0
 40
18.0
 40
18.0
 40
18.0
 40
19.0
 40
19.0
 40
19.0
 40
20.0
 40
20.0
 40
20.0
 40
21.0
 40
21.0
 40
21.0
 40
22.0
 40
22.0
 40
22.0
 40
23.0
 40
23.0
 40
23.0
 40
24.0
 40
24.0
 40
24.0
 40
25.0
 40
25.0
 40
25.0
 40
26.0
 40
26.0
 40
26.0
 40
27.0
 40
27.0
 40
27.0
 40
27.0
 10
438.5245248334027
 20
-578.4780838261921
 30
0.0
 10
421.6960515981351
 20
-577.5117345425796
 30
0.0
 10
405.8039122520647
 20
-573.5099116269133
 30
0.0
 10
390.7252460774489
 20
-566.2691821907895
 30
0.0
 10
366.1602941657299
 20
-554.4730891219069
 30
0.0
 10
347.0850803779097
 20
-536.6967409275663
 30
0.0
 10
333.7349477993245
 20
-512.9631336201317
 30
0.0
 10
309.7626599703024
 20
-470.3456660472357
 30
0.0
 10
314.7919826144444
 20
-423.1345942816947
 30
0.0
 10
331.261089326907
 20
-392.0770584821674
 30
0.0
 10
331.261089326907
 20
-392.0770584821674
 30
0.0
 10
343.907948725872
 20
-399.378679980993
 30
0.0
 10
343.907948725872
 20
-399.378679980993
 30
0.0
 10
343.8699234844535
 20
-403.9798633837055
 30
0.0
 10
343.8960200827543
 20
-408.5819941876766
 30
0.0
 10
343.8960200827543
 20
-413.1837804820991
 30
0.0
 10
343.8960200827543
 20
-444.3770530437451
 30
0.0
 10
343.8944482579392
 20
-475.5704978601656
 30
0.0
 10
343.8992498597717
 20
-506.7638565491988
 30
0.0
 10
343.8996159011671
 20
-509.049591276275
 30
0.0
 10
343.6744143156656
 20
-508.5919103410595
 30
0.0
 10
345.5357563426525
 20
-509.6593731771642
 30
0.0
 10
354.9898089051219
 20
-515.0813505792376
 30
0.0
 10
364.4529479069337
 20
-520.4874805420786
 30
0.0
 10
373.9155055488823
 20
-525.8947301609526
 30
0.0
 10
374.4386432983175
 20
-526.1935921942979
 30
0.0
 10
374.9851215696652
 20
-526.4516298461432
 30
0.0
 10
375.7110031884073
 20
-526.8271452540354
 30
0.0
 10
375.7463154171311
 20
-526.173955150032
 30
0.0
 10
375.7889484737611
 20
-525.7496916410236
 30
0.0
 10
375.7892068559225
 20
-525.3254281320151
 30
0.0
 10
375.7934270978919
 20
-518.6062000249709
 30
0.0
 10
375.7795605885638
 20
-511.8868857905396
 30
0.0
 10
375.8071213524458
 20
-505.1677438108825
 30
0.0
 10
375.8108248300924
 20
-504.2660761950056
 30
0.0
 10
375.5446481401634
 20
-503.5801576838923
 30
0.0
 10
374.9708244234014
 20
-502.8828703576777
 30
0.0
 10
368.3608058432397
 20
-494.8505441064306
 30
0.0
 10
363.7628522175445
 20
-485.8094077697152
 30
0.0
 10
361.5210855215989
 20
-475.6280309547692
 30
0.0
 10
360.050245067865
 20
-468.9480769362569
 30
0.0
 10
359.7524596268588
 20
-462.2361696571189
 30
0.0
 10
361.3797504793166
 20
-455.5287410021118
 30
0.0
 10
362.5555615684323
 20
-450.6821806734623
 30
0.0
 10
364.6672328461162
 20
-446.3200007700389
 30
0.0
 10
368.2890617297593
 20
-442.8045392095029
 30
0.0
 10
371.8621855759798
 20
-439.3362754571147
 30
0.0
 10
376.1536118308748
 20
-437.4149457049909
 30
0.0
 10
381.1140325653118
 20
-436.8765634080335
 30
0.0
 10
386.5911745588427
 20
-436.2820260546665
 30
0.0
 10
391.7255295515912
 20
-437.5085661748026
 30
0.0
 10
396.6722990951679
 20
-439.6828520629309
 30
0.0
 10
403.2566086502709
 20
-442.5768183979279
 30
0.0
 10
408.8123849482527
 20
-446.9168635628585
 30
0.0
 10
413.6128240610934
 20
-452.2177458586253
 30
0.0
 10
421.4474879588743
 20
-460.8692418959589
 30
0.0
 10
426.7628396556791
 20
-470.8564875803111
 30
0.0
 10
429.2030007878815
 20
-482.3028173300536
 30
0.0
 10
430.6490796178152
 20
-489.0861242131235
 30
0.0
 10
430.8460960158779
 20
-495.8852785354254
 30
0.0
 10
429.0721302231356
 20
-502.6554940556513
 30
0.0
 10
428.2891030830319
 20
-505.6438560069441
 30
0.0
 10
427.0929659305532
 20
-508.4580683814576
 30
0.0
 10
425.3639586338934
 20
-511.0319853458748
 30
0.0
 10
423.0248679904894
 20
-514.5141156075911
 30
0.0
 10
419.9946911927444
 20
-517.1962085702453
 30
0.0
 10
416.1204229374196
 20
-518.8485624923582
 30
0.0
 10
415.2864514478277
 20
-519.2042686012103
 30
0.0
 10
415.0048148919086
 20
-519.6750408992697
 30
0.0
 10
415.0069680765868
 20
-520.5515593181043
 30
0.0
 10
415.030050216338
 20
-530.0294476349623
 30
0.0
 10
415.035303986953
 20
-539.5074220792073
 30
0.0
 10
415.0013697964233
 20
-548.9852242686782
 30
0.0
 10
414.9977093824702
 20
-550.0051447870865
 30
0.0
 10
415.4870421324564
 20
-550.4677349833684
 30
0.0
 10
416.2793279666767
 20
-550.9266217020036
 30
0.0
 10
423.6990301132593
 20
-555.22386155553
 30
0.0
 10
431.0929801710896
 20
-559.5656292682032
 30
0.0
 10
438.5245248334027
 20
-563.8419401666567
 30
0.0
 10
438.5245248334027
 20
-563.8419401666567
 30
0.0
 10
438.5245248334027
 20
-578.4780838261921
 30
0.0
 10
438.5245248334027
 20
-578.4780838261921
 30
0.0
  0
SPLINE
  5
9A
330
1F
100
AcDbEntity
  8
Layer 1
370
     0
100
AcDbSpline
210
0.0
220
0.0
230
1.0
 70
    11
 71
     3
 72
   110
 73
   106
 74
     0
 42
0.0000000001
 43
0.0000000001
 12
1.0
 22
0.0
 32
0.0
 13
1.0
 23
0.0
 33
0.0
 40
0.0
 40
0.0
 40
0.0
 40
0.0
 40
1.0
 40
1.0
 40
1.0
 40
2.0
 40
2.0
 40
2.0
 40
3.0
 40
3.0
 40
3.0
 40
4.0
 40
4.0
 40
4.0
 40
5.0
 40
5.0
 40
5.0
 40
6.0
 40
6.0
 40
6.0
 40
7.0
 40
7.0
 40
7.0
 40
8.0
 40
8.0
 40
8.0
 40
9.0
 40
9.0
 40
9.0
 40
10.0
 40
10.0
 40
10.0
 40
11.0
 40
11.0
 40
11.0
 40
12.0
 40
12.0
 40
12.0
 40
13.0
 40
13.0
 40
13.0
 40
14.0
 40
14.0
 40
14.0
 40
15.0
 40
15.0
 40
15.0
 40
16.0
 40
16.0
 40
16.0
 40
17.0
 40
17.0
 40
17.0
 40
18.0
 40
18.0
 40
18.0
 40
19.0
 40
19.0
 40
19.0
 40
20.0
 40
20.0
 40
20.0
 40
21.0
 40
21.0
 40
21.0
 40
22.0
 40
22.0
 40
22.0
 40
23.0
 40
23.0
 40
23.0
 40
24.0
 40
24.0
 40
24.0
 40
25.0
 40
25.0
 40
25.0
 40
26.0
 40
26.0
 40
26.0
 40
27.0
 40
27.0
 40
27.0
 40
28.0
 40
28.0
 40
28.0
 40
29.0
 40
29.0
 40
29.0
 40
30.0
 40
30.0
 40
30.0
 40
31.0
 40
31.0
 40
31.0
 40
32.0
 40
32.0
 40
32.0
 40
33.0
 40
33.0
 40
33.0
 40
34.0
 40
34.0
 40
34.0
 40
35.0
 40
35.0
 40
35.0
 40
35.0
 10
419.9196742385531
 20
-414.6108251594766
 30
0.0
 10
414.4372784744072
 20
-412.5018238307939
 30
0.0
 10
409.3963716966961
 20
-409.6109580817335
 30
0.0
 10
405.1291041738913
 20
-405.5081938683495
 30
0.0
 10
401.8333535779271
 20
-402.3394811684038
 30
0.0
 10
399.3008638867199
 20
-398.6877660814262
 30
0.0
 10
398.1286701478637
 20
-394.1971702437901
 30
0.0
 10
397.6072549461711
 20
-392.1994454992809
 30
0.0
 10
397.4330192420046
 20
-390.1662362712736
 30
0.0
 10
397.508725215293
 20
-388.1143374002588
 30
0.0
 10
397.5775409976109
 20
-386.2484736854474
 30
0.0
 10
397.6889037091715
 20
-384.3827822254104
 30
0.0
 10
397.8440621970885
 20
-382.5222584086012
 30
0.0
 10
397.8936715720761
 20
-381.9273765456857
 30
0.0
 10
397.6703432572448
 20
-381.6205046653371
 30
0.0
 10
397.2030160546706
 20
-381.3499785423579
 30
0.0
 10
395.8560267836315
 20
-380.5700950518844
 30
0.0
 10
394.52156904742
 20
-379.7685074598539
 30
0.0
 10
393.1828049418519
 20
-378.9744990778909
 30
0.0
 10
388.6689547096904
 20
-376.2974015036904
 30
0.0
 10
384.1558365603196
 20
-373.6191842734572
 30
0.0
 10
379.6407805447383
 20
-370.944239883935
 30
0.0
 10
379.2977782254881
 20
-370.7410653776923
 30
0.0
 10
378.9419429255553
 20
-370.5595088456197
 30
0.0
 10
378.4944680857149
 20
-370.3145625566184
 30
0.0
 10
369.6357495549435
 20
-375.7333532453679
 30
0.0
 10
360.7558867506314
 20
-381.1652352969613
 30
0.0
 10
351.8243044503469
 20
-386.6286399722447
 30
0.0
 10
351.8243044503469
 20
-386.6286399722447
 30
0.0
 10
338.6722648621636
 20
-379.0353050132056
 30
0.0
 10
338.6722648621636
 20
-379.0353050132056
 30
0.0
 10
355.6158904140257
 20
-353.7440839095024
 30
0.0
 10
378.6531147328107
 20
-336.441694726545
 30
0.0
 10
407.790828009489
 20
-327.1699953744792
 30
0.0
 10
415.2173772833485
 20
-324.8068321263721
 30
0.0
 10
422.8140712104857
 20
-323.1493105610313
 30
0.0
 10
430.5694117847188
 20
-322.3278275425735
 30
0.0
 10
434.324479736254
 20
-321.9300912688013
 30
0.0
 10
438.104050929428
 20
-321.7643821759608
 30
0.0
 10
441.8716073520972
 20
-321.4815398366218
 30
0.0
 10
442.530998627974
 20
-321.4320165890214
 30
0.0
 10
443.1858251523329
 20
-321.3223764252033
 30
0.0
 10
443.84280486137
 20
-321.2404692800415
 30
0.0
 10
445.4455494084954
 20
-321.2404692800415
 30
0.0
 10
447.0482939556207
 20
-321.2404692800415
 30
0.0
 10
448.6509954390526
 20
-321.2404692800415
 30
0.0
 10
449.4398361777876
 20
-321.330730781755
 30
0.0
 10
450.2269974324736
 20
-321.4805063079763
 30
0.0
 10
451.0177329737256
 20
-321.5022104095333
 30
0.0
 10
462.3361635535783
 20
-321.8134747866256
 30
0.0
 10
473.3975900102313
 20
-323.7119807811597
 30
0.0
 10
484.1619631086687
 20
-327.1625884191859
 30
0.0
 10
513.4511313956173
 20
-336.5514210177502
 30
0.0
 10
536.6461841513202
 20
-353.9586272308463
 30
0.0
 10
553.6107817219489
 20
-379.4897992350972
 30
0.0
 10
553.6107817219489
 20
-379.4897992350972
 30
0.0
 10
540.7527379697381
 20
-386.9133771141007
 30
0.0
 10
540.7527379697381
 20
-386.9133771141007
 30
0.0
 10
525.3653051122568
 20
-377.9529421391272
 30
0.0
 10
509.9645225097702
 20
-369.015589303905
 30
0.0
 10
494.5677878944787
 20
-360.0710878955508
 30
0.0
 10
478.7630678463466
 20
-350.8895639178115
 30
0.0
 10
462.9557639766005
 20
-341.7124324368158
 30
0.0
 10
447.1720590109284
 20
-332.4949933386428
 30
0.0
 10
446.265869707227
 20
-331.9657405447213
 30
0.0
 10
445.6380010550401
 20
-332.0190533973555
 30
0.0
 10
444.7692771647409
 20
-332.5177309688454
 30
0.0
 10
434.4330002440394
 20
-338.4506160313813
 30
0.0
 10
424.0741148842159
 20
-344.3440547506111
 30
0.0
 10
413.7223780975243
 20
-350.250068068362
 30
0.0
 10
413.3447525686473
 20
-350.4654726635772
 30
0.0
 10
412.9796155109044
 20
-350.7029258698981
 30
0.0
 10
412.5154750216541
 20
-350.9871462474312
 30
0.0
 10
412.9039526013096
 20
-351.2727446631584
 30
0.0
 10
413.1752108070795
 20
-351.4961591053768
 30
0.0
 10
413.4690343882777
 20
-351.6845197010329
 30
0.0
 10
417.5134472968803
 20
-354.2771263084576
 30
0.0
 10
421.5686691925679
 20
-356.8531964575532
 30
0.0
 10
425.6003352478751
 20
-359.4654401092439
 30
0.0
 10
426.2829809182774
 20
-359.9077042421628
 30
0.0
 10
426.9157157678371
 20
-360.0331057178259
 30
0.0
 10
427.7240212960638
 20
-359.873683924246
 30
0.0
 10
433.8423386230933
 20
-358.6669531031501
 30
0.0
 10
440.0049684908017
 20
-357.7541750543332
 30
0.0
 10
446.2592809621114
 20
-357.9002471029078
 30
0.0
 10
454.837224210835
 20
-358.1004932779879
 30
0.0
 10
463.1442106996437
 20
-359.6020381452341
 30
0.0
 10
470.8978287261341
 20
-363.4800098782055
 30
0.0
 10
475.2855453998419
 20
-365.6744495749226
 30
0.0
 10
479.1800535911425
 20
-368.5213042291588
 30
0.0
 10
482.3172867310917
 20
-372.3228809697448
 30
0.0
 10
486.6583223609744
 20
-377.5830250113985
 30
0.0
 10
488.816803873564
 20
-383.5972143273863
 30
0.0
 10
488.4363792046053
 20
-390.4532127251949
 30
0.0
 10
488.2657608506983
 20
-393.5277881910061
 30
0.0
 10
487.3016939428447
 20
-396.377743431179
 30
0.0
 10
485.8566917052503
 20
-399.0718081006444
 30
0.0
 10
483.2730854097807
 20
-403.888912862895
 30
0.0
 10
479.5091894010646
 20
-407.6222767128731
 30
0.0
 10
475.025483754399
 20
-410.657922599701
 30
0.0
 10
468.9628477831499
 20
-414.7624954882148
 30
0.0
 10
462.2551176822878
 20
-417.2649267213131
 30
0.0
 10
455.0460831246282
 20
-418.4074065116091
 30
0.0
 10
443.0012541617106
 20
-420.3163339199861
 30
0.0
 10
431.2815560852135
 20
-418.981531674226
 30
0.0
 10
419.9196742385531
 20
-414.6108251594766
 30
0.0
  0
SPLINE
  5
9B
330
1F
100
AcDbEntity
  8
Layer 1
370
     0
100
AcDbSpline
210
0.0
220
0.0
230
1.0
 70
    11
 71
     3
 72
   113
 73
   109
 74
     0
 42
0.0000000001
 43
0.0000000001
 12
1.0
 22
0.0
 32
0.0
 13
1.0
 23
0.0
 33
0.0
 40
0.0
 40
0.0
 40
0.0
 40
0.0
 40
1.0
 40
1.0
 40
1.0
 40
2.0
 40
2.0
 40
2.0
 40
3.0
 40
3.0
 40
3.0
 40
4.0
 40
4.0
 40
4.0
 40
5.0
 40
5.0
 40
5.0
 40
6.0
 40
6.0
 40
6.0
 40
7.0
 40
7.0
 40
7.0
 40
8.0
 40
8.0
 40
8.0
 40
9.0
 40
9.0
 40
9.0
 40
10.0
 40
10.0
 40
10.0
 40
11.0
 40
11.0
 40
11.0
 40
12.0
 40
12.0
 40
12.0
 40
13.0
 40
13.0
 40
13.0
 40
14.0
 40
14.0
 40
14.0
 40
15.0
 40
15.0
 40
15.0
 40
16.0
 40
16.0
 40
16.0
 40
17.0
 40
17.0
 40
17.0
 40
18.0
 40
18.0
 40
18.0
 40
19.0
 40
19.0
 40
19.0
 40
20.0
 40
20.0
 40
20.0
 40
21.0
 40
21.0
 40
21.0
 40
22.0
 40
22.0
 40
22.0
 40
23.0
 40
23.0
 40
23.0
 40
24.0
 40
24.0
 40
24.0
 40
25.0
 40
25.0
 40
25.0
 40
26.0
 40
26.0
 40
26.0
 40
27.0
 40
27.0
 40
27.0
 40
28.0
 40
28.0
 40
28.0
 40
29.0
 40
29.0
 40
29.0
 40
30.0
 40
30.0
 40
30.0
 40
31.0
 40
31.0
 40
31.0
 40
32.0
 40
32.0
 40
32.0
 40
33.0
 40
33.0
 40
33.0
 40
34.0
 40
34.0
 40
34.0
 40
35.0
 40
35.0
 40
35.0
 40
36.0
 40
36.0
 40
36.0
 40
36.0
 10
574.7325760146285
 20
-454.4689435034618
 30
0.0
 10
574.6312040799751
 20
-455.0317859783645
 30
0.0
 10
574.4529203886134
 20
-455.5929920329117
 30
0.0
 10
574.4399151531566
 20
-456.1579015651055
 30
0.0
 10
574.2017729277386
 20
-466.4970637532759
 30
0.0
 10
572.3591205437592
 20
-476.5784466717625
 30
0.0
 10
569.4169659356622
 20
-486.4588082686848
 30
0.0
 10
561.7943476649984
 20
-512.0569012527367
 30
0.0
 10
547.6276843927155
 20
-533.3428543452884
 30
0.0
 10
526.8651274317604
 20
-550.1504416891768
 30
0.0
 10
511.0836617781536
 20
-562.9257170223545
 30
0.0
 10
493.1911277385729
 20
-571.443887864409
 30
0.0
 10
473.3525884504553
 20
-575.8133024683514
 30
0.0
 10
467.5762399140305
 20
-577.085490103667
 30
0.0
 10
461.7303435124971
 20
-577.9749276305714
 30
0.0
 10
455.815631328646
 20
-578.3321840323918
 30
0.0
 10
455.0521120417275
 20
-578.378262184507
 30
0.0
 10
454.2883774363411
 20
-578.4205507315885
 30
0.0
 10
453.5245136398741
 20
-578.4611167309273
 30
0.0
 10
453.5245136398741
 20
-578.4611167309273
 30
0.0
 10
453.5245136398741
 20
-563.720672805576
 30
0.0
 10
453.5245136398741
 20
-563.720672805576
 30
0.0
 10
468.4022015566191
 20
-555.0591859913351
 30
0.0
 10
483.2655923271003
 20
-546.373238999149
 30
0.0
 10
498.1320406198246
 20
-537.6925457775777
 30
0.0
 10
514.4191170995854
 20
-528.1822735631584
 30
0.0
 10
530.7059782608782
 20
-518.6716568391906
 30
0.0
 10
546.998696084496
 20
-509.17103089213
 30
0.0
 10
547.7312956394344
 20
-508.7439251793461
 30
0.0
 10
548.1802777085496
 20
-508.3195755429505
 30
0.0
 10
548.1810528550337
 20
-507.3272157884243
 30
0.0
 10
548.1911728230217
 20
-495.0908395165268
 30
0.0
 10
548.2615819620015
 20
-482.8543771172422
 30
0.0
 10
548.3129138847316
 20
-470.6180008453446
 30
0.0
 10
548.3145933687807
 20
-470.223192902735
 30
0.0
 10
548.2793242037505
 20
-469.8282127053511
 30
0.0
 10
548.2549501531923
 20
-469.2957731981058
 30
0.0
 10
547.9004928914537
 20
-469.3889630309818
 30
0.0
 10
547.5973675524453
 20
-469.4048965976011
 30
0.0
 10
547.3626704225127
 20
-469.5397720858486
 30
0.0
 10
541.8481922066604
 20
-472.7092599322784
 30
0.0
 10
536.3455995702323
 20
-475.8994183516198
 30
0.0
 10
530.8264274117813
 20
-479.0605518414979
 30
0.0
 10
530.2113486765835
 20
-479.4128128548647
 30
0.0
 10
530.017475928151
 20
-479.9610998013422
 30
0.0
 10
529.8124496830851
 20
-480.5493498554486
 30
0.0
 10
528.7884381137882
 20
-483.4871550304954
 30
0.0
 10
527.7955185312455
 20
-486.4365012754178
 30
0.0
 10
526.7273236123503
 20
-489.3582867564582
 30
0.0
 10
523.8714255824653
 20
-497.1704714061979
 30
0.0
 10
519.0389040179183
 20
-503.655433020245
 30
0.0
 10
513.0905160256988
 20
-509.3566354113979
 30
0.0
 10
508.8089513566302
 20
-513.4602608986531
 30
0.0
 10
503.9400840347138
 20
-516.6987367821752
 30
0.0
 10
498.4083803414352
 20
-518.8941238801506
 30
0.0
 10
493.9624846177203
 20
-520.6585295329213
 30
0.0
 10
489.3433005910974
 20
-521.5661399385104
 30
0.0
 10
484.5714988344778
 20
-521.110439933199
 30
0.0
 10
476.9366074111478
 20
-520.381371601133
 30
0.0
 10
471.0199573610862
 20
-516.8071711625734
 30
0.0
 10
467.209767881787
 20
-510.0356637315406
 30
0.0
 10
465.219450092571
 20
-506.4983258146732
 30
0.0
 10
464.1382930019125
 20
-502.6584223868137
 30
0.0
 10
463.6731620477102
 20
-498.646436439466
 30
0.0
 10
462.6251209374037
 20
-489.6065920135576
 30
0.0
 10
464.1936729118379
 20
-480.9237456073081
 30
0.0
 10
467.4057938148977
 20
-472.4959223943544
 30
0.0
 10
471.2230457399417
 20
-462.4805130544103
 30
0.0
 10
476.9211906088513
 20
-453.7134340635465
 30
0.0
 10
484.9983031014067
 20
-446.5884598357271
 30
0.0
 10
490.2035409337643
 20
-441.9967504455989
 30
0.0
 10
496.0289820808539
 20
-438.473537420221
 30
0.0
 10
502.8376534794338
 20
-436.7973262118728
 30
0.0
 10
507.9169300081119
 20
-435.5469288055013
 30
0.0
 10
512.9627891105831
 20
-435.5745756967705
 30
0.0
 10
517.9110658834346
 20
-437.4811776656948
 30
0.0
 10
519.4589472849574
 20
-438.0775236941916
 30
0.0
 10
520.8826329942368
 20
-438.8690343819277
 30
0.0
 10
522.1415570119342
 20
-439.9706036633364
 30
0.0
 10
523.4134862650885
 20
-441.0837140146206
 30
0.0
 10
524.7518627974144
 20
-442.1206877556808
 30
0.0
 10
526.0415773560113
 20
-443.2139888079248
 30
0.0
 10
526.6302149833598
 20
-443.7130108889633
 30
0.0
 10
527.1587787581843
 20
-443.7242074492903
 30
0.0
 10
527.8519750335101
 20
-443.3586828183053
 30
0.0
 10
534.2640298143507
 20
-439.9778383638554
 30
0.0
 10
540.6809077288706
 20
-436.6054343933443
 30
0.0
 10
547.1324519167108
 20
-433.3010710586669
 30
0.0
 10
548.0642641180838
 20
-432.8238392065727
 30
0.0
 10
548.1017295314858
 20
-432.1854630131559
 30
0.0
 10
548.101126639776
 20
-431.3585539693088
 30
0.0
 10
548.0935043660148
 20
-420.9037227002211
 30
0.0
 10
548.0956575506931
 20
-410.4489775585206
 30
0.0
 10
548.0962173787095
 20
-399.9941462894329
 30
0.0
 10
548.0962173787095
 20
-399.9941462894329
 30
0.0
 10
561.0545134095411
 20
-392.5126908062772
 30
0.0
 10
561.0545134095411
 20
-392.5126908062772
 30
0.0
 10
566.4998743972205
 20
-403.3229698020556
 30
0.0
 10
570.347012525599
 20
-414.6923016677028
 30
0.0
 10
572.5460600375276
 20
-426.6325719826431
 30
0.0
 10
573.5939719567534
 20
-432.3223194313074
 30
0.0
 10
574.398229497785
 20
-438.0418669559193
 30
0.0
 10
574.4413793187377
 20
-443.845388682984
 30
0.0
 10
574.4451689237716
 20
-444.3613778592873
 30
0.0
 10
574.6312040799751
 20
-444.8759889973965
 30
0.0
 10
574.7325760146285
 20
-445.3912030272156
 30
0.0
 10
574.7325760146285
 20
-448.4171165192977
 30
0.0
 10
574.7325760146285
 20
-451.4430300113797
 30
0.0
 10
574.7325760146285
 20
-454.4689435034618
 30
0.0
  0
HATCH
  5
9C
330
1F
100
AcDbEntity
  8
Layer 1
 62
     7
420
 16777215
100
AcDbHatch
 10
0.0
 20
0.0
 30
0.0
210
0.0
220
0.0
230
1.0
  2
SOLID
 70
     1
 71
     0
 91
        4
 92
        1
 93
        1
 72
     4
 94
        3
 73
     0
 74
     1
 95
      149
 96
      145
 40
0.0
 40
0.0
 40
0.0
 40
0.0
 40
1.0
 40
1.0
 40
1.0
 40
2.0
 40
2.0
 40
2.0
 40
3.0
 40
3.0
 40
3.0
 40
4.0
 40
4.0
 40
4.0
 40
5.0
 40
5.0
 40
5.0
 40
6.0
 40
6.0
 40
6.0
 40
7.0
 40
7.0
 40
7.0
 40
8.0
 40
8.0
 40
8.0
 40
9.0
 40
9.0
 40
9.0
 40
10.0
 40
10.0
 40
10.0
 40
11.0
 40
11.0
 40
11.0
 40
12.0
 40
12.0
 40
12.0
 40
13.0
 40
13.0
 40
13.0
 40
14.0
 40
14.0
 40
14.0
 40
15.0
 40
15.0
 40
15.0
 40
16.0
 40
16.0
 40
16.0
 40
17.0
 40
17.0
 40
17.0
 40
18.0
 40
18.0
 40
18.0
 40
19.0
 40
19.0
 40
19.0
 40
20.0
 40
20.0
 40
20.0
 40
21.0
 40
21.0
 40
21.0
 40
22.0
 40
22.0
 40
22.0
 40
23.0
 40
23.0
 40
23.0
 40
24.0
 40
24.0
 40
24.0
 40
25.0
 40
25.0
 40
25.0
 40
26.0
 40
26.0
 40
26.0
 40
27.0
 40
27.0
 40
27.0
 40
28.0
 40
28.0
 40
28.0
 40
29.0
 40
29.0
 40
29.0
 40
30.0
 40
30.0
 40
30.0
 40
31.0
 40
31.0
 40
31.0
 40
32.0
 40
32.0
 40
32.0
 40
33.0
 40
33.0
 40
33.0
 40
34.0
 40
34.0
 40
34.0
 40
35.0
 40
35.0
 40
35.0
 40
36.0
 40
36.0
 40
36.0
 40
37.0
 40
37.0
 40
37.0
 40
38.0
 40
38.0
 40
38.0
 40
39.0
 40
39.0
 40
39.0
 40
40.0
 40
40.0
 40
40.0
 40
41.0
 40
41.0
 40
41.0
 40
42.0
 40
42.0
 40
42.0
 40
43.0
 40
43.0
 40
43.0
 40
44.0
 40
44.0
 40
44.0
 40
45.0
 40
45.0
 40
45.0
 40
46.0
 40
46.0
 40
46.0
 40
47.0
 40
47.0
 40
47.0
 40
48.0
 40
48.0
 40
48.0
 40
48.0
 10
707.6643421006627
 20
-592.0576750759902
 10
708.7000602109061
 20
-591.148071306384
 10
710.1141340542245
 20
-591.0899748611911
 10
711.1827743447737
 20
-591.7201265339277
 10
711.1827743447737
 20
-591.7201265339277
 10
711.1835925549515
 20
-591.71870543204
 10
711.1835925549515
 20
-591.71870543204
 10
711.1835925549515
 20
-591.71870543204
 10
798.4346406424053
 20
-642.0931499995245
 10
798.4346406424053
 20
-642.0931499995245
 10
798.4346406424053
 20
-642.0931499995245
 10
804.4346189395163
 20
-631.7007610861069
 10
804.4346189395163
 20
-631.7007610861069
 10
804.4346189395163
 20
-631.7007610861069
 10
717.1835708520626
 20
-581.3263165186224
 10
717.1835708520626
 20
-581.3263165186224
 10
717.1835708520626
 20
-581.3263165186224
 10
470.0245400843168
 20
-153.2342728973468
 10
470.0245400843168
 20
-153.2342728973468
 10
470.0245400843168
 20
-153.2342728973468
 10
470.0245400843168
 20
-52.48538376237779
 10
470.0245400843168
 20
-52.48538376237779
 10
470.0245400843168
 20
-52.48538376237779
 10
458.024540426401
 20
-52.48538376237779
 10
458.024540426401
 20
-52.48538376237779
 10
458.024540426401
 20
-52.48538376237779
 10
458.024540426401
 20
-153.2343590247339
 10
458.024540426401
 20
-153.2343590247339
 10
458.024540426401
 20
-153.2343590247339
 10
458.024540426401
 20
-153.2343590247339
 10
458.024540426401
 20
-153.2343590247339
 10
458.0244973627075
 20
-154.8911915709777
 10
456.6813407603956
 20
-156.2342620459024
 10
455.0245082141519
 20
-156.2342620459024
 10
454.010463467943
 20
-156.2342620459024
 10
453.1139510793165
 20
-155.7311522552825
 10
452.5709384580373
 20
-154.9609247851449
 10
451.8206391260688
 20
-153.8966748328196
 10
450.6261835795087
 20
-153.2343344144875
 10
449.324040327575
 20
-153.2343299727478
 10
449.324040327575
 20
-153.2343299727478
 10
442.7258979026836
 20
-153.2343074658294
 10
442.7258979026836
 20
-153.2343074658294
 10
441.4138580724705
 20
-153.2343029903315
 10
440.2280217662152
 20
-153.9178328333497
 10
439.4622789737649
 20
-154.9832372128677
 10
438.881923062599
 20
-155.7907064251559
 10
437.9102803553647
 20
-156.2980512635885
 10
436.8248557168087
 20
-156.2277849436024
 10
435.2303375083573
 20
-156.1245618153641
 10
434.02453773066
 20
-154.7293910437437
 10
434.0245377834809
 20
-153.1315351893918
 10
434.0245377834809
 20
-153.1315351893918
 10
434.0245411105694
 20
-52.48538376237779
 10
434.0245411105694
 20
-52.48538376237779
 10
434.0245411105694
 20
-52.48538376237779
 10
422.0245414526536
 20
-52.48538376237779
 10
422.0245414526536
 20
-52.48538376237779
 10
422.0245414526536
 20
-52.48538376237779
 10
422.0245414526536
 20
-153.2342728973468
 10
422.0245414526536
 20
-153.2342728973468
 10
422.0245414526536
 20
-153.2342728973468
 10
174.865489153061
 20
-581.3263165186224
 10
174.865489153061
 20
-581.3263165186224
 10
174.865489153061
 20
-581.3263165186224
 10
87.6143764700669
 20
-631.7008472134941
 10
87.6143764700669
 20
-631.7008472134941
 10
87.6143764700669
 20
-631.7008472134941
 10
93.61439783087158
 20
-642.0930638721373
 10
93.61439783087158
 20
-642.0930638721373
 10
93.61439783087158
 20
-642.0930638721373
 10
180.5973744258793
 20
-591.8734332830212
 10
180.5973744258793
 20
-591.8734332830212
 10
181.663903225068
 20
-591.1010762978294
 10
183.1745649162427
 20
-591.0805506024639
 10
184.2824464856601
 20
-591.9998942995111
 10
185.2774501061678
 20
-592.8255694730171
 10
185.6290998559309
 20
-594.2436096239682
 10
185.1334003912296
 20
-595.4377845431746
 10
185.1274957254796
 20
-595.4520092987916
 10
185.1215027305659
 20
-595.4661554500645
 10
185.115422446717
 20
-595.4802229243967
 10
184.5665633211581
 20
-596.7500750978108
 10
184.6048834370708
 20
-598.1954273733803
 10
185.2965780350265
 20
-599.3934797366742
 10
185.2965780350265
 20
-599.3934797366742
 10
188.3123173489931
 20
-604.61690293942
 10
188.3123173489931
 20
-604.61690293942
 10
189.0060844917842
 20
-605.8185450621902
 10
190.2117803973888
 20
-606.6845924205918
 10
191.5931828619495
 20
-606.8149146003532
 10
192.0582961763589
 20
-606.8587936164438
 10
192.519911727005
 20
-607.0124993638407
 10
192.9391275559319
 20
-607.2847234267379
 10
194.3286852880606
 20
-608.1871231254055
 10
194.723622421751
 20
-610.0451061842944
 10
193.8212227230833
 20
-611.4346854482699
 10
193.5540555682022
 20
-611.8460298492087
 10
192.8654886399347
 20
-612.5032248767136
 10
192.8654886399347
 20
-612.5032248767136
 10
192.8654886399347
 20
-612.5032248767136
 10
105.6143759569406
 20
-662.8777555715852
 10
105.6143759569406
 20
-662.8777555715852
 10
105.6143759569406
 20
-662.8777555715852
 10
111.6143757858985
 20
-673.2700583576157
 10
111.6143757858985
 20
-673.2700583576157
 10
111.6143757858985
 20
-673.2700583576157
 10
198.8654669370458
 20
-622.895527662744
 10
198.8654669370458
 20
-622.895527662744
 10
198.8654669370458
 20
-622.895527662744
 10
693.183571536231
 20
-622.895527662744
 10
693.183571536231
 20
-622.895527662744
 10
693.183571536231
 20
-622.895527662744
 10
780.4347057510719
 20
-673.2699722302285
 10
780.4347057510719
 20
-673.2699722302285
 10
780.4347057510719
 20
-673.2699722302285
 10
786.434684048183
 20
-662.8776694441982
 10
786.434684048183
 20
-662.8776694441982
 10
786.434684048183
 20
-662.8776694441982
 10
699.1836359607292
 20
-612.5032248767136
 10
699.1836359607292
 20
-612.5032248767136
 10
699.1836359607292
 20
-612.5032248767136
 10
698.4662378896196
 20
-611.8550301611639
 10
698.1932140724135
 20
-611.4346854482699
 10
697.2908574374395
 20
-610.0451061842944
 10
697.6857515074362
 20
-608.1871231254055
 10
699.0753307714117
 20
-607.2847234267379
 10
699.4983761930881
 20
-607.0099893657016
 10
699.9645687991645
 20
-606.8560516016695
 10
700.4339557771222
 20
-606.8138999042268
 10
701.8262424826349
 20
-606.6888703428615
 10
703.0433430338318
 20
-605.8180204109918
 10
703.7422867613622
 20
-604.6074121641558
 10
703.7422867613622
 20
-604.6074121641558
 10
706.732878984635
 20
-599.4275450792758
 10
706.732878984635
 20
-599.4275450792758
 10
707.4295654102676
 20
-598.2208466011174
 10
707.4602266927785
 20
-596.7652970201149
 10
706.9023006047804
 20
-595.4884995917101
 10
706.8972403956117
 20
-595.4769194519877
 10
706.8922392288803
 20
-595.4652864716837
 10
706.8872976787322
 20
-595.453600718621
 10
706.3936005235983
 20
-594.2861081566737
 10
706.7119144320786
 20
-592.8941302746135
 10
707.6643421006627
 20
-592.0576750759902
 97
        0
 97
        0
 92
        1
 93
        1
 72
     4
 94
        3
 73
     0
 74
     1
 95
       86
 96
       82
 40
0.0
 40
0.0
 40
0.0
 40
0.0
 40
1.0
 40
1.0
 40
1.0
 40
2.0
 40
2.0
 40
2.0
 40
3.0
 40
3.0
 40
3.0
 40
4.0
 40
4.0
 40
4.0
 40
5.0
 40
5.0
 40
5.0
 40
6.0
 40
6.0
 40
6.0
 40
7.0
 40
7.0
 40
7.0
 40
8.0
 40
8.0
 40
8.0
 40
9.0
 40
9.0
 40
9.0
 40
10.0
 40
10.0
 40
10.0
 40
11.0
 40
11.0
 40
11.0
 40
12.0
 40
12.0
 40
12.0
 40
13.0
 40
13.0
 40
13.0
 40
14.0
 40
14.0
 40
14.0
 40
15.0
 40
15.0
 40
15.0
 40
16.0
 40
16.0
 40
16.0
 40
17.0
 40
17.0
 40
17.0
 40
18.0
 40
18.0
 40
18.0
 40
19.0
 40
19.0
 40
19.0
 40
20.0
 40
20.0
 40
20.0
 40
21.0
 40
21.0
 40
21.0
 40
22.0
 40
22.0
 40
22.0
 40
23.0
 40
23.0
 40
23.0
 40
24.0
 40
24.0
 40
24.0
 40
25.0
 40
25.0
 40
25.0
 40
26.0
 40
26.0
 40
26.0
 40
27.0
 40
27.0
 40
27.0
 40
27.0
 10
438.5245248334027
 20
-578.4780838261921
 10
421.6960515981351
 20
-577.5117345425796
 10
405.8039122520647
 20
-573.5099116269133
 10
390.7252460774489
 20
-566.2691821907895
 10
366.1602941657299
 20
-554.4730891219069
 10
347.0850803779097
 20
-536.6967409275663
 10
333.7349477993245
 20
-512.9631336201317
 10
309.7626599703024
 20
-470.3456660472357
 10
314.7919826144444
 20
-423.1345942816947
 10
331.261089326907
 20
-392.0770584821674
 10
331.261089326907
 20
-392.0770584821674
 10
343.907948725872
 20
-399.378679980993
 10
343.907948725872
 20
-399.378679980993
 10
343.8699234844535
 20
-403.9798633837055
 10
343.8960200827543
 20
-408.5819941876766
 10
343.8960200827543
 20
-413.1837804820991
 10
343.8960200827543
 20
-444.3770530437451
 10
343.8944482579392
 20
-475.5704978601656
 10
343.8992498597717
 20
-506.7638565491988
 10
343.8996159011671
 20
-509.049591276275
 10
343.6744143156656
 20
-508.5919103410595
 10
345.5357563426525
 20
-509.6593731771642
 10
354.9898089051219
 20
-515.0813505792376
 10
364.4529479069337
 20
-520.4874805420786
 10
373.9155055488823
 20
-525.8947301609526
 10
374.4386432983175
 20
-526.1935921942979
 10
374.9851215696652
 20
-526.4516298461432
 10
375.7110031884073
 20
-526.8271452540354
 10
375.7463154171311
 20
-526.173955150032
 10
375.7889484737611
 20
-525.7496916410236
 10
375.7892068559225
 20
-525.3254281320151
 10
375.7934270978919
 20
-518.6062000249709
 10
375.7795605885638
 20
-511.8868857905396
 10
375.8071213524458
 20
-505.1677438108825
 10
375.8108248300924
 20
-504.2660761950056
 10
375.5446481401634
 20
-503.5801576838923
 10
374.9708244234014
 20
-502.8828703576777
 10
368.3608058432397
 20
-494.8505441064306
 10
363.7628522175445
 20
-485.8094077697152
 10
361.5210855215989
 20
-475.6280309547692
 10
360.050245067865
 20
-468.9480769362569
 10
359.7524596268588
 20
-462.2361696571189
 10
361.3797504793166
 20
-455.5287410021118
 10
362.5555615684323
 20
-450.6821806734623
 10
364.6672328461162
 20
-446.3200007700389
 10
368.2890617297593
 20
-442.8045392095029
 10
371.8621855759798
 20
-439.3362754571147
 10
376.1536118308748
 20
-437.4149457049909
 10
381.1140325653118
 20
-436.8765634080335
 10
386.5911745588427
 20
-436.2820260546665
 10
391.7255295515912
 20
-437.5085661748026
 10
396.6722990951679
 20
-439.6828520629309
 10
403.2566086502709
 20
-442.5768183979279
 10
408.8123849482527
 20
-446.9168635628585
 10
413.6128240610934
 20
-452.2177458586253
 10
421.4474879588743
 20
-460.8692418959589
 10
426.7628396556791
 20
-470.8564875803111
 10
429.2030007878815
 20
-482.3028173300536
 10
430.6490796178152
 20
-489.0861242131235
 10
430.8460960158779
 20
-495.8852785354254
 10
429.0721302231356
 20
-502.6554940556513
 10
428.2891030830319
 20
-505.6438560069441
 10
427.0929659305532
 20
-508.4580683814576
 10
425.3639586338934
 20
-511.0319853458748
 10
423.0248679904894
 20
-514.5141156075911
 10
419.9946911927444
 20
-517.1962085702453
 10
416.1204229374196
 20
-518.8485624923582
 10
415.2864514478277
 20
-519.2042686012103
 10
415.0048148919086
 20
-519.6750408992697
 10
415.0069680765868
 20
-520.5515593181043
 10
415.030050216338
 20
-530.0294476349623
 10
415.035303986953
 20
-539.5074220792073
 10
415.0013697964233
 20
-548.9852242686782
 10
414.9977093824702
 20
-550.0051447870865
 10
415.4870421324564
 20
-550.4677349833684
 10
416.2793279666767
 20
-550.9266217020036
 10
423.6990301132593
 20
-555.22386155553
 10
431.0929801710896
 20
-559.5656292682032
 10
438.5245248334027
 20
-563.8419401666567
 10
438.5245248334027
 20
-563.8419401666567
 10
438.5245248334027
 20
-578.4780838261921
 10
438.5245248334027
 20
-578.4780838261921
 97
        0
 97
        0
 92
        1
 93
        1
 72
     4
 94
        3
 73
     0
 74
     1
 95
      110
 96
      106
 40
0.0
 40
0.0
 40
0.0
 40
0.0
 40
1.0
 40
1.0
 40
1.0
 40
2.0
 40
2.0
 40
2.0
 40
3.0
 40
3.0
 40
3.0
 40
4.0
 40
4.0
 40
4.0
 40
5.0
 40
5.0
 40
5.0
 40
6.0
 40
6.0
 40
6.0
 40
7.0
 40
7.0
 40
7.0
 40
8.0
 40
8.0
 40
8.0
 40
9.0
 40
9.0
 40
9.0
 40
10.0
 40
10.0
 40
10.0
 40
11.0
 40
11.0
 40
11.0
 40
12.0
 40
12.0
 40
12.0
 40
13.0
 40
13.0
 40
13.0
 40
14.0
 40
14.0
 40
14.0
 40
15.0
 40
15.0
 40
15.0
 40
16.0
 40
16.0
 40
16.0
 40
17.0
 40
17.0
 40
17.0
 40
18.0
 40
18.0
 40
18.0
 40
19.0
 40
19.0
 40
19.0
 40
20.0
 40
20.0
 40
20.0
 40
21.0
 40
21.0
 40
21.0
 40
22.0
 40
22.0
 40
22.0
 40
23.0
 40
23.0
 40
23.0
 40
24.0
 40
24.0
 40
24.0
 40
25.0
 40
25.0
 40
25.0
 40
26.0
 40
26.0
 40
26.0
 40
27.0
 40
27.0
 40
27.0
 40
28.0
 40
28.0
 40
28.0
 40
29.0
 40
29.0
 40
29.0
 40
30.0
 40
30.0
 40
30.0
 40
31.0
 40
31.0
 40
31.0
 40
32.0
 40
32.0
 40
32.0
 40
33.0
 40
33.0
 40
33.0
 40
34.0
 40
34.0
 40
34.0
 40
35.0
 40
35.0
 40
35.0
 40
35.0
 10
419.9196742385531
 20
-414.6108251594766
 10
414.4372784744072
 20
-412.5018238307939
 10
409.3963716966961
 20
-409.6109580817335
 10
405.1291041738913
 20
-405.5081938683495
 10
401.8333535779271
 20
-402.3394811684038
 10
399.3008638867199
 20
-398.6877660814262
 10
398.1286701478637
 20
-394.1971702437901
 10
397.6072549461711
 20
-392.1994454992809
 10
397.4330192420046
 20
-390.1662362712736
 10
397.508725215293
 20
-388.1143374002588
 10
397.5775409976109
 20
-386.2484736854474
 10
397.6889037091715
 20
-384.3827822254104
 10
397.8440621970885
 20
-382.5222584086012
 10
397.8936715720761
 20
-381.9273765456857
 10
397.6703432572448
 20
-381.6205046653371
 10
397.2030160546706
 20
-381.3499785423579
 10
395.8560267836315
 20
-380.5700950518844
 10
394.52156904742
 20
-379.7685074598539
 10
393.1828049418519
 20
-378.9744990778909
 10
388.6689547096904
 20
-376.2974015036904
 10
384.1558365603196
 20
-373.6191842734572
 10
379.6407805447383
 20
-370.944239883935
 10
379.2977782254881
 20
-370.7410653776923
 10
378.9419429255553
 20
-370.5595088456197
 10
378.4944680857149
 20
-370.3145625566184
 10
369.6357495549435
 20
-375.7333532453679
 10
360.7558867506314
 20
-381.1652352969613
 10
351.8243044503469
 20
-386.6286399722447
 10
351.8243044503469
 20
-386.6286399722447
 10
338.6722648621636
 20
-379.0353050132056
 10
338.6722648621636
 20
-379.0353050132056
 10
355.6158904140257
 20
-353.7440839095024
 10
378.6531147328107
 20
-336.441694726545
 10
407.790828009489
 20
-327.1699953744792
 10
415.2173772833485
 20
-324.8068321263721
 10
422.8140712104857
 20
-323.1493105610313
 10
430.5694117847188
 20
-322.3278275425735
 10
434.324479736254
 20
-321.9300912688013
 10
438.104050929428
 20
-321.7643821759608
 10
441.8716073520972
 20
-321.4815398366218
 10
442.530998627974
 20
-321.4320165890214
 10
443.1858251523329
 20
-321.3223764252033
 10
443.84280486137
 20
-321.2404692800415
 10
445.4455494084954
 20
-321.2404692800415
 10
447.0482939556207
 20
-321.2404692800415
 10
448.6509954390526
 20
-321.2404692800415
 10
449.4398361777876
 20
-321.330730781755
 10
450.2269974324736
 20
-321.4805063079763
 10
451.0177329737256
 20
-321.5022104095333
 10
462.3361635535783
 20
-321.8134747866256
 10
473.3975900102313
 20
-323.7119807811597
 10
484.1619631086687
 20
-327.1625884191859
 10
513.4511313956173
 20
-336.5514210177502
 10
536.6461841513202
 20
-353.9586272308463
 10
553.6107817219489
 20
-379.4897992350972
 10
553.6107817219489
 20
-379.4897992350972
 10
540.7527379697381
 20
-386.9133771141007
 10
540.7527379697381
 20
-386.9133771141007
 10
525.3653051122568
 20
-377.9529421391272
 10
509.9645225097702
 20
-369.015589303905
 10
494.5677878944787
 20
-360.0710878955508
 10
478.7630678463466
 20
-350.8895639178115
 10
462.9557639766005
 20
-341.7124324368158
 10
447.1720590109284
 20
-332.4949933386428
 10
446.265869707227
 20
-331.9657405447213
 10
445.6380010550401
 20
-332.0190533973555
 10
444.7692771647409
 20
-332.5177309688454
 10
434.4330002440394
 20
-338.4506160313813
 10
424.0741148842159
 20
-344.3440547506111
 10
413.7223780975243
 20
-350.250068068362
 10
413.3447525686473
 20
-350.4654726635772
 10
412.9796155109044
 20
-350.7029258698981
 10
412.5154750216541
 20
-350.9871462474312
 10
412.9039526013096
 20
-351.2727446631584
 10
413.1752108070795
 20
-351.4961591053768
 10
413.4690343882777
 20
-351.6845197010329
 10
417.5134472968803
 20
-354.2771263084576
 10
421.5686691925679
 20
-356.8531964575532
 10
425.6003352478751
 20
-359.4654401092439
 10
426.2829809182774
 20
-359.9077042421628
 10
426.9157157678371
 20
-360.0331057178259
 10
427.7240212960638
 20
-359.873683924246
 10
433.8423386230933
 20
-358.6669531031501
 10
440.0049684908017
 20
-357.7541750543332
 10
446.2592809621114
 20
-357.9002471029078
 10
454.837224210835
 20
-358.1004932779879
 10
463.1442106996437
 20
-359.6020381452341
 10
470.8978287261341
 20
-363.4800098782055
 10
475.2855453998419
 20
-365.6744495749226
 10
479.1800535911425
 20
-368.5213042291588
 10
482.3172867310917
 20
-372.3228809697448
 10
486.6583223609744
 20
-377.5830250113985
 10
488.816803873564
 20
-383.5972143273863
 10
488.4363792046053
 20
-390.4532127251949
 10
488.2657608506983
 20
-393.5277881910061
 10
487.3016939428447
 20
-396.377743431179
 10
485.8566917052503
 20
-399.0718081006444
 10
483.2730854097807
 20
-403.888912862895
 10
479.5091894010646
 20
-407.6222767128731
 10
475.025483754399
 20
-410.657922599701
 10
468.9628477831499
 20
-414.7624954882148
 10
462.2551176822878
 20
-417.2649267213131
 10
455.0460831246282
 20
-418.4074065116091
 10
443.0012541617106
 20
-420.3163339199861
 10
431.2815560852135
 20
-418.981531674226
 10
419.9196742385531
 20
-414.6108251594766
 97
        0
 97
        0
 92
        1
 93
        1
 72
     4
 94
        3
 73
     0
 74
     1
 95
      113
 96
      109
 40
0.0
 40
0.0
 40
0.0
 40
0.0
 40
1.0
 40
1.0
 40
1.0
 40
2.0
 40
2.0
 40
2.0
 40
3.0
 40
3.0
 40
3.0
 40
4.0
 40
4.0
 40
4.0
 40
5.0
 40
5.0
 40
5.0
 40
6.0
 40
6.0
 40
6.0
 40
7.0
 40
7.0
 40
7.0
 40
8.0
 40
8.0
 40
8.0
 40
9.0
 40
9.0
 40
9.0
 40
10.0
 40
10.0
 40
10.0
 40
11.0
 40
11.0
 40
11.0
 40
12.0
 40
12.0
 40
12.0
 40
13.0
 40
13.0
 40
13.0
 40
14.0
 40
14.0
 40
14.0
 40
15.0
 40
15.0
 40
15.0
 40
16.0
 40
16.0
 40
16.0
 40
17.0
 40
17.0
 40
17.0
 40
18.0
 40
18.0
 40
18.0
 40
19.0
 40
19.0
 40
19.0
 40
20.0
 40
20.0
 40
20.0
 40
21.0
 40
21.0
 40
21.0
 40
22.0
 40
22.0
 40
22.0
 40
23.0
 40
23.0
 40
23.0
 40
24.0
 40
24.0
 40
24.0
 40
25.0
 40
25.0
 40
25.0
 40
26.0
 40
26.0
 40
26.0
 40
27.0
 40
27.0
 40
27.0
 40
28.0
 40
28.0
 40
28.0
 40
29.0
 40
29.0
 40
29.0
 40
30.0
 40
30.0
 40
30.0
 40
31.0
 40
31.0
 40
31.0
 40
32.0
 40
32.0
 40
32.0
 40
33.0
 40
33.0
 40
33.0
 40
34.0
 40
34.0
 40
34.0
 40
35.0
 40
35.0
 40
35.0
 40
36.0
 40
36.0
 40
36.0
 40
36.0
 10
574.7325760146285
 20
-454.4689435034618
 10
574.6312040799751
 20
-455.0317859783645
 10
574.4529203886134
 20
-455.5929920329117
 10
574.4399151531566
 20
-456.1579015651055
 10
574.2017729277386
 20
-466.4970637532759
 10
572.3591205437592
 20
-476.5784466717625
 10
569.4169659356622
 20
-486.4588082686848
 10
561.7943476649984
 20
-512.0569012527367
 10
547.6276843927155
 20
-533.3428543452884
 10
526.8651274317604
 20
-550.1504416891768
 10
511.0836617781536
 20
-562.9257170223545
 10
493.1911277385729
 20
-571.443887864409
 10
473.3525884504553
 20
-575.8133024683514
 10
467.5762399140305
 20
-577.085490103667
 10
461.7303435124971
 20
-577.9749276305714
 10
455.815631328646
 20
-578.3321840323918
 10
455.0521120417275
 20
-578.378262184507
 10
454.2883774363411
 20
-578.4205507315885
 10
453.5245136398741
 20
-578.4611167309273
 10
453.5245136398741
 20
-578.4611167309273
 10
453.5245136398741
 20
-563.720672805576
 10
453.5245136398741
 20
-563.720672805576
 10
468.4022015566191
 20
-555.0591859913351
 10
483.2655923271003
 20
-546.373238999149
 10
498.1320406198246
 20
-537.6925457775777
 10
514.4191170995854
 20
-528.1822735631584
 10
530.7059782608782
 20
-518.6716568391906
 10
546.998696084496
 20
-509.17103089213
 10
547.7312956394344
 20
-508.7439251793461
 10
548.1802777085496
 20
-508.3195755429505
 10
548.1810528550337
 20
-507.3272157884243
 10
548.1911728230217
 20
-495.0908395165268
 10
548.2615819620015
 20
-482.8543771172422
 10
548.3129138847316
 20
-470.6180008453446
 10
548.3145933687807
 20
-470.223192902735
 10
548.2793242037505
 20
-469.8282127053511
 10
548.2549501531923
 20
-469.2957731981058
 10
547.9004928914537
 20
-469.3889630309818
 10
547.5973675524453
 20
-469.4048965976011
 10
547.3626704225127
 20
-469.5397720858486
 10
541.8481922066604
 20
-472.7092599322784
 10
536.3455995702323
 20
-475.8994183516198
 10
530.8264274117813
 20
-479.0605518414979
 10
530.2113486765835
 20
-479.4128128548647
 10
530.017475928151
 20
-479.9610998013422
 10
529.8124496830851
 20
-480.5493498554486
 10
528.7884381137882
 20
-483.4871550304954
 10
527.7955185312455
 20
-486.4365012754178
 10
526.7273236123503
 20
-489.3582867564582
 10
523.8714255824653
 20
-497.1704714061979
 10
519.0389040179183
 20
-503.655433020245
 10
513.0905160256988
 20
-509.3566354113979
 10
508.8089513566302
 20
-513.4602608986531
 10
503.9400840347138
 20
-516.6987367821752
 10
498.4083803414352
 20
-518.8941238801506
 10
493.9624846177203
 20
-520.6585295329213
 10
489.3433005910974
 20
-521.5661399385104
 10
484.5714988344778
 20
-521.110439933199
 10
476.9366074111478
 20
-520.381371601133
 10
471.0199573610862
 20
-516.8071711625734
 10
467.209767881787
 20
-510.0356637315406
 10
465.219450092571
 20
-506.4983258146732
 10
464.1382930019125
 20
-502.6584223868137
 10
463.6731620477102
 20
-498.646436439466
 10
462.6251209374037
 20
-489.6065920135576
 10
464.1936729118379
 20
-480.9237456073081
 10
467.4057938148977
 20
-472.4959223943544
 10
471.2230457399417
 20
-462.4805130544103
 10
476.9211906088513
 20
-453.7134340635465
 10
484.9983031014067
 20
-446.5884598357271
 10
490.2035409337643
 20
-441.9967504455989
 10
496.0289820808539
 20
-438.473537420221
 10
502.8376534794338
 20
-436.7973262118728
 10
507.9169300081119
 20
-435.5469288055013
 10
512.9627891105831
 20
-435.5745756967705
 10
517.9110658834346
 20
-437.4811776656948
 10
519.4589472849574
 20
-438.0775236941916
 10
520.8826329942368
 20
-438.8690343819277
 10
522.1415570119342
 20
-439.9706036633364
 10
523.4134862650885
 20
-441.0837140146206
 10
524.7518627974144
 20
-442.1206877556808
 10
526.0415773560113
 20
-443.2139888079248
 10
526.6302149833598
 20
-443.7130108889633
 10
527.1587787581843
 20
-443.7242074492903
 10
527.8519750335101
 20
-443.3586828183053
 10
534.2640298143507
 20
-439.9778383638554
 10
540.6809077288706
 20
-436.6054343933443
 10
547.1324519167108
 20
-433.3010710586669
 10
548.0642641180838
 20
-432.8238392065727
 10
548.1017295314858
 20
-432.1854630131559
 10
548.101126639776
 20
-431.3585539693088
 10
548.0935043660148
 20
-420.9037227002211
 10
548.0956575506931
 20
-410.4489775585206
 10
548.0962173787095
 20
-399.9941462894329
 10
548.0962173787095
 20
-399.9941462894329
 10
561.0545134095411
 20
-392.5126908062772
 10
561.0545134095411
 20
-392.5126908062772
 10
566.4998743972205
 20
-403.3229698020556
 10
570.347012525599
 20
-414.6923016677028
 10
572.5460600375276
 20
-426.6325719826431
 10
573.5939719567534
 20
-432.3223194313074
 10
574.398229497785
 20
-438.0418669559193
 10
574.4413793187377
 20
-443.845388682984
 10
574.4451689237716
 20
-444.3613778592873
 10
574.6312040799751
 20
-444.8759889973965
 10
574.7325760146285
 20
-445.3912030272156
 10
574.7325760146285
 20
-448.4171165192977
 10
574.7325760146285
 20
-451.4430300113797
 10
574.7325760146285
 20
-454.4689435034618
 97
        0
 97
        0
 75
     2
 76
     1
 98
        0
  0
ENDSEC
  0
SECTION
  2
OBJECTS
  0
DICTIONARY
  5
C
330
0
100
AcDbDictionary
281
     1
  3
ACAD_GROUP
350
D
  3
ACAD_LAYOUT
350
1A
  3
ACAD_MATERIAL
350
3B
  3
ACAD_MLEADERSTYLE
350
9E
  3
ACAD_MLINESTYLE
350
17
  3
ACAD_PLOTSETTINGS
350
19
  3
ACAD_PLOTSTYLENAME
350
E
  3
ACAD_TABLESTYLE
350
9D
  3
ACAD_VISUALSTYLE
350
2A
  0
SUN
  5
3F
330
29
100
AcDbSun
 90
        1
290
     0
 63
     7
421
 16777215
 40
1.0
291
     1
 91
  2455826
 92
 54000000
292
     0
 70
     2
 71
   256
280
     1
  0
DICTIONARY
  5
D
102
{ACAD_REACTORS
330
C
102
}
330
C
100
AcDbDictionary
281
     1
  0
DICTIONARY
  5
1A
102
{ACAD_REACTORS
330
C
102
}
330
C
100
AcDbDictionary
281
     1
  3
Layout1
350
1E
  3
Layout2
350
26
  3
Model
350
22
  0
DICTIONARY
  5
3B
102
{ACAD_REACTORS
330
C
102
}
330
C
100
AcDbDictionary
281
     1
  3
ByBlock
350
3D
  3
ByLayer
350
3C
  3
Global
350
3E
  0
DICTIONARY
  5
9E
102
{ACAD_REACTORS
330
C
102
}
330
C
100
AcDbDictionary
281
     1
  0
DICTIONARY
  5
17
102
{ACAD_REACTORS
330
C
102
}
330
C
100
AcDbDictionary
281
     1
  3
Standard
350
18
  0
DICTIONARY
  5
19
102
{ACAD_REACTORS
330
C
102
}
330
C
100
AcDbDictionary
281
     1
  0
ACDBDICTIONARYWDFLT
  5
E
102
{ACAD_REACTORS
330
C
102
}
330
C
100
AcDbDictionary
281
     1
  3
Normal
350
F
100
AcDbDictionaryWithDefault
340
F
  0
DICTIONARY
  5
9D
102
{ACAD_REACTORS
330
C
102
}
330
C
100
AcDbDictionary
281
     1
  0
DICTIONARY
  5
2A
102
{ACAD_REACTORS
330
C
102
}
330
C
100
AcDbDictionary
281
     1
  3
2dWireframe
350
2F
  3
3D Hidden
350
31
  3
3dWireframe
350
30
  3
Basic
350
32
  3
Brighten
350
36
  3
ColorChange
350
3A
  3
Conceptual
350
34
  3
Dim
350
35
  3
Facepattern
350
39
  3
Flat
350
2B
  3
FlatWithEdges
350
2C
  3
Gouraud
350
2D
  3
GouraudWithEdges
350
2E
  3
Linepattern
350
38
  3
Realistic
350
33
  3
Thicken
350
37
  0
LAYOUT
  5
1E
102
{ACAD_REACTORS
330
1A
102
}
330
1A
100
AcDbPlotSettings
  1

  2
none_device
  4

  6

 40
0.0
 41
0.0
 42
0.0
 43
0.0
 44
0.0
 45
0.0
 46
0.0
 47
0.0
 48
0.0
 49
0.0
140
0.0
141
0.0
142
1.0
143
1.0
 70
   688
 72
     0
 73
     0
 74
     5
  7

 75
    16
 76
     0
 77
     2
 78
   300
147
1.0
148
0.0
149
0.0
100
AcDbLayout
  1
Layout1
 70
     1
 71
     1
 10
0.0
 20
0.0
 11
12.0
 21
9.0
 12
0.0
 22
0.0
 32
0.0
 14
1.000000000000000E+20
 24
1.000000000000000E+20
 34
1.000000000000000E+20
 15
-1.000000000000000E+20
 25
-1.000000000000000E+20
 35
-1.000000000000000E+20
146
0.0
 13
0.0
 23
0.0
 33
0.0
 16
1.0
 26
0.0
 36
0.0
 17
0.0
 27
1.0
 37
0.0
 76
     0
330
1B
  0
LAYOUT
  5
26
102
{ACAD_REACTORS
330
1A
102
}
330
1A
100
AcDbPlotSettings
  1

  2
none_device
  4

  6

 40
0.0
 41
0.0
 42
0.0
 43
0.0
 44
0.0
 45
0.0
 46
0.0
 47
0.0
 48
0.0
 49
0.0
140
0.0
141
0.0
142
1.0
143
1.0
 70
   688
 72
     0
 73
     0
 74
     5
  7

 75
    16
 76
     0
 77
     2
 78
   300
147
1.0
148
0.0
149
0.0
100
AcDbLayout
  1
Layout2
 70
     1
 71
     2
 10
0.0
 20
0.0
 11
0.0
 21
0.0
 12
0.0
 22
0.0
 32
0.0
 14
0.0
 24
0.0
 34
0.0
 15
0.0
 25
0.0
 35
0.0
146
0.0
 13
0.0
 23
0.0
 33
0.0
 16
1.0
 26
0.0
 36
0.0
 17
0.0
 27
1.0
 37
0.0
 76
     0
330
23
  0
LAYOUT
  5
22
102
{ACAD_REACTORS
330
1A
102
}
330
1A
100
AcDbPlotSettings
  1

  2
none_device
  4

  6

 40
0.0
 41
0.0
 42
0.0
 43
0.0
 44
0.0
 45
0.0
 46
0.0
 47
0.0
 48
0.0
 49
0.0
140
0.0
141
0.0
142
1.0
143
1.0
 70
  1712
 72
     0
 73
     0
 74
     0
  7

 75
     0
 76
     0
 77
     2
 78
   300
147
1.0
148
0.0
149
0.0
100
AcDbLayout
  1
Model
 70
     1
 71
     0
 10
0.0
 20
0.0
 11
12.0
 21
9.0
 12
0.0
 22
0.0
 32
0.0
 14
1.000000000000000E+20
 24
1.000000000000000E+20
 34
1.000000000000000E+20
 15
-1.000000000000000E+20
 25
-1.000000000000000E+20
 35
-1.000000000000000E+20
146
0.0
 13
0.0
 23
0.0
 33
0.0
 16
1.0
 26
0.0
 36
0.0
 17
0.0
 27
1.0
 37
0.0
 76
     0
330
1F
331
29
  0
MATERIAL
  5
3D
102
{ACAD_REACTORS
330
3B
102
}
330
3B
100
AcDbMaterial
  1
ByBlock
 72
     1
 94
      127
  0
MATERIAL
  5
3C
102
{ACAD_REACTORS
330
3B
102
}
330
3B
100
AcDbMaterial
  1
ByLayer
 72
     1
 94
      127
  0
MATERIAL
  5
3E
102
{ACAD_REACTORS
330
3B
102
}
330
3B
100
AcDbMaterial
  1
Global
 72
     1
 94
      127
  0
MLINESTYLE
  5
18
102
{ACAD_REACTORS
330
17
102
}
330
17
100
AcDbMlineStyle
  2
Standard
 70
     0
  3

 62
   256
 51
90.0
 52
90.0
 71
     2
 49
0.5
 62
   256
  6
BYLAYER
 49
-0.5
 62
   256
  6
BYLAYER
  0
ACDBPLACEHOLDER
  5
F
102
{ACAD_REACTORS
330
E
102
}
330
E
  0
VISUALSTYLE
  5
2F
102
{ACAD_REACTORS
330
2A
102
}
330
2A
100
AcDbVisualStyle
  2
2dWireframe
 70
     4
177
     2
291
     0
 71
     0
176
     1
 72
     2
176
     1
 73
     0
176
     1
 90
        0
176
     1
 40
-0.6
176
     1
 41
-30.0
176
     1
 62
     5
 63
     7
421
 16777215
176
     1
 74
     1
176
     1
 91
        4
176
     1
 64
     7
176
     1
 65
   257
176
     1
 75
     1
176
     1
175
     1
176
     1
 42
1.0
176
     1
 92
        0
176
     1
 66
   257
176
     1
 43
1.0
176
     1
 76
     1
176
     1
 77
     6
176
     1
 78
     2
176
     1
 67
     7
176
     1
 79
     5
176
     1
170
     0
176
     1
171
     0
176
     1
290
     0
176
     1
 93
        1
176
     1
 44
0.0
176
     1
173
     0
176
     1
  0
VISUALSTYLE
  5
31
102
{ACAD_REACTORS
330
2A
102
}
330
2A
100
AcDbVisualStyle
  2
3D Hidden
 70
     6
177
     2
291
     0
 71
     1
176
     1
 72
     2
176
     1
 73
     2
176
     1
 90
        0
176
     1
 40
-0.6
176
     1
 41
-30.0
176
     1
 62
     5
 63
     7
421
 16777215
176
     1
 74
     2
176
     1
 91
        2
176
     1
 64
     7
176
     1
 65
   257
176
     1
 75
     2
176
     1
175
     1
176
     1
 42
40.0
176
     1
 92
        0
176
     1
 66
   257
176
     1
 43
1.0
176
     1
 76
     1
176
     1
 77
     6
176
     1
 78
     2
176
     1
 67
     7
176
     1
 79
     3
176
     1
170
     0
176
     1
171
     0
176
     1
290
     0
176
     1
 93
        1
176
     1
 44
0.0
176
     1
173
     0
176
     1
  0
VISUALSTYLE
  5
30
102
{ACAD_REACTORS
330
2A
102
}
330
2A
100
AcDbVisualStyle
  2
3dWireframe
 70
     5
177
     2
291
     0
 71
     0
176
     1
 72
     2
176
     1
 73
     0
176
     1
 90
        0
176
     1
 40
-0.6
176
     1
 41
-30.0
176
     1
 62
     5
 63
     7
421
 16777215
176
     1
 74
     1
176
     1
 91
        4
176
     1
 64
     7
176
     1
 65
   257
176
     1
 75
     1
176
     1
175
     1
176
     1
 42
1.0
176
     1
 92
        0
176
     1
 66
   257
176
     1
 43
1.0
176
     1
 76
     1
176
     1
 77
     6
176
     1
 78
     2
176
     1
 67
     7
176
     1
 79
     5
176
     1
170
     0
176
     1
171
     0
176
     1
290
     0
176
     1
 93
        1
176
     1
 44
0.0
176
     1
173
     0
176
     1
  0
VISUALSTYLE
  5
32
102
{ACAD_REACTORS
330
2A
102
}
330
2A
100
AcDbVisualStyle
  2
Basic
 70
     7
177
     2
291
     1
 71
     1
176
     1
 72
     0
176
     1
 73
     1
176
     1
 90
        0
176
     1
 40
-0.6
176
     1
 41
-30.0
176
     1
 62
     5
 63
     7
421
 16777215
176
     1
 74
     0
176
     1
 91
        4
176
     1
 64
     7
176
     1
 65
   257
176
     1
 75
     1
176
     1
175
     1
176
     1
 42
1.0
176
     1
 92
        8
176
     1
 66
     7
176
     1
 43
1.0
176
     1
 76
     1
176
     1
 77
     6
176
     1
 78
     2
176
     1
 67
     7
176
     1
 79
     5
176
     1
170
     0
176
     1
171
     0
176
     1
290
     0
176
     1
 93
        1
176
     1
 44
0.0
176
     1
173
     0
176
     1
  0
VISUALSTYLE
  5
36
102
{ACAD_REACTORS
330
2A
102
}
330
2A
100
AcDbVisualStyle
  2
Brighten
 70
    12
177
     2
291
     1
 71
     2
176
     1
 72
     2
176
     1
 73
     0
176
     1
 90
        0
176
     1
 40
-0.6
176
     1
 41
-30.0
176
     1
 62
     5
 63
     7
421
 16777215
176
     1
 74
     1
176
     1
 91
        4
176
     1
 64
     7
176
     1
 65
   257
176
     1
 75
     1
176
     1
175
     1
176
     1
 42
1.0
176
     1
 92
        8
176
     1
 66
     7
176
     1
 43
1.0
176
     1
 76
     1
176
     1
 77
     6
176
     1
 78
     2
176
     1
 67
     7
176
     1
 79
     5
176
     1
170
     0
176
     1
171
     0
176
     1
290
     0
176
     1
 93
        1
176
     1
 44
50.0
176
     1
173
     0
176
     1
  0
VISUALSTYLE
  5
3A
102
{ACAD_REACTORS
330
2A
102
}
330
2A
100
AcDbVisualStyle
  2
ColorChange
 70
    16
177
     2
291
     1
 71
     2
176
     1
 72
     2
176
     1
 73
     3
176
     1
 90
        0
176
     1
 40
-0.6
176
     1
 41
-30.0
176
     1
 62
     5
 63
     8
421
  8421504
176
     1
 74
     1
176
     1
 91
        4
176
     1
 64
     7
176
     1
 65
   257
176
     1
 75
     1
176
     1
175
     1
176
     1
 42
1.0
176
     1
 92
        8
176
     1
 66
     8
424
  8421504
176
     1
 43
1.0
176
     1
 76
     1
176
     1
 77
     6
176
     1
 78
     2
176
     1
 67
     7
176
     1
 79
     5
176
     1
170
     0
176
     1
171
     0
176
     1
290
     0
176
     1
 93
        1
176
     1
 44
0.0
176
     1
173
     0
176
     1
  0
VISUALSTYLE
  5
34
102
{ACAD_REACTORS
330
2A
102
}
330
2A
100
AcDbVisualStyle
  2
Conceptual
 70
     9
177
     2
291
     0
 71
     3
176
     1
 72
     2
176
     1
 73
     0
176
     1
 90
        0
176
     1
 40
-0.6
176
     1
 41
-30.0
176
     1
 62
     5
 63
     7
421
 16777215
176
     1
 74
     2
176
     1
 91
        2
176
     1
 64
     7
176
     1
 65
   257
176
     1
 75
     1
176
     1
175
     1
176
     1
 42
40.0
176
     1
 92
        8
176
     1
 66
     7
176
     1
 43
1.0
176
     1
 76
     1
176
     1
 77
     6
176
     1
 78
     2
176
     1
 67
     7
176
     1
 79
     3
176
     1
170
     0
176
     1
171
     0
176
     1
290
     0
176
     1
 93
        1
176
     1
 44
0.0
176
     1
173
     0
176
     1
  0
VISUALSTYLE
  5
35
102
{ACAD_REACTORS
330
2A
102
}
330
2A
100
AcDbVisualStyle
  2
Dim
 70
    11
177
     2
291
     1
 71
     2
176
     1
 72
     2
176
     1
 73
     0
176
     1
 90
        0
176
     1
 40
-0.6
176
     1
 41
-30.0
176
     1
 62
     5
 63
     7
421
 16777215
176
     1
 74
     1
176
     1
 91
        4
176
     1
 64
     7
176
     1
 65
   257
176
     1
 75
     1
176
     1
175
     1
176
     1
 42
1.0
176
     1
 92
        8
176
     1
 66
     7
176
     1
 43
1.0
176
     1
 76
     1
176
     1
 77
     6
176
     1
 78
     2
176
     1
 67
     7
176
     1
 79
     5
176
     1
170
     0
176
     1
171
     0
176
     1
290
     0
176
     1
 93
        1
176
     1
 44
-50.0
176
     1
173
     0
176
     1
  0
VISUALSTYLE
  5
39
102
{ACAD_REACTORS
330
2A
102
}
330
2A
100
AcDbVisualStyle
  2
Facepattern
 70
    15
177
     2
291
     1
 71
     2
176
     1
 72
     2
176
     1
 73
     0
176
     1
 90
        0
176
     1
 40
-0.6
176
     1
 41
-30.0
176
     1
 62
     5
 63
     7
421
 16777215
176
     1
 74
     1
176
     1
 91
        4
176
     1
 64
     7
176
     1
 65
   257
176
     1
 75
     1
176
     1
175
     1
176
     1
 42
1.0
176
     1
 92
        8
176
     1
 66
     7
176
     1
 43
1.0
176
     1
 76
     1
176
     1
 77
     6
176
     1
 78
     2
176
     1
 67
     7
176
     1
 79
     5
176
     1
170
     0
176
     1
171
     0
176
     1
290
     0
176
     1
 93
        1
176
     1
 44
0.0
176
     1
173
     0
176
     1
  0
VISUALSTYLE
  5
2B
102
{ACAD_REACTORS
330
2A
102
}
330
2A
100
AcDbVisualStyle
  2
Flat
 70
     0
177
     2
291
     1
 71
     2
176
     1
 72
     1
176
     1
 73
     1
176
     1
 90
        2
176
     1
 40
-0.6
176
     1
 41
30.0
176
     1
 62
     5
 63
     7
421
 16777215
176
     1
 74
     0
176
     1
 91
        4
176
     1
 64
     7
176
     1
 65
   257
176
     1
 75
     1
176
     1
175
     1
176
     1
 42
1.0
176
     1
 92
        8
176
     1
 66
     7
176
     1
 43
1.0
176
     1
 76
     1
176
     1
 77
     6
176
     1
 78
     2
176
     1
 67
     7
176
     1
 79
     5
176
     1
170
     0
176
     1
171
     0
176
     1
290
     0
176
     1
 93
       13
176
     1
 44
0.0
176
     1
173
     0
176
     1
  0
VISUALSTYLE
  5
2C
102
{ACAD_REACTORS
330
2A
102
}
330
2A
100
AcDbVisualStyle
  2
FlatWithEdges
 70
     1
177
     2
291
     1
 71
     2
176
     1
 72
     1
176
     1
 73
     1
176
     1
 90
        2
176
     1
 40
-0.6
176
     1
 41
30.0
176
     1
 62
     5
 63
     7
421
 16777215
176
     1
 74
     1
176
     1
 91
        4
176
     1
 64
     7
176
     1
 65
   257
176
     1
 75
     1
176
     1
175
     1
176
     1
 42
1.0
176
     1
 92
        0
176
     1
 66
   257
176
     1
 43
1.0
176
     1
 76
     1
176
     1
 77
     6
176
     1
 78
     2
176
     1
 67
     7
176
     1
 79
     5
176
     1
170
     0
176
     1
171
     0
176
     1
290
     0
176
     1
 93
       13
176
     1
 44
0.0
176
     1
173
     0
176
     1
  0
VISUALSTYLE
  5
2D
102
{ACAD_REACTORS
330
2A
102
}
330
2A
100
AcDbVisualStyle
  2
Gouraud
 70
     2
177
     2
291
     1
 71
     2
176
     1
 72
     2
176
     1
 73
     1
176
     1
 90
        2
176
     1
 40
-0.6
176
     1
 41
30.0
176
     1
 62
     5
 63
     7
421
 16777215
176
     1
 74
     0
176
     1
 91
        4
176
     1
 64
     7
176
     1
 65
   257
176
     1
 75
     1
176
     1
175
     1
176
     1
 42
1.0
176
     1
 92
        0
176
     1
 66
     7
176
     1
 43
1.0
176
     1
 76
     1
176
     1
 77
     6
176
     1
 78
     2
176
     1
 67
     7
176
     1
 79
     5
176
     1
170
     0
176
     1
171
     0
176
     1
290
     0
176
     1
 93
       13
176
     1
 44
0.0
176
     1
173
     0
176
     1
  0
VISUALSTYLE
  5
2E
102
{ACAD_REACTORS
330
2A
102
}
330
2A
100
AcDbVisualStyle
  2
GouraudWithEdges
 70
     3
177
     2
291
     1
 71
     2
176
     1
 72
     2
176
     1
 73
     1
176
     1
 90
        2
176
     1
 40
-0.6
176
     1
 41
30.0
176
     1
 62
     5
 63
     7
421
 16777215
176
     1
 74
     1
176
     1
 91
        4
176
     1
 64
     7
176
     1
 65
   257
176
     1
 75
     1
176
     1
175
     1
176
     1
 42
1.0
176
     1
 92
        0
176
     1
 66
   257
176
     1
 43
1.0
176
     1
 76
     1
176
     1
 77
     6
176
     1
 78
     2
176
     1
 67
     7
176
     1
 79
     5
176
     1
170
     0
176
     1
171
     0
176
     1
290
     0
176
     1
 93
       13
176
     1
 44
0.0
176
     1
173
     0
176
     1
  0
VISUALSTYLE
  5
38
102
{ACAD_REACTORS
330
2A
102
}
330
2A
100
AcDbVisualStyle
  2
Linepattern
 70
    14
177
     2
291
     1
 71
     2
176
     1
 72
     2
176
     1
 73
     0
176
     1
 90
        0
176
     1
 40
-0.6
176
     1
 41
-30.0
176
     1
 62
     5
 63
     7
421
 16777215
176
     1
 74
     1
176
     1
 91
        4
176
     1
 64
     7
176
     1
 65
   257
176
     1
 75
     7
176
     1
175
     7
176
     1
 42
1.0
176
     1
 92
        8
176
     1
 66
     7
176
     1
 43
1.0
176
     1
 76
     1
176
     1
 77
     6
176
     1
 78
     2
176
     1
 67
     7
176
     1
 79
     5
176
     1
170
     0
176
     1
171
     0
176
     1
290
     0
176
     1
 93
        1
176
     1
 44
0.0
176
     1
173
     0
176
     1
  0
VISUALSTYLE
  5
33
102
{ACAD_REACTORS
330
2A
102
}
330
2A
100
AcDbVisualStyle
  2
Realistic
 70
     8
177
     2
291
     0
 71
     2
176
     1
 72
     2
176
     1
 73
     0
176
     1
 90
        0
176
     1
 40
-0.6
176
     1
 41
-30.0
176
     1
 62
     5
 63
     7
421
 16777215
176
     1
 74
     1
176
     1
 91
        0
176
     1
 64
     7
176
     1
 65
   257
176
     1
 75
     1
176
     1
175
     1
176
     1
 42
1.0
176
     1
 92
        8
176
     1
 66
     8
424
  7895160
176
     1
 43
1.0
176
     1
 76
     1
176
     1
 77
     6
176
     1
 78
     2
176
     1
 67
     7
176
     1
 79
     5
176
     1
170
     0
176
     1
171
     0
176
     1
290
     0
176
     1
 93
       13
176
     1
 44
0.0
176
     1
173
     0
176
     1
  0
VISUALSTYLE
  5
37
102
{ACAD_REACTORS
330
2A
102
}
330
2A
100
AcDbVisualStyle
  2
Thicken
 70
    13
177
     2
291
     1
 71
     2
176
     1
 72
     2
176
     1
 73
     0
176
     1
 90
        0
176
     1
 40
-0.6
176
     1
 41
-30.0
176
     1
 62
     5
 63
     7
421
 16777215
176
     1
 74
     1
176
     1
 91
        4
176
     1
 64
     7
176
     1
 65
   257
176
     1
 75
     1
176
     1
175
     1
176
     1
 42
1.0
176
     1
 92
       12
176
     1
 66
     7
176
     1
 43
1.0
176
     1
 76
     1
176
     1
 77
     6
176
     1
 78
     2
176
     1
 67
     7
176
     1
 79
     5
176
     1
170
     0
176
     1
171
     0
176
     1
290
     0
176
     1
 93
        1
176
     1
 44
0.0
176
     1
173
     0
176
     1
  0
ENDSEC
  0
EOF
