0
SECTION
2
HEADER
9
$INSUNITS
70
4
9
$ACADVER
1
AC1014
9
$HANDSEED
5
FFFF
0
ENDSEC
0
SECTION
2
TABLES
0
TABLE
2
VPORT
5
8
100
AcDbSymbolTable
0
ENDTAB
0
TABLE
2
LTYPE
5
5
100
AcDbSymbolTable
0
LTYPE
5
14
100
AcDbSymbolTableRecord
100
AcDbLinetypeTableRecord
2
BYBLOCK
70
0
0
LTYPE
5
15
100
AcDbSymbolTableRecord
100
AcDbLinetypeTableRecord
2
BYLAYER
70
0
0
ENDTAB
0
TABLE
2
LAYER
5
2
100
AcDbSymbolTable
70
2
0
LAYER
5
50
100
AcDbSymbolTableRecord
100
AcDbLayerTableRecord
2
0
70
0
6
CONTINUOUS
0
ENDTAB
0
TABLE
2
STYLE
5
3
100
AcDbSymbolTable
70
1
0
STYLE
5
11
100
AcDbSymbolTableRecord
100
AcDbTextStyleTableRecord
2
STANDARD
70
0
0
ENDTAB
0
TABLE
2
VIEW
5
6
100
AcDbSymbolTable
70
0
0
ENDTAB
0
TABLE
2
UCS
5
7
100
AcDbSymbolTable
70
0
0
ENDTAB
0
TABLE
2
APPID
5
9
100
AcDbSymbolTable
70
2
0
APPID
5
12
100
AcDbSymbolTableRecord
100
AcDbRegAppTableRecord
2
ACAD
70
0
0
ENDTAB
0
TABLE
2
DIMSTYLE
5
A
100
AcDbSymbolTable
70
1
0
ENDTAB
0
TABLE
2
BLOCK_RECORD
5
1
100
AcDbSymbolTable
70
1
0
BLOCK_RECORD
5
1F
100
AcDbSymbolTableRecord
100
AcDbBlockTableRecord
2
*MODEL_SPACE
0
BLOCK_RECORD
5
1B
100
AcDbSymbolTableRecord
100
AcDbBlockTableRecord
2
*PAPER_SPACE
0
ENDTAB
0
ENDSEC
0
SECTION
2
BLOCKS
0
BLOCK
5
20
100
AcDbEntity
100
AcDbBlockBegin
2
*MODEL_SPACE
0
ENDBLK
5
21
100
AcDbEntity
100
AcDbBlockEnd
0
BLOCK
5
1C
100
AcDbEntity
100
AcDbBlockBegin
2
*PAPER_SPACE
0
ENDBLK
5
1D
100
AcDbEntity
100
AcDbBlockEnd
0
ENDSEC
0
SECTION
2
ENTITIES
0
LWPOLYLINE
5
100
100
AcDbEntity
8
0
100
AcDbPolyline
90
12
70
1
43
0.0
10
-98.46359774718286
20
-16.626413393908948
42
-0.99999999999999989
10
-98.463597747182931
20
23.373586606091052
42
0.37652482985917518
10
-88.548457808684859
20
32.073586606091069
10
-96.963597747182945
20
32.073586606091055
10
-96.963597747182959
20
34.673586606091057
10
-88.548457808684859
20
34.673586606091071
42
0.37652482985917518
10
-98.463597747182959
20
43.373586606091052
42
0.99999999999999989
10
-98.463597747182817
20
-36.626413393908948
42
0.37652482985917518
10
-88.548457808684745
20
-27.926413393908931
10
-96.963597747182831
20
-27.926413393908941
10
-96.963597747182831
20
-25.326413393908943
10
-88.548457808684745
20
-25.326413393908929
42
0.37652482985917518
0
LWPOLYLINE
5
101
100
AcDbEntity
8
0
100
AcDbPolyline
90
4
70
1
43
0.0
10
-97.447218273597144
20
4.3113071512710333
10
-97.447218273597144
20
1.7113071512710354
10
-94.84721827359715
20
1.7113071512710354
10
-94.84721827359715
20
4.3113071512710333
0
LWPOLYLINE
5
102
100
AcDbEntity
8
0
100
AcDbPolyline
90
4
70
1
43
0.0
10
-94.847218273597122
20
-55.688692848729005
10
-97.447218273597116
20
-55.688692848729005
10
-97.447218273597116
20
-58.288692848729006
10
-94.847218273597122
20
-58.288692848729006
0
LWPOLYLINE
5
103
100
AcDbEntity
8
0
100
AcDbPolyline
90
4
70
1
43
0.0
10
-67.44721827359713
20
-25.68869284872898
10
-67.44721827359713
20
-28.288692848728978
10
-64.847218273597122
20
-28.288692848728978
10
-64.847218273597122
20
-25.68869284872898
0
LWPOLYLINE
5
104
100
AcDbEntity
8
0
100
AcDbPolyline
90
4
70
1
43
0.0
10
-96.147218273597133
20
-6.988692848728979
42
-0.99999999999999989
10
-96.147218273597133
20
-46.988692848728988
42
0.99999999999999989
10
-96.147218273597133
20
-66.988692848728988
42
0.99999999999999989
10
-96.147218273597147
20
13.011307151271016
42
0.99999999999999989
0
LWPOLYLINE
5
105
100
AcDbEntity
8
0
100
AcDbPolyline
90
16
70
1
43
0.0
10
-48.623359337259949
20
46.085459333488586
10
-54.60386009325746
20
40.104958577491097
10
-56.44233772434248
20
41.943436208576117
10
-50.461836968344976
20
47.923936964573613
42
0.37660397479258539
10
-76.847816816545546
20
47.923936964573613
10
-70.867316060548035
20
41.943436208576117
10
-72.705793691633076
20
40.104958577491089
10
-78.686294447630573
20
46.085459333488586
42
0.37660397479258528
10
-78.686294447630573
20
19.699479485288034
10
-72.705793691633062
20
25.679980241285531
10
-70.867316060548049
20
23.841502610200504
10
-76.847816816545546
20
17.861001854203014
42
0.37660397479258539
10
-50.461836968344997
20
17.861001854203
10
-56.442337724342487
20
23.841502610200507
10
-54.60386009325746
20
25.679980241285527
10
-48.623359337259956
20
19.69947948528803
42
0.37660397479258528
0
LWPOLYLINE
5
106
100
AcDbEntity
8
0
100
AcDbPolyline
90
4
70
1
43
0.0
10
-64.954826892445269
20
21.592469409388315
10
-62.354826892445267
20
21.592469409388315
10
-62.354826892445267
20
18.992469409388313
10
-64.954826892445269
20
18.992469409388313
0
LWPOLYLINE
5
107
100
AcDbEntity
8
0
100
AcDbPolyline
90
4
70
1
43
0.0
10
-74.954826892445269
20
34.192469409388309
10
-74.954826892445269
20
31.592469409388315
10
-77.554826892445263
20
31.592469409388315
10
-77.554826892445277
20
34.192469409388309
0
LWPOLYLINE
5
108
100
AcDbEntity
8
0
100
AcDbPolyline
90
4
70
1
43
0.0
10
-62.35482689244526
20
44.192469409388309
10
-64.954826892445269
20
44.192469409388309
10
-64.954826892445269
20
46.792469409388318
10
-62.354826892445267
20
46.79246940938831
0
LWPOLYLINE
5
109
100
AcDbEntity
8
0
100
AcDbPolyline
90
4
70
1
43
0.0
10
-52.354826892445267
20
31.592469409388315
10
-52.354826892445267
20
34.192469409388309
10
-49.754826892445259
20
34.192469409388309
10
-49.754826892445259
20
31.592469409388315
0
LWPOLYLINE
5
110
100
AcDbEntity
8
0
100
AcDbPolyline
90
4
70
1
43
0.0
10
-64.954826892445269
20
31.592469409388315
10
-64.954826892445269
20
34.192469409388309
10
-62.354826892445267
20
34.192469409388309
10
-62.35482689244526
20
31.592469409388315
0
LWPOLYLINE
5
111
100
AcDbEntity
8
0
100
AcDbPolyline
90
12
70
1
43
0.0
10
39.915139938498093
20
-1.2999999999999998
10
31.500000000000004
20
-1.2999999999999998
10
31.500000000000004
20
1.3000000000000003
10
39.915139938498093
20
1.3000000000000003
42
0.37652482985917518
10
30
20
10
10
-30
20
10
42
0.37652482985917518
10
-39.915139938498093
20
1.3000000000000003
10
-31.500000000000004
20
1.3000000000000003
10
-31.500000000000004
20
-1.2999999999999998
10
-39.915139938498093
20
-1.2999999999999998
42
0.37652482985917518
10
-30
20
-10
10
30
20
-10
42
0.37652482985917518
0
LWPOLYLINE
5
112
100
AcDbEntity
8
0
100
AcDbPolyline
90
12
70
1
43
0.0
10
-17.469810045431643
20
37.109452667002678
42
-0.41421356237309476
10
2.5301899545683448
20
57.109452667002657
42
0.3765248298591754
10
12.445329893066436
20
65.809452667002674
10
4.0301899545683426
20
65.809452667002674
10
4.0301899545683417
20
68.409452667002668
10
12.445329893066436
20
68.409452667002654
42
0.37652482985917535
10
2.5301899545683386
20
77.109452667002657
42
0.41421356237309481
10
-37.46981004543165
20
37.109452667002685
42
0.37652482985917529
10
-28.769810045431651
20
27.194312728504585
10
-28.769810045431647
20
35.609452667002387
10
-26.16981004543165
20
35.609452667002202
10
-26.169810045431653
20
27.194312728504585
42
0.37652482985917518
0
LWPOLYLINE
5
113
100
AcDbEntity
8
0
100
AcDbPolyline
90
4
70
1
43
0.0
10
-1.3000000000000731
20
34.983492222042393
10
1.299999999999927
20
34.983492222042386
10
1.2999999999999363
20
37.583492222042388
10
-1.3000000000000638
20
37.583492222042395
0
LWPOLYLINE
5
114
100
AcDbEntity
8
0
100
AcDbPolyline
90
4
70
1
43
0.0
10
31.30000000000004
20
67.583492222042281
10
28.700000000000042
20
67.583492222042295
10
28.700000000000031
20
64.983492222042287
10
31.300000000000029
20
64.983492222042287
0
LWPOLYLINE
5
115
100
AcDbEntity
8
0
100
AcDbPolyline
90
4
70
1
43
0.0
10
20.000000000000032
20
66.283492222042327
42
-0.41421356237309492
10
-3.3381714903987675e-14
20
46.283492222042391
42
0.99999999999999989
10
-9.8824098659006407e-14
20
26.283492222042391
42
0.41421356237309509
10
40.000000000000036
20
66.283492222042256
42
0.99999999999999989
0
LWPOLYLINE
5
116
100
AcDbEntity
8
0
100
AcDbPolyline
90
4
70
1
43
0.0
10
31.300000000000004
20
-36.722659363956808
10
31.300000000000004
20
-34.122659363956799
10
28.700000000000006
20
-34.122659363956799
10
28.700000000000006
20
-36.722659363956808
0
LWPOLYLINE
5
117
100
AcDbEntity
8
0
100
AcDbPolyline
90
4
70
1
43
0.0
10
-31.299999999999997
20
-34.122659363956799
10
-31.299999999999997
20
-36.722659363956801
10
-28.700000000000003
20
-36.722659363956801
10
-28.700000000000003
20
-34.122659363956799
0
LWPOLYLINE
5
118
100
AcDbEntity
8
0
100
AcDbPolyline
90
4
70
1
43
0.0
10
30
20
-45.422659363956797
10
-30
20
-45.422659363956797
42
-0.99999999999999989
10
-30
20
-25.4226593639568
10
30
20
-25.422659363956804
42
-0.99999999999999989
0
LWPOLYLINE
5
119
100
AcDbEntity
8
0
100
AcDbPolyline
90
4
70
1
43
0.0
10
-73.223213366527048
20
-91.087449352375955
10
-71.384735735442021
20
-92.925926983460982
10
-73.223213366527048
20
-94.764404614546009
10
-75.061690997612089
20
-92.925926983460982
0
LWPOLYLINE
5
120
100
AcDbEntity
8
0
100
AcDbPolyline
90
4
70
1
43
0.0
10
-64.31366792357656
20
-99.996994795326486
10
-62.47519029249154
20
-101.83547242641149
10
-64.31366792357656
20
-103.6739500574965
10
-66.152145554661587
20
-101.83547242641149
0
LWPOLYLINE
5
121
100
AcDbEntity
8
0
100
AcDbPolyline
90
4
70
1
43
0.0
10
-55.404122480626071
20
-108.90654023827696
10
-53.565644849541044
20
-110.74501786936199
10
-55.404122480626071
20
-112.58349550044701
10
-57.242600111711084
20
-110.74501786936199
0
LWPOLYLINE
5
122
100
AcDbEntity
8
0
100
AcDbPolyline
90
4
70
1
43
0.0
10
-46.494577037675562
20
-117.81608568122746
10
-44.656099406590535
20
-119.65456331231249
10
-46.494577037675562
20
-121.49304094339752
10
-48.333054668760589
20
-119.65456331231249
0
LWPOLYLINE
5
123
100
AcDbEntity
8
0
100
AcDbPolyline
90
4
70
1
43
0.0
10
-37.585031594725066
20
-126.72563112417798
10
-35.746553963640039
20
-128.56410875526302
10
-37.585031594725066
20
-130.40258638634805
10
-39.423509225810093
20
-128.56410875526299
0
LWPOLYLINE
5
124
100
AcDbEntity
8
0
100
AcDbPolyline
90
4
70
1
43
0.0
10
-27.375486151774556
20
-73.173654198213498
10
-27.375486151774556
20
-75.773654198213492
10
-29.975486151774557
20
-75.773654198213492
10
-29.975486151774554
20
-73.173654198213498
0
LWPOLYLINE
5
125
100
AcDbEntity
8
0
100
AcDbPolyline
90
4
70
1
43
0.0
10
-27.37548615177456
20
-85.773654198213478
10
-27.37548615177456
20
-88.373654198213501
10
-29.975486151774557
20
-88.373654198213501
10
-29.975486151774557
20
-85.773654198213492
0
LWPOLYLINE
5
126
100
AcDbEntity
8
0
100
AcDbPolyline
90
4
70
1
43
0.0
10
-27.37548615177456
20
-98.373654198213501
10
-27.37548615177456
20
-100.9736541982135
10
-29.975486151774561
20
-100.97365419821351
10
-29.975486151774561
20
-98.373654198213501
0
LWPOLYLINE
5
127
100
AcDbEntity
8
0
100
AcDbPolyline
90
4
70
1
43
0.0
10
-27.37548615177456
20
-110.97365419821351
10
-27.375486151774563
20
-113.5736541982135
10
-29.975486151774568
20
-113.57365419821349
10
-29.975486151774561
20
-110.9736541982135
0
LWPOLYLINE
5
128
100
AcDbEntity
8
0
100
AcDbPolyline
90
4
70
1
43
0.0
10
-27.375486151774567
20
-123.57365419821349
10
-27.375486151774567
20
-126.17365419821348
10
-29.975486151774568
20
-126.17365419821351
10
-29.975486151774568
20
-123.57365419821349
0
LWPOLYLINE
5
129
100
AcDbEntity
8
0
100
AcDbPolyline
90
4
70
1
43
0.0
10
17.710718694062969
20
-92.925926983461011
10
15.872241062977942
20
-94.764404614546038
10
14.033763431892909
20
-92.925926983461011
10
15.872241062977942
20
-91.08744935237597
0
LWPOLYLINE
5
130
100
AcDbEntity
8
0
100
AcDbPolyline
90
4
70
1
43
0.0
10
8.8011732511124592
20
-101.83547242641151
10
6.9626956200274348
20
-103.67395005749654
10
5.124217988942414
20
-101.83547242641151
10
6.9626956200274348
20
-99.996994795326486
0
LWPOLYLINE
5
131
100
AcDbEntity
8
0
100
AcDbPolyline
90
4
70
1
43
0.0
10
-0.10837219183803537
20
-110.74501786936199
10
-1.9468498229230602
20
-112.58349550044701
10
-3.7853274540080828
20
-110.74501786936199
10
-1.9468498229230624
20
-108.90654023827696
0
LWPOLYLINE
5
132
100
AcDbEntity
8
0
100
AcDbPolyline
90
4
70
1
43
0.0
10
-9.0179176347885388
20
-119.6545633123125
10
-10.856395265873564
20
-121.49304094339753
10
-12.694872896958591
20
-119.65456331231249
10
-10.856395265873564
20
-117.81608568122748
0
LWPOLYLINE
5
133
100
AcDbEntity
8
0
100
AcDbPolyline
90
4
70
1
43
0.0
10
-17.927463077739041
20
-128.56410875526302
10
-19.765940708824065
20
-130.40258638634805
10
-21.604418339909088
20
-128.56410875526302
10
-19.765940708824065
20
-126.72563112417798
0
LWPOLYLINE
5
134
100
AcDbEntity
8
0
100
AcDbPolyline
90
4
70
1
43
0.0
10
35.624513848225433
20
-138.77365419821351
10
33.024513848225432
20
-138.77365419821351
10
33.024513848225432
20
-136.17365419821351
10
35.624513848225433
20
-136.17365419821351
0
LWPOLYLINE
5
135
100
AcDbEntity
8
0
100
AcDbPolyline
90
4
70
1
43
0.0
10
23.024513848225432
20
-138.77365419821351
10
20.424513848225434
20
-138.77365419821351
10
20.424513848225434
20
-136.17365419821351
10
23.024513848225432
20
-136.17365419821351
0
LWPOLYLINE
5
136
100
AcDbEntity
8
0
100
AcDbPolyline
90
4
70
1
43
0.0
10
10.424513848225434
20
-138.77365419821351
10
7.8245138482254362
20
-138.77365419821351
10
7.8245138482254362
20
-136.17365419821351
10
10.424513848225434
20
-136.17365419821351
0
LWPOLYLINE
5
137
100
AcDbEntity
8
0
100
AcDbPolyline
90
4
70
1
43
0.0
10
-2.1754861517745683
20
-138.77365419821351
10
-4.7754861517745661
20
-138.77365419821351
10
-4.7754861517745661
20
-136.17365419821351
10
-2.1754861517745683
20
-136.17365419821351
0
LWPOLYLINE
5
138
100
AcDbEntity
8
0
100
AcDbPolyline
90
4
70
1
43
0.0
10
-14.775486151774571
20
-138.77365419821351
10
-17.375486151774567
20
-138.77365419821351
10
-17.375486151774567
20
-136.17365419821351
10
-14.775486151774569
20
-136.17365419821351
0
LWPOLYLINE
5
139
100
AcDbEntity
8
0
100
AcDbPolyline
90
4
70
1
43
0.0
10
15.872241062977919
20
-183.85985904405103
10
14.033763431892892
20
-182.02138141296601
10
15.872241062977919
20
-180.18290378188098
10
17.710718694062948
20
-182.02138141296601
0
LWPOLYLINE
5
140
100
AcDbEntity
8
0
100
AcDbPolyline
90
4
70
1
43
0.0
10
6.9626956200274259
20
-174.9503136011005
10
5.1242179889424051
20
-173.11183597001548
10
6.9626956200274233
20
-171.27335833893051
10
8.8011732511124485
20
-173.11183597001548
0
LWPOLYLINE
5
141
100
AcDbEntity
8
0
100
AcDbPolyline
90
4
70
1
43
0.0
10
-1.9468498229230713
20
-166.04076815815003
10
-3.7853274540080917
20
-164.202290527065
10
-1.9468498229230713
20
-162.36381289597998
10
-0.10837219183804869
20
-164.202290527065
0
LWPOLYLINE
5
142
100
AcDbEntity
8
0
100
AcDbPolyline
90
4
70
1
43
0.0
10
-10.856395265873573
20
-157.13122271519953
10
-12.694872896958596
20
-155.2927450841145
10
-10.856395265873569
20
-153.45426745302947
10
-9.0179176347885459
20
-155.2927450841145
0
LWPOLYLINE
5
143
100
AcDbEntity
8
0
100
AcDbPolyline
90
4
70
1
43
0.0
10
-19.765940708824068
20
-148.221677272249
10
-21.604418339909092
20
-146.38319964116397
10
-19.765940708824068
20
-144.54472201007894
10
-17.927463077739041
20
-146.383199641164
0
LWPOLYLINE
5
144
100
AcDbEntity
8
0
100
AcDbPolyline
90
4
70
1
43
0.0
10
-29.975486151774572
20
-201.77365419821348
10
-29.975486151774572
20
-199.17365419821351
10
-27.375486151774567
20
-199.17365419821351
10
-27.375486151774574
20
-201.77365419821348
0
LWPOLYLINE
5
145
100
AcDbEntity
8
0
100
AcDbPolyline
90
4
70
1
43
0.0
10
-29.975486151774572
20
-189.17365419821351
10
-29.975486151774572
20
-186.57365419821349
10
-27.375486151774567
20
-186.57365419821346
10
-27.375486151774574
20
-189.17365419821351
0
LWPOLYLINE
5
146
100
AcDbEntity
8
0
100
AcDbPolyline
90
4
70
1
43
0.0
10
-29.975486151774568
20
-176.57365419821349
10
-29.975486151774568
20
-173.97365419821347
10
-27.375486151774567
20
-173.97365419821347
10
-27.375486151774567
20
-176.57365419821349
0
LWPOLYLINE
5
147
100
AcDbEntity
8
0
100
AcDbPolyline
90
4
70
1
43
0.0
10
-29.975486151774568
20
-163.97365419821347
10
-29.975486151774568
20
-161.3736541982135
10
-27.375486151774567
20
-161.3736541982135
10
-27.375486151774567
20
-163.97365419821347
0
LWPOLYLINE
5
148
100
AcDbEntity
8
0
100
AcDbPolyline
90
4
70
1
43
0.0
10
-29.975486151774568
20
-151.3736541982135
10
-29.975486151774568
20
-148.77365419821351
10
-27.375486151774567
20
-148.77365419821348
10
-27.375486151774567
20
-151.3736541982135
0
LWPOLYLINE
5
149
100
AcDbEntity
8
0
100
AcDbPolyline
90
4
70
1
43
0.0
10
-75.061690997612089
20
-182.02138141296598
10
-73.223213366527062
20
-180.18290378188095
10
-71.384735735442035
20
-182.02138141296601
10
-73.223213366527062
20
-183.85985904405101
0
LWPOLYLINE
5
150
100
AcDbEntity
8
0
100
AcDbPolyline
90
4
70
1
43
0.0
10
-66.152145554661587
20
-173.11183597001548
10
-64.31366792357656
20
-171.27335833893045
10
-62.475190292491547
20
-173.11183597001548
10
-64.31366792357656
20
-174.9503136011005
0
LWPOLYLINE
5
151
100
AcDbEntity
8
0
100
AcDbPolyline
90
4
70
1
43
0.0
10
-57.242600111711099
20
-164.202290527065
10
-55.404122480626071
20
-162.36381289597998
10
-53.565644849541044
20
-164.202290527065
10
-55.404122480626071
20
-166.04076815815003
0
LWPOLYLINE
5
152
100
AcDbEntity
8
0
100
AcDbPolyline
90
4
70
1
43
0.0
10
-48.333054668760589
20
-155.2927450841145
10
-46.494577037675562
20
-153.45426745302947
10
-44.656099406590542
20
-155.2927450841145
10
-46.494577037675562
20
-157.13122271519953
0
LWPOLYLINE
5
153
100
AcDbEntity
8
0
100
AcDbPolyline
90
4
70
1
43
0.0
10
-39.423509225810093
20
-146.38319964116397
10
-37.585031594725066
20
-144.54472201007894
10
-35.746553963640039
20
-146.38319964116397
10
-37.585031594725066
20
-148.221677272249
0
LWPOLYLINE
5
154
100
AcDbEntity
8
0
100
AcDbPolyline
90
4
70
1
43
0.0
10
-92.975486151774561
20
-136.17365419821348
10
-90.375486151774567
20
-136.17365419821348
10
-90.375486151774567
20
-138.77365419821351
10
-92.975486151774561
20
-138.77365419821348
0
LWPOLYLINE
5
155
100
AcDbEntity
8
0
100
AcDbPolyline
90
4
70
1
43
0.0
10
-80.375486151774567
20
-136.17365419821348
10
-77.775486151774572
20
-136.17365419821348
10
-77.775486151774572
20
-138.77365419821351
10
-80.375486151774567
20
-138.77365419821348
0
LWPOLYLINE
5
156
100
AcDbEntity
8
0
100
AcDbPolyline
90
4
70
1
43
0.0
10
-67.775486151774572
20
-136.17365419821348
10
-65.175486151774578
20
-136.17365419821348
10
-65.175486151774578
20
-138.77365419821351
10
-67.775486151774572
20
-138.77365419821348
0
LWPOLYLINE
5
157
100
AcDbEntity
8
0
100
AcDbPolyline
90
4
70
1
43
0.0
10
-55.175486151774571
20
-136.17365419821348
10
-52.57548615177457
20
-136.17365419821348
10
-52.57548615177457
20
-138.77365419821351
10
-55.175486151774571
20
-138.77365419821348
0
LWPOLYLINE
5
158
100
AcDbEntity
8
0
100
AcDbPolyline
90
4
70
1
43
0.0
10
-42.575486151774562
20
-136.17365419821348
10
-39.975486151774568
20
-136.17365419821348
10
-39.975486151774568
20
-138.77365419821351
10
-42.57548615177457
20
-138.77365419821348
0
LWPOLYLINE
5
159
100
AcDbEntity
8
0
100
AcDbPolyline
90
4
70
1
43
0.0
10
-29.975486151774568
20
-136.17365419821348
10
-27.375486151774567
20
-136.17365419821348
10
-27.375486151774567
20
-138.77365419821351
10
-29.975486151774568
20
-138.77365419821348
0
CIRCLE
5
160
100
AcDbEntity
8
0
100
AcDbCircle
10
-28.675486151774567
20
-137.4736541982135
30
0
40
75
210
0
220
0
230
1
0
ENDSEC
0
SECTION
2
OBJECTS
0
DICTIONARY
5
C
100
AcDbDictionary
3
ACAD_GROUP
350
D
3
ACAD_MLINESTYLE
350
17
0
DICTIONARY
5
D
100
AcDbDictionary
0
DICTIONARY
5
1A
330
C
100
AcDbDictionary
0
DICTIONARY
5
17
100
AcDbDictionary
0
ENDSEC
0
EOF
