0
SECTION
2
HEADER
9
$INSUNITS
70
4
9
$ACADVER
1
AC1014
9
$HANDSEED
5
FFFF
0
ENDSEC
0
SECTION
2
TABLES
0
TABLE
2
VPORT
5
8
100
AcDbSymbolTable
0
ENDTAB
0
TABLE
2
LTYPE
5
5
100
AcDbSymbolTable
0
LTYPE
5
14
100
AcDbSymbolTableRecord
100
AcDbLinetypeTableRecord
2
BYBLOCK
70
0
0
LTYPE
5
15
100
AcDbSymbolTableRecord
100
AcDbLinetypeTableRecord
2
BYLAYER
70
0
0
ENDTAB
0
TABLE
2
LAYER
5
2
100
AcDbSymbolTable
70
2
0
LAYER
5
50
100
AcDbSymbolTableRecord
100
AcDbLayerTableRecord
2
0
70
0
6
CONTINUOUS
0
ENDTAB
0
TABLE
2
STYLE
5
3
100
AcDbSymbolTable
70
1
0
STYLE
5
11
100
AcDbSymbolTableRecord
100
AcDbTextStyleTableRecord
2
STANDARD
70
0
0
ENDTAB
0
TABLE
2
VIEW
5
6
100
AcDbSymbolTable
70
0
0
ENDTAB
0
TABLE
2
UCS
5
7
100
AcDbSymbolTable
70
0
0
ENDTAB
0
TABLE
2
APPID
5
9
100
AcDbSymbolTable
70
2
0
APPID
5
12
100
AcDbSymbolTableRecord
100
AcDbRegAppTableRecord
2
ACAD
70
0
0
ENDTAB
0
TABLE
2
DIMSTYLE
5
A
100
AcDbSymbolTable
70
1
0
ENDTAB
0
TABLE
2
BLOCK_RECORD
5
1
100
AcDbSymbolTable
70
1
0
BLOCK_RECORD
5
1F
100
AcDbSymbolTableRecord
100
AcDbBlockTableRecord
2
*MODEL_SPACE
0
BLOCK_RECORD
5
1B
100
AcDbSymbolTableRecord
100
AcDbBlockTableRecord
2
*PAPER_SPACE
0
ENDTAB
0
ENDSEC
0
SECTION
2
BLOCKS
0
BLOCK
5
20
100
AcDbEntity
100
AcDbBlockBegin
2
*MODEL_SPACE
0
ENDBLK
5
21
100
AcDbEntity
100
AcDbBlockEnd
0
BLOCK
5
1C
100
AcDbEntity
100
AcDbBlockBegin
2
*PAPER_SPACE
0
ENDBLK
5
1D
100
AcDbEntity
100
AcDbBlockEnd
0
ENDSEC
0
SECTION
2
ENTITIES
0
LINE
5
100
100
AcDbEntity
8
0
100
AcDbLine
10
149.46989076550489
20
-261.49999999999977
30
0
11
149.46989076550489
21
-256.49999999999977
31
0
0
LINE
5
101
100
AcDbEntity
8
0
100
AcDbLine
10
149.46989076550489
20
-256.49999999999977
30
0
11
115.46989076550453
21
-256.49999999999977
31
0
0
LINE
5
102
100
AcDbEntity
8
0
100
AcDbLine
10
115.46989076550453
20
-256.49999999999977
30
0
11
115.46989076550453
21
-261.49999999999977
31
0
0
LINE
5
103
100
AcDbEntity
8
0
100
AcDbLine
10
115.46989076550453
20
-261.49999999999977
30
0
11
88.969890765504758
21
-261.49999999999977
31
0
0
LINE
5
104
100
AcDbEntity
8
0
100
AcDbLine
10
88.969890765504758
20
-261.49999999999977
30
0
11
88.969890765504758
21
-306.49999999999977
31
0
0
LINE
5
105
100
AcDbEntity
8
0
100
AcDbLine
10
88.969890765504758
20
-306.49999999999977
30
0
11
175.96989076550466
21
-306.49999999999977
31
0
0
LINE
5
106
100
AcDbEntity
8
0
100
AcDbLine
10
175.96989076550466
20
-261.49999999999977
30
0
11
149.46989076550489
21
-261.49999999999977
31
0
0
LINE
5
107
100
AcDbEntity
8
0
100
AcDbLine
10
175.96989076550466
20
-306.49999999999977
30
0
11
175.96989076550466
21
-261.49999999999977
31
0
0
LINE
5
108
100
AcDbEntity
8
0
100
AcDbLine
10
177.96989076550474
20
-204.49999999999989
30
0
11
146.46989076550477
21
-204.49999999999989
31
0
0
LINE
5
109
100
AcDbEntity
8
0
100
AcDbLine
10
146.46989076550477
20
-204.49999999999989
30
0
11
146.46989076550477
21
-199.49999999999989
31
0
0
LINE
5
110
100
AcDbEntity
8
0
100
AcDbLine
10
146.46989076550477
20
-199.49999999999989
30
0
11
112.4698907655047
21
-199.49999999999989
31
0
0
LINE
5
111
100
AcDbEntity
8
0
100
AcDbLine
10
112.4698907655047
20
-199.49999999999989
30
0
11
112.4698907655047
21
-204.49999999999989
31
0
0
LINE
5
112
100
AcDbEntity
8
0
100
AcDbLine
10
112.4698907655047
20
-204.49999999999989
30
0
11
80.969890765504715
21
-204.49999999999989
31
0
0
LINE
5
113
100
AcDbEntity
8
0
100
AcDbLine
10
80.969890765504715
20
-204.49999999999989
30
0
11
80.969890765504715
21
-249.49999999999989
31
0
0
LINE
5
114
100
AcDbEntity
8
0
100
AcDbLine
10
177.96989076550474
20
-249.49999999999989
30
0
11
177.96989076550474
21
-204.49999999999989
31
0
0
LINE
5
115
100
AcDbEntity
8
0
100
AcDbLine
10
80.969890765504715
20
-249.49999999999989
30
0
11
177.96989076550474
21
-249.49999999999989
31
0
0
LINE
5
116
100
AcDbEntity
8
0
100
AcDbLine
10
175.96989076550466
20
-318.49999999999966
30
0
11
149.46989076550489
21
-318.49999999999966
31
0
0
LINE
5
117
100
AcDbEntity
8
0
100
AcDbLine
10
149.46989076550489
20
-318.49999999999966
30
0
11
149.46989076550489
21
-313.49999999999966
31
0
0
LINE
5
118
100
AcDbEntity
8
0
100
AcDbLine
10
149.46989076550489
20
-313.49999999999966
30
0
11
115.46989076550453
21
-313.49999999999966
31
0
0
LINE
5
119
100
AcDbEntity
8
0
100
AcDbLine
10
115.46989076550453
20
-313.49999999999966
30
0
11
115.46989076550453
21
-318.49999999999966
31
0
0
LINE
5
120
100
AcDbEntity
8
0
100
AcDbLine
10
115.46989076550453
20
-318.49999999999966
30
0
11
88.969890765504758
21
-318.49999999999966
31
0
0
LINE
5
121
100
AcDbEntity
8
0
100
AcDbLine
10
88.969890765504758
20
-318.49999999999966
30
0
11
88.969890765505042
21
-363.49999999999966
31
0
0
LINE
5
122
100
AcDbEntity
8
0
100
AcDbLine
10
175.96989076550494
20
-363.49999999999966
30
0
11
175.96989076550466
21
-318.49999999999966
31
0
0
LINE
5
123
100
AcDbEntity
8
0
100
AcDbLine
10
88.969890765505042
20
-363.49999999999966
30
0
11
175.96989076550494
21
-363.49999999999966
31
0
0
LINE
5
124
100
AcDbEntity
8
0
100
AcDbLine
10
10.969890765504644
20
-153.49999999999994
30
0
11
-20.530109234495271
21
-153.49999999999994
31
0
0
LINE
5
125
100
AcDbEntity
8
0
100
AcDbLine
10
-20.530109234495271
20
-153.49999999999994
30
0
11
-20.530109234495271
21
-148.49999999999994
31
0
0
LINE
5
126
100
AcDbEntity
8
0
100
AcDbLine
10
-20.530109234495271
20
-148.49999999999994
30
0
11
-54.530109234495256
21
-148.49999999999994
31
0
0
LINE
5
127
100
AcDbEntity
8
0
100
AcDbLine
10
-54.530109234495256
20
-148.49999999999994
30
0
11
-54.530109234495256
21
-153.49999999999994
31
0
0
LINE
5
128
100
AcDbEntity
8
0
100
AcDbLine
10
-54.530109234495256
20
-153.49999999999994
30
0
11
-86.030109234495313
21
-153.49999999999994
31
0
0
LINE
5
129
100
AcDbEntity
8
0
100
AcDbLine
10
-86.030109234495313
20
-153.49999999999994
30
0
11
-86.030109234495313
21
-198.49999999999994
31
0
0
LINE
5
130
100
AcDbEntity
8
0
100
AcDbLine
10
10.969890765504644
20
-198.49999999999994
30
0
11
10.969890765504644
21
-153.49999999999994
31
0
0
LINE
5
131
100
AcDbEntity
8
0
100
AcDbLine
10
-86.030109234495313
20
-198.49999999999994
30
0
11
10.969890765504644
21
-198.49999999999994
31
0
0
LINE
5
132
100
AcDbEntity
8
0
100
AcDbLine
10
343.71105317304449
20
-40.985769312757157
30
0
11
328.71105317304449
21
-40.985769312757157
31
0
0
LINE
5
133
100
AcDbEntity
8
0
100
AcDbLine
10
343.71105317304449
20
-40.985769312757157
30
0
11
343.71105317304449
21
19.014230687242843
31
0
0
LINE
5
134
100
AcDbEntity
8
0
100
AcDbLine
10
343.71105317304449
20
19.014230687242843
30
0
11
378.71105317304449
21
19.014230687242847
31
0
0
LINE
5
135
100
AcDbEntity
8
0
100
AcDbLine
10
378.71105317304449
20
19.014230687242843
30
0
11
378.71105317304449
21
-40.985769312757164
31
0
0
LINE
5
136
100
AcDbEntity
8
0
100
AcDbLine
10
378.71105317304449
20
-40.985769312757157
30
0
11
393.71105317304449
21
-40.985769312757157
31
0
0
LINE
5
137
100
AcDbEntity
8
0
100
AcDbLine
10
393.71105317304449
20
-40.985769312757157
30
0
11
393.71105317304449
21
-60.985769312757142
31
0
0
LINE
5
138
100
AcDbEntity
8
0
100
AcDbLine
10
328.71105317304449
20
-60.985769312757157
30
0
11
328.71105317304449
21
-40.985769312757157
31
0
0
LINE
5
139
100
AcDbEntity
8
0
100
AcDbLine
10
393.71105317304449
20
-60.985769312757157
30
0
11
328.71105317304449
21
-60.985769312757171
31
0
0
LINE
5
140
100
AcDbEntity
8
0
100
AcDbLine
10
463.71105317304449
20
-40.985769312757157
30
0
11
463.71105317304449
21
-60.985769312757149
31
0
0
LINE
5
141
100
AcDbEntity
8
0
100
AcDbLine
10
463.71105317304449
20
-60.985769312757157
30
0
11
398.71105317304449
21
-60.985769312757157
31
0
0
LINE
5
142
100
AcDbEntity
8
0
100
AcDbLine
10
398.71105317304449
20
-60.985769312757157
30
0
11
398.71105317304449
21
-40.985769312757171
31
0
0
LINE
5
143
100
AcDbEntity
8
0
100
AcDbLine
10
413.71105317304449
20
-40.985769312757157
30
0
11
398.71105317304449
21
-40.985769312757157
31
0
0
LINE
5
144
100
AcDbEntity
8
0
100
AcDbLine
10
413.71105317304449
20
-40.985769312757157
30
0
11
413.71105317304449
21
19.014230687242843
31
0
0
LINE
5
145
100
AcDbEntity
8
0
100
AcDbLine
10
413.71105317304449
20
19.014230687242843
30
0
11
448.71105317304449
21
19.014230687242847
31
0
0
LINE
5
146
100
AcDbEntity
8
0
100
AcDbLine
10
448.71105317304449
20
-40.985769312757157
30
0
11
463.71105317304449
21
-40.985769312757157
31
0
0
LINE
5
147
100
AcDbEntity
8
0
100
AcDbLine
10
448.71105317304449
20
19.014230687242843
30
0
11
448.71105317304449
21
-40.985769312757157
31
0
0
ENDSEC
0
SECTION
2
OBJECTS
0
DICTIONARY
5
C
100
AcDbDictionary
3
ACAD_GROUP
350
D
3
ACAD_MLINESTYLE
350
17
0
DICTIONARY
5
D
100
AcDbDictionary
0
DICTIONARY
5
1A
330
C
100
AcDbDictionary
0
DICTIONARY
5
17
100
AcDbDictionary
0
ENDSEC
0
EOF
