0
SECTION
2
HEADER
9
$INSUNITS
70
4
9
$ACADVER
1
AC1014
9
$HANDSEED
5
FFFF
0
ENDSEC
0
SECTION
2
TABLES
0
TABLE
2
VPORT
5
8
100
AcDbSymbolTable
0
ENDTAB
0
TABLE
2
LTYPE
5
5
100
AcDbSymbolTable
0
LTYPE
5
14
100
AcDbSymbolTableRecord
100
AcDbLinetypeTableRecord
2
BYBLOCK
70
0
0
LTYPE
5
15
100
AcDbSymbolTableRecord
100
AcDbLinetypeTableRecord
2
BYLAYER
70
0
0
ENDTAB
0
TABLE
2
LAYER
5
2
100
AcDbSymbolTable
70
2
0
LAYER
5
50
100
AcDbSymbolTableRecord
100
AcDbLayerTableRecord
2
0
70
0
6
CONTINUOUS
0
ENDTAB
0
TABLE
2
STYLE
5
3
100
AcDbSymbolTable
70
1
0
STYLE
5
11
100
AcDbSymbolTableRecord
100
AcDbTextStyleTableRecord
2
STANDARD
70
0
0
ENDTAB
0
TABLE
2
VIEW
5
6
100
AcDbSymbolTable
70
0
0
ENDTAB
0
TABLE
2
UCS
5
7
100
AcDbSymbolTable
70
0
0
ENDTAB
0
TABLE
2
APPID
5
9
100
AcDbSymbolTable
70
2
0
APPID
5
12
100
AcDbSymbolTableRecord
100
AcDbRegAppTableRecord
2
ACAD
70
0
0
ENDTAB
0
TABLE
2
DIMSTYLE
5
A
100
AcDbSymbolTable
70
1
0
ENDTAB
0
TABLE
2
BLOCK_RECORD
5
1
100
AcDbSymbolTable
70
1
0
BLOCK_RECORD
5
1F
100
AcDbSymbolTableRecord
100
AcDbBlockTableRecord
2
*MODEL_SPACE
0
BLOCK_RECORD
5
1B
100
AcDbSymbolTableRecord
100
AcDbBlockTableRecord
2
*PAPER_SPACE
0
ENDTAB
0
ENDSEC
0
SECTION
2
BLOCKS
0
BLOCK
5
20
100
AcDbEntity
100
AcDbBlockBegin
2
*MODEL_SPACE
0
ENDBLK
5
21
100
AcDbEntity
100
AcDbBlockEnd
0
BLOCK
5
1C
100
AcDbEntity
100
AcDbBlockBegin
2
*PAPER_SPACE
0
ENDBLK
5
1D
100
AcDbEntity
100
AcDbBlockEnd
0
ENDSEC
0
SECTION
2
ENTITIES
0
LINE
5
100
100
AcDbEntity
8
0
100
AcDbLine
10
93.479588993686704
20
-200.78264636484931
30
0
11
93.479588993686718
21
-75.000000000000071
31
0
0
LINE
5
101
100
AcDbEntity
8
0
100
AcDbLine
10
185
20
-75
30
0
11
185
21
75
31
0
0
LINE
5
102
100
AcDbEntity
8
0
100
AcDbLine
10
258.57207851933561
20
-200.78264636484931
30
0
11
93.479588993686775
21
-200.78264636484931
31
0
0
LINE
5
103
100
AcDbEntity
8
0
100
AcDbLine
10
180.46989076550474
20
-183.49999999999966
30
0
11
214.46989076550472
21
-183.49999999999966
31
0
0
LINE
5
104
100
AcDbEntity
8
0
100
AcDbLine
10
214.46989076550472
20
-183.49999999999966
30
0
11
214.46989076550472
21
-178.49999999999966
31
0
0
LINE
5
105
100
AcDbEntity
8
0
100
AcDbLine
10
180.46989076550474
20
-178.49999999999966
30
0
11
180.46989076550474
21
-183.49999999999966
31
0
0
LINE
5
106
100
AcDbEntity
8
0
100
AcDbLine
10
214.46989076550472
20
-178.49999999999966
30
0
11
180.46989076550474
21
-178.49999999999966
31
0
0
LINE
5
107
100
AcDbEntity
8
0
100
AcDbLine
10
240.96989076550472
20
-117.99999999999955
30
0
11
240.96989076550472
21
-151.99999999999989
31
0
0
LINE
5
108
100
AcDbEntity
8
0
100
AcDbLine
10
240.96989076550472
20
-151.99999999999989
30
0
11
245.96989076550472
21
-151.99999999999989
31
0
0
LINE
5
109
100
AcDbEntity
8
0
100
AcDbLine
10
245.96989076550472
20
-117.99999999999955
30
0
11
240.96989076550472
21
-117.99999999999955
31
0
0
LINE
5
110
100
AcDbEntity
8
0
100
AcDbLine
10
245.96989076550472
20
-151.99999999999989
30
0
11
245.96989076550472
21
-117.99999999999955
31
0
0
LINE
5
111
100
AcDbEntity
8
0
100
AcDbLine
10
148.96989076550469
20
-117.99999999999955
30
0
11
148.96989076550469
21
-151.99999999999989
31
0
0
LINE
5
112
100
AcDbEntity
8
0
100
AcDbLine
10
148.96989076550469
20
-151.99999999999989
30
0
11
153.96989076550469
21
-151.99999999999989
31
0
0
LINE
5
113
100
AcDbEntity
8
0
100
AcDbLine
10
153.96989076550469
20
-117.99999999999955
30
0
11
148.96989076550469
21
-117.99999999999955
31
0
0
LINE
5
114
100
AcDbEntity
8
0
100
AcDbLine
10
153.96989076550469
20
-151.99999999999989
30
0
11
153.96989076550469
21
-117.99999999999955
31
0
0
LINE
5
115
100
AcDbEntity
8
0
100
AcDbLine
10
214.46989076550472
20
-86.499999999999773
30
0
11
180.46989076550466
21
-86.499999999999773
31
0
0
LINE
5
116
100
AcDbEntity
8
0
100
AcDbLine
10
180.46989076550466
20
-86.499999999999773
30
0
11
180.46989076550466
21
-91.499999999999773
31
0
0
LINE
5
117
100
AcDbEntity
8
0
100
AcDbLine
10
214.46989076550472
20
-91.499999999999773
30
0
11
214.46989076550472
21
-86.499999999999773
31
0
0
LINE
5
118
100
AcDbEntity
8
0
100
AcDbLine
10
180.46989076550466
20
-91.499999999999773
30
0
11
214.46989076550472
21
-91.499999999999773
31
0
0
LINE
5
119
100
AcDbEntity
8
0
100
AcDbLine
10
238.48015948325511
20
39.000000000000057
30
0
11
203.48015948325511
21
39.000000000000057
31
0
0
LINE
5
120
100
AcDbEntity
8
0
100
AcDbLine
10
203.48015948325511
20
39.000000000000057
30
0
11
203.48015948325511
21
34.000000000000057
31
0
0
LINE
5
121
100
AcDbEntity
8
0
100
AcDbLine
10
238.48015948325511
20
34.000000000000057
30
0
11
238.48015948325511
21
39.000000000000057
31
0
0
LINE
5
122
100
AcDbEntity
8
0
100
AcDbLine
10
203.48015948325511
20
34.000000000000057
30
0
11
238.48015948325511
21
34.000000000000057
31
0
0
LINE
5
123
100
AcDbEntity
8
0
100
AcDbLine
10
203.48015948325511
20
-38.999999999999773
30
0
11
238.48015948325511
21
-38.999999999999773
31
0
0
LINE
5
124
100
AcDbEntity
8
0
100
AcDbLine
10
238.48015948325511
20
-38.999999999999773
30
0
11
238.48015948325511
21
-33.999999999999773
31
0
0
LINE
5
125
100
AcDbEntity
8
0
100
AcDbLine
10
203.48015948325511
20
-33.999999999999773
30
0
11
203.48015948325511
21
-38.999999999999773
31
0
0
LINE
5
126
100
AcDbEntity
8
0
100
AcDbLine
10
238.48015948325511
20
-33.999999999999773
30
0
11
203.48015948325511
21
-33.999999999999773
31
0
0
LINE
5
127
100
AcDbEntity
8
0
100
AcDbLine
10
258.57207851933561
20
99.217353635150687
30
0
11
258.57207851933561
21
-200.78264636484931
31
0
0
LINE
5
128
100
AcDbEntity
8
0
100
AcDbLine
10
185
20
75
30
0
11
185
21
99.217353635150715
31
0
0
LINE
5
129
100
AcDbEntity
8
0
100
AcDbLine
10
185
20
99.217353635150687
30
0
11
258.57207851933549
21
99.217353635150701
31
0
0
LINE
5
130
100
AcDbEntity
8
0
100
AcDbLine
10
93.479588993686704
20
-75
30
0
11
185
21
-75
31
0
0
ENDSEC
0
SECTION
2
OBJECTS
0
DICTIONARY
5
C
100
AcDbDictionary
3
ACAD_GROUP
350
D
3
ACAD_MLINESTYLE
350
17
0
DICTIONARY
5
D
100
AcDbDictionary
0
DICTIONARY
5
1A
330
C
100
AcDbDictionary
0
DICTIONARY
5
17
100
AcDbDictionary
0
ENDSEC
0
EOF
