0
SECTION
2
HEADER
9
$INSUNITS
70
4
9
$ACADVER
1
AC1014
9
$HANDSEED
5
FFFF
0
ENDSEC
0
SECTION
2
TABLES
0
TABLE
2
VPORT
5
8
100
AcDbSymbolTable
0
ENDTAB
0
TABLE
2
LTYPE
5
5
100
AcDbSymbolTable
0
LTYPE
5
14
100
AcDbSymbolTableRecord
100
AcDbLinetypeTableRecord
2
BYBLOCK
70
0
0
LTYPE
5
15
100
AcDbSymbolTableRecord
100
AcDbLinetypeTableRecord
2
BYLAYER
70
0
0
ENDTAB
0
TABLE
2
LAYER
5
2
100
AcDbSymbolTable
70
2
0
LAYER
5
50
100
AcDbSymbolTableRecord
100
AcDbLayerTableRecord
2
0
70
0
6
CONTINUOUS
0
ENDTAB
0
TABLE
2
STYLE
5
3
100
AcDbSymbolTable
70
1
0
STYLE
5
11
100
AcDbSymbolTableRecord
100
AcDbTextStyleTableRecord
2
STANDARD
70
0
0
ENDTAB
0
TABLE
2
VIEW
5
6
100
AcDbSymbolTable
70
0
0
ENDTAB
0
TABLE
2
UCS
5
7
100
AcDbSymbolTable
70
0
0
ENDTAB
0
TABLE
2
APPID
5
9
100
AcDbSymbolTable
70
2
0
APPID
5
12
100
AcDbSymbolTableRecord
100
AcDbRegAppTableRecord
2
ACAD
70
0
0
ENDTAB
0
TABLE
2
DIMSTYLE
5
A
100
AcDbSymbolTable
70
1
0
ENDTAB
0
TABLE
2
BLOCK_RECORD
5
1
100
AcDbSymbolTable
70
1
0
BLOCK_RECORD
5
1F
100
AcDbSymbolTableRecord
100
AcDbBlockTableRecord
2
*MODEL_SPACE
0
BLOCK_RECORD
5
1B
100
AcDbSymbolTableRecord
100
AcDbBlockTableRecord
2
*PAPER_SPACE
0
ENDTAB
0
ENDSEC
0
SECTION
2
BLOCKS
0
BLOCK
5
20
100
AcDbEntity
100
AcDbBlockBegin
2
*MODEL_SPACE
0
ENDBLK
5
21
100
AcDbEntity
100
AcDbBlockEnd
0
BLOCK
5
1C
100
AcDbEntity
100
AcDbBlockBegin
2
*PAPER_SPACE
0
ENDBLK
5
1D
100
AcDbEntity
100
AcDbBlockEnd
0
ENDSEC
0
SECTION
2
ENTITIES
0
LINE
5
100
100
AcDbEntity
8
0
100
AcDbLine
10
-202.49736916757146
20
-46.979667466188175
30
-5
11
-202.49736916757146
21
128.02033253381182
31
-5
0
LINE
5
101
100
AcDbEntity
8
0
100
AcDbLine
10
-202.49736916757146
20
128.02033253381182
30
-5
11
-82.497369167571435
21
128.02033253381182
31
-5
0
LINE
5
102
100
AcDbEntity
8
0
100
AcDbLine
10
-82.497369167571435
20
128.02033253381182
30
-5
11
-82.497369167571506
21
-46.979667466188175
31
-5
0
LINE
5
103
100
AcDbEntity
8
0
100
AcDbLine
10
-82.497369167571506
20
-46.979667466188175
30
-5
11
-97.497369167571506
21
-46.979667466188175
31
-5
0
LINE
5
104
100
AcDbEntity
8
0
100
AcDbLine
10
-97.497369167571506
20
-46.979667466188175
30
-5
11
-97.497369167571506
21
-41.979667466188175
31
-5
0
LINE
5
105
100
AcDbEntity
8
0
100
AcDbLine
10
-97.497369167571506
20
-41.979667466188175
30
-5
11
-107.49736916757146
21
-41.979667466188175
31
-5
0
LINE
5
106
100
AcDbEntity
8
0
100
AcDbLine
10
-107.49736916757146
20
-41.979667466188175
30
-5
11
-107.49736916757146
21
-51.979667466188175
31
-5
0
LINE
5
107
100
AcDbEntity
8
0
100
AcDbLine
10
-107.49736916757146
20
-51.979667466188175
30
-5
11
-132.49736916757146
21
-51.979667466188175
31
-5
0
LINE
5
108
100
AcDbEntity
8
0
100
AcDbLine
10
-132.49736916757146
20
-51.979667466188175
30
-5
11
-132.49736916757146
21
-41.979667466188175
31
-5
0
LINE
5
109
100
AcDbEntity
8
0
100
AcDbLine
10
-132.49736916757146
20
-41.979667466188175
30
-5
11
-152.49736916757146
21
-41.979667466188175
31
-5
0
LINE
5
110
100
AcDbEntity
8
0
100
AcDbLine
10
-152.49736916757146
20
-41.979667466188175
30
-5
11
-152.49736916757146
21
-51.979667466188175
31
-5
0
LINE
5
111
100
AcDbEntity
8
0
100
AcDbLine
10
-152.49736916757146
20
-51.979667466188175
30
-5
11
-177.49736916757146
21
-51.979667466188175
31
-5
0
LINE
5
112
100
AcDbEntity
8
0
100
AcDbLine
10
-177.49736916757146
20
-51.979667466188175
30
-5
11
-177.49736916757146
21
-41.979667466188175
31
-5
0
LINE
5
113
100
AcDbEntity
8
0
100
AcDbLine
10
-177.49736916757146
20
-41.979667466188175
30
-5
11
-187.49736916757146
21
-41.979667466188175
31
-5
0
LINE
5
114
100
AcDbEntity
8
0
100
AcDbLine
10
-187.49736916757146
20
-41.979667466188175
30
-5
11
-187.49736916757146
21
-46.979667466188175
31
-5
0
LINE
5
115
100
AcDbEntity
8
0
100
AcDbLine
10
-187.49736916757146
20
-46.979667466188175
30
-5
11
-202.49736916757146
21
-46.979667466188175
31
-5
0
LINE
5
116
100
AcDbEntity
8
0
100
AcDbLine
10
-68.967259933076193
20
61.520332533811768
30
-85.000000000000284
11
-78.967259933076193
21
61.520332533811768
31
-85.000000000000284
0
LINE
5
117
100
AcDbEntity
8
0
100
AcDbLine
10
-78.967259933076193
20
61.520332533811768
30
-85.000000000000284
11
-78.967259933076193
21
126.52033253381177
31
-85.000000000000284
0
LINE
5
118
100
AcDbEntity
8
0
100
AcDbLine
10
-78.967259933076193
20
126.52033253381177
30
-85.000000000000284
11
6.0327400669238074
21
126.52033253381177
31
-85.000000000000284
0
LINE
5
119
100
AcDbEntity
8
0
100
AcDbLine
10
6.0327400669238074
20
126.52033253381177
30
-85.000000000000284
11
6.0327400669238074
21
61.520332533811768
31
-85.000000000000284
0
LINE
5
120
100
AcDbEntity
8
0
100
AcDbLine
10
6.0327400669238074
20
61.520332533811768
30
-85.000000000000284
11
-3.9672599330761926
21
61.520332533811768
31
-85.000000000000284
0
LINE
5
121
100
AcDbEntity
8
0
100
AcDbLine
10
-3.9672599330761926
20
61.520332533811768
30
-85.000000000000284
11
-3.9672599330761926
21
-28.479667466188232
31
-85.000000000000284
0
LINE
5
122
100
AcDbEntity
8
0
100
AcDbLine
10
-3.9672599330761926
20
-28.479667466188232
30
-85.000000000000284
11
-68.967259933076193
21
-28.479667466188232
31
-85.000000000000284
0
LINE
5
123
100
AcDbEntity
8
0
100
AcDbLine
10
-68.967259933076193
20
-28.479667466188232
30
-85.000000000000284
11
-68.967259933076193
21
61.520332533811768
31
-85.000000000000284
0
LWPOLYLINE
5
124
100
AcDbEntity
8
0
100
AcDbPolyline
90
8
70
1
43
0.0
10
-72.497369167571506
20
-83.979667466188062
10
-40.997369167571449
20
-83.979667466188062
10
-40.997369167571449
20
-88.979667466188062
10
-6.9973691675714633
20
-88.979667466188062
10
-6.9973691675714633
20
-83.979667466188062
10
24.502630832428451
20
-83.979667466188062
10
24.502630832428451
20
-38.979667466188062
10
-72.497369167571506
20
-38.979667466188062
0
LINE
5
125
100
AcDbEntity
8
0
100
AcDbLine
10
21.032740066923807
20
61.520332533811768
30
-85.000000000000284
11
11.032740066923807
21
61.520332533811768
31
-85.000000000000284
0
LINE
5
126
100
AcDbEntity
8
0
100
AcDbLine
10
11.032740066923807
20
61.520332533811768
30
-85.000000000000284
11
11.032740066923807
21
126.52033253381177
31
-85.000000000000284
0
LINE
5
127
100
AcDbEntity
8
0
100
AcDbLine
10
11.032740066923807
20
126.52033253381177
30
-85.000000000000284
11
96.032740066923807
21
126.52033253381177
31
-85.000000000000284
0
LINE
5
128
100
AcDbEntity
8
0
100
AcDbLine
10
96.032740066923807
20
126.52033253381177
30
-85.000000000000284
11
96.032740066923807
21
61.520332533811768
31
-85.000000000000284
0
LINE
5
129
100
AcDbEntity
8
0
100
AcDbLine
10
96.032740066923807
20
61.520332533811768
30
-85.000000000000284
11
86.032740066923807
21
61.520332533811768
31
-85.000000000000284
0
LINE
5
130
100
AcDbEntity
8
0
100
AcDbLine
10
86.032740066923807
20
61.520332533811768
30
-85.000000000000284
11
86.032740066923807
21
-28.479667466188232
31
-85.000000000000284
0
LINE
5
131
100
AcDbEntity
8
0
100
AcDbLine
10
86.032740066923807
20
-28.479667466188232
30
-85.000000000000284
11
21.032740066923807
21
-28.479667466188232
31
-85.000000000000284
0
LINE
5
132
100
AcDbEntity
8
0
100
AcDbLine
10
21.032740066923807
20
-28.479667466188232
30
-85.000000000000284
11
21.032740066923807
21
61.520332533811768
31
-85.000000000000284
0
LWPOLYLINE
5
133
100
AcDbEntity
8
0
100
AcDbPolyline
90
8
70
1
43
0.0
10
102.50263083242857
20
24.020332533811768
10
129.00263083242834
20
24.020332533811768
10
129.00263083242834
20
19.020332533811768
10
163.00263083242868
20
19.020332533811768
10
163.00263083242868
20
24.020332533811768
10
189.50263083242845
20
24.020332533811768
10
189.50263083242845
20
69.020332533811768
10
102.50263083242857
20
69.020332533811768
0
LWPOLYLINE
5
134
100
AcDbEntity
8
0
100
AcDbPolyline
90
8
70
1
43
0.0
10
160.00263083242857
20
-32.979667466188118
10
191.50263083242857
20
-32.979667466188118
10
191.50263083242857
20
12.020332533811882
10
94.502630832428522
20
12.020332533811882
10
94.502630832428522
20
-32.979667466188118
10
126.00263083242851
20
-32.979667466188118
10
126.00263083242851
20
-37.979667466188118
10
160.00263083242857
20
-37.979667466188118
0
LWPOLYLINE
5
135
100
AcDbEntity
8
0
100
AcDbPolyline
90
8
70
1
43
0.0
10
102.50263083242857
20
81.020332533811654
10
129.00263083242834
20
81.020332533811654
10
129.00263083242834
20
76.020332533811654
10
163.00263083242868
20
76.020332533811654
10
163.00263083242868
20
81.020332533811654
10
189.50263083242845
20
81.020332533811654
10
189.50263083242874
20
126.02033253381165
10
102.50263083242885
20
126.02033253381165
0
ENDSEC
0
SECTION
2
OBJECTS
0
DICTIONARY
5
C
100
AcDbDictionary
3
ACAD_GROUP
350
D
3
ACAD_MLINESTYLE
350
17
0
DICTIONARY
5
D
100
AcDbDictionary
0
DICTIONARY
5
1A
330
C
100
AcDbDictionary
0
DICTIONARY
5
17
100
AcDbDictionary
0
ENDSEC
0
EOF
