0
SECTION
2
HEADER
9
$INSUNITS
70
4
9
$ACADVER
1
AC1014
9
$HANDSEED
5
FFFF
0
ENDSEC
0
SECTION
2
TABLES
0
TABLE
2
VPORT
5
8
100
AcDbSymbolTable
0
ENDTAB
0
TABLE
2
LTYPE
5
5
100
AcDbSymbolTable
0
LTYPE
5
14
100
AcDbSymbolTableRecord
100
AcDbLinetypeTableRecord
2
BYBLOCK
70
0
0
LTYPE
5
15
100
AcDbSymbolTableRecord
100
AcDbLinetypeTableRecord
2
BYLAYER
70
0
0
ENDTAB
0
TABLE
2
LAYER
5
2
100
AcDbSymbolTable
70
2
0
LAYER
5
50
100
AcDbSymbolTableRecord
100
AcDbLayerTableRecord
2
0
70
0
6
CONTINUOUS
0
ENDTAB
0
TABLE
2
STYLE
5
3
100
AcDbSymbolTable
70
1
0
STYLE
5
11
100
AcDbSymbolTableRecord
100
AcDbTextStyleTableRecord
2
STANDARD
70
0
0
ENDTAB
0
TABLE
2
VIEW
5
6
100
AcDbSymbolTable
70
0
0
ENDTAB
0
TABLE
2
UCS
5
7
100
AcDbSymbolTable
70
0
0
ENDTAB
0
TABLE
2
APPID
5
9
100
AcDbSymbolTable
70
2
0
APPID
5
12
100
AcDbSymbolTableRecord
100
AcDbRegAppTableRecord
2
ACAD
70
0
0
ENDTAB
0
TABLE
2
DIMSTYLE
5
A
100
AcDbSymbolTable
70
1
0
ENDTAB
0
TABLE
2
BLOCK_RECORD
5
1
100
AcDbSymbolTable
70
1
0
BLOCK_RECORD
5
1F
100
AcDbSymbolTableRecord
100
AcDbBlockTableRecord
2
*MODEL_SPACE
0
BLOCK_RECORD
5
1B
100
AcDbSymbolTableRecord
100
AcDbBlockTableRecord
2
*PAPER_SPACE
0
ENDTAB
0
ENDSEC
0
SECTION
2
BLOCKS
0
BLOCK
5
20
100
AcDbEntity
100
AcDbBlockBegin
2
*MODEL_SPACE
0
ENDBLK
5
21
100
AcDbEntity
100
AcDbBlockEnd
0
BLOCK
5
1C
100
AcDbEntity
100
AcDbBlockBegin
2
*PAPER_SPACE
0
ENDBLK
5
1D
100
AcDbEntity
100
AcDbBlockEnd
0
ENDSEC
0
SECTION
2
ENTITIES
0
LINE
5
100
100
AcDbEntity
8
0
100
AcDbLine
10
164.65916130137265
20
129.50000000000003
30
0
11
-205.34083869862735
21
129.50000000000003
31
0
0
LINE
5
101
100
AcDbEntity
8
0
100
AcDbLine
10
-205.34083869862735
20
129.50000000000003
30
0
11
-205.34083869862735
21
-20.499999999999972
31
0
0
LINE
5
102
100
AcDbEntity
8
0
100
AcDbLine
10
164.65916130137265
20
-20.500000000000114
30
0
11
164.65916130137265
21
129.49999999999989
31
0
0
LINE
5
103
100
AcDbEntity
8
0
100
AcDbLine
10
-205.34083869862735
20
-20.500000000000114
30
0
11
164.65916130137265
21
-20.500000000000114
31
0
0
LINE
5
104
100
AcDbEntity
8
0
100
AcDbLine
10
-136.37094793312261
20
57.000000000000171
30
0
11
-161.37094793312261
21
57.000000000000171
31
0
0
LINE
5
105
100
AcDbEntity
8
0
100
AcDbLine
10
-161.37094793312261
20
57.000000000000171
30
0
11
-161.37094793312261
21
52.000000000000171
31
0
0
LINE
5
106
100
AcDbEntity
8
0
100
AcDbLine
10
-136.37094793312261
20
52.000000000000171
30
0
11
-136.37094793312261
21
57.000000000000171
31
0
0
LINE
5
107
100
AcDbEntity
8
0
100
AcDbLine
10
-161.37094793312261
20
52.000000000000171
30
0
11
-136.37094793312261
21
52.000000000000171
31
0
0
LINE
5
108
100
AcDbEntity
8
0
100
AcDbLine
10
-91.370947933122608
20
57.000000000000171
30
0
11
-116.37094793312261
21
57.000000000000171
31
0
0
LINE
5
109
100
AcDbEntity
8
0
100
AcDbLine
10
-116.37094793312261
20
57.000000000000171
30
0
11
-116.37094793312261
21
52.000000000000171
31
0
0
LINE
5
110
100
AcDbEntity
8
0
100
AcDbLine
10
-91.370947933122608
20
52.000000000000171
30
0
11
-91.370947933122608
21
57.000000000000171
31
0
0
LINE
5
111
100
AcDbEntity
8
0
100
AcDbLine
10
-116.37094793312261
20
52.000000000000171
30
0
11
-91.370947933122608
21
52.000000000000171
31
0
0
LINE
5
112
100
AcDbEntity
8
0
100
AcDbLine
10
-52.840838698627337
20
15.500000000000114
30
0
11
12.159161301372663
21
15.500000000000114
31
0
0
LINE
5
113
100
AcDbEntity
8
0
100
AcDbLine
10
12.159161301372663
20
15.500000000000114
30
0
11
12.159161301372654
21
20.500000000000114
31
0
0
LINE
5
114
100
AcDbEntity
8
0
100
AcDbLine
10
-52.840838698627337
20
20.500000000000114
30
0
11
-52.840838698627337
21
15.500000000000114
31
0
0
LINE
5
115
100
AcDbEntity
8
0
100
AcDbLine
10
12.159161301372663
20
20.500000000000114
30
0
11
-52.84083869862733
21
20.500000000000114
31
0
0
LINE
5
116
100
AcDbEntity
8
0
100
AcDbLine
10
12.159161301372663
20
88.499999999999943
30
0
11
-52.84083869862733
21
88.499999999999943
31
0
0
LINE
5
117
100
AcDbEntity
8
0
100
AcDbLine
10
-52.840838698627337
20
88.499999999999943
30
0
11
-52.840838698627337
21
93.499999999999943
31
0
0
LINE
5
118
100
AcDbEntity
8
0
100
AcDbLine
10
12.159161301372663
20
93.499999999999943
30
0
11
12.159161301372654
21
88.499999999999943
31
0
0
LINE
5
119
100
AcDbEntity
8
0
100
AcDbLine
10
-52.840838698627337
20
93.499999999999943
30
0
11
12.159161301372663
21
93.499999999999943
31
0
0
LINE
5
120
100
AcDbEntity
8
0
100
AcDbLine
10
53.62905206687735
20
37.5
30
0
11
53.62905206687735
21
71.5
31
0
0
LINE
5
121
100
AcDbEntity
8
0
100
AcDbLine
10
53.62905206687735
20
71.500000000000057
30
0
11
48.62905206687735
21
71.500000000000057
31
0
0
LINE
5
122
100
AcDbEntity
8
0
100
AcDbLine
10
48.62905206687735
20
37.5
30
0
11
53.62905206687735
21
37.5
31
0
0
LINE
5
123
100
AcDbEntity
8
0
100
AcDbLine
10
48.62905206687735
20
71.500000000000057
30
0
11
48.62905206687735
21
37.50000000000005
31
0
0
LINE
5
124
100
AcDbEntity
8
0
100
AcDbLine
10
114.12905206687739
20
10.999999999999943
30
0
11
80.129052066877392
21
10.999999999999943
31
0
0
LINE
5
125
100
AcDbEntity
8
0
100
AcDbLine
10
80.129052066877406
20
10.999999999999943
30
0
11
80.129052066877406
21
5.9999999999999432
31
0
0
LINE
5
126
100
AcDbEntity
8
0
100
AcDbLine
10
114.12905206687739
20
5.9999999999999432
30
0
11
114.12905206687739
21
10.999999999999943
31
0
0
LINE
5
127
100
AcDbEntity
8
0
100
AcDbLine
10
80.129052066877406
20
5.9999999999999432
30
0
11
114.12905206687741
21
5.9999999999999432
31
0
0
LINE
5
128
100
AcDbEntity
8
0
100
AcDbLine
10
140.62905206687736
20
37.5
30
0
11
140.62905206687736
21
71.5
31
0
0
LINE
5
129
100
AcDbEntity
8
0
100
AcDbLine
10
140.62905206687736
20
71.500000000000057
30
0
11
145.62905206687736
21
71.500000000000057
31
0
0
LINE
5
130
100
AcDbEntity
8
0
100
AcDbLine
10
145.62905206687736
20
37.5
30
0
11
140.62905206687736
21
37.5
31
0
0
LINE
5
131
100
AcDbEntity
8
0
100
AcDbLine
10
145.62905206687736
20
71.500000000000057
30
0
11
145.62905206687736
21
37.50000000000005
31
0
0
LINE
5
132
100
AcDbEntity
8
0
100
AcDbLine
10
114.12905206687739
20
97.999999999999972
30
0
11
80.129052066877364
21
97.999999999999972
31
0
0
LINE
5
133
100
AcDbEntity
8
0
100
AcDbLine
10
80.129052066877335
20
97.999999999999972
30
0
11
80.129052066877335
21
102.99999999999997
31
0
0
LINE
5
134
100
AcDbEntity
8
0
100
AcDbLine
10
114.12905206687739
20
102.99999999999997
30
0
11
114.12905206687739
21
97.999999999999972
31
0
0
LINE
5
135
100
AcDbEntity
8
0
100
AcDbLine
10
80.129052066877335
20
102.99999999999997
30
0
11
114.12905206687736
21
102.99999999999997
31
0
0
LINE
5
136
100
AcDbEntity
8
0
100
AcDbLine
10
-186.37094793312261
20
52.000000000000171
30
0
11
-171.37094793312261
21
52.000000000000171
31
0
0
LINE
5
137
100
AcDbEntity
8
0
100
AcDbLine
10
-171.37094793312261
20
52.000000000000171
30
0
11
-171.37094793312261
21
57.000000000000171
31
0
0
LINE
5
138
100
AcDbEntity
8
0
100
AcDbLine
10
-186.37094793312261
20
57.000000000000171
30
0
11
-186.37094793312261
21
52.000000000000171
31
0
0
LINE
5
139
100
AcDbEntity
8
0
100
AcDbLine
10
-171.37094793312261
20
57.000000000000171
30
0
11
-186.37094793312261
21
57.000000000000171
31
0
0
LINE
5
140
100
AcDbEntity
8
0
100
AcDbLine
10
-81.37094793312265
20
52.000000000000171
30
0
11
-66.37094793312265
21
52.000000000000171
31
0
0
LINE
5
141
100
AcDbEntity
8
0
100
AcDbLine
10
-66.37094793312265
20
52.000000000000171
30
0
11
-66.37094793312265
21
57.000000000000171
31
0
0
LINE
5
142
100
AcDbEntity
8
0
100
AcDbLine
10
-81.37094793312265
20
57.000000000000171
30
0
11
-81.37094793312265
21
52.000000000000171
31
0
0
LINE
5
143
100
AcDbEntity
8
0
100
AcDbLine
10
-66.37094793312265
20
57.000000000000171
30
0
11
-81.37094793312265
21
57.000000000000171
31
0
0
ENDSEC
0
SECTION
2
OBJECTS
0
DICTIONARY
5
C
100
AcDbDictionary
3
ACAD_GROUP
350
D
3
ACAD_MLINESTYLE
350
17
0
DICTIONARY
5
D
100
AcDbDictionary
0
DICTIONARY
5
1A
330
C
100
AcDbDictionary
0
DICTIONARY
5
17
100
AcDbDictionary
0
ENDSEC
0
EOF
