0
SECTION
2
HEADER
9
$INSUNITS
70
4
9
$ACADVER
1
AC1014
9
$HANDSEED
5
FFFF
0
ENDSEC
0
SECTION
2
TABLES
0
TABLE
2
VPORT
5
8
100
AcDbSymbolTable
0
ENDTAB
0
TABLE
2
LTYPE
5
5
100
AcDbSymbolTable
0
LTYPE
5
14
100
AcDbSymbolTableRecord
100
AcDbLinetypeTableRecord
2
BYBLOCK
70
0
0
LTYPE
5
15
100
AcDbSymbolTableRecord
100
AcDbLinetypeTableRecord
2
BYLAYER
70
0
0
ENDTAB
0
TABLE
2
LAYER
5
2
100
AcDbSymbolTable
70
2
0
LAYER
5
50
100
AcDbSymbolTableRecord
100
AcDbLayerTableRecord
2
0
70
0
6
CONTINUOUS
0
ENDTAB
0
TABLE
2
STYLE
5
3
100
AcDbSymbolTable
70
1
0
STYLE
5
11
100
AcDbSymbolTableRecord
100
AcDbTextStyleTableRecord
2
STANDARD
70
0
0
ENDTAB
0
TABLE
2
VIEW
5
6
100
AcDbSymbolTable
70
0
0
ENDTAB
0
TABLE
2
UCS
5
7
100
AcDbSymbolTable
70
0
0
ENDTAB
0
TABLE
2
APPID
5
9
100
AcDbSymbolTable
70
2
0
APPID
5
12
100
AcDbSymbolTableRecord
100
AcDbRegAppTableRecord
2
ACAD
70
0
0
ENDTAB
0
TABLE
2
DIMSTYLE
5
A
100
AcDbSymbolTable
70
1
0
ENDTAB
0
TABLE
2
BLOCK_RECORD
5
1
100
AcDbSymbolTable
70
1
0
BLOCK_RECORD
5
1F
100
AcDbSymbolTableRecord
100
AcDbBlockTableRecord
2
*MODEL_SPACE
0
BLOCK_RECORD
5
1B
100
AcDbSymbolTableRecord
100
AcDbBlockTableRecord
2
*PAPER_SPACE
0
ENDTAB
0
ENDSEC
0
SECTION
2
BLOCKS
0
BLOCK
5
20
100
AcDbEntity
100
AcDbBlockBegin
2
*MODEL_SPACE
0
ENDBLK
5
21
100
AcDbEntity
100
AcDbBlockEnd
0
BLOCK
5
1C
100
AcDbEntity
100
AcDbBlockBegin
2
*PAPER_SPACE
0
ENDBLK
5
1D
100
AcDbEntity
100
AcDbBlockEnd
0
ENDSEC
0
SECTION
2
ENTITIES
0
LWPOLYLINE
5
100
100
AcDbEntity
8
0
100
AcDbPolyline
90
6
70
1
43
0.0
10
-12.322542310197358
20
-81.092314855577143
42
-0.48440419030901805
10
-17.613403711611298
20
-81.092314855590956
10
-35.560536792393222
20
-58.374245587103402
42
-0.62674270348674355
10
-32.915106091657577
20
-52.91304035049933
10
2.9791600697451539
20
-52.913040350500751
42
-0.6267427034844445
10
5.6245907704396014
20
-58.374245586975064
0
CIRCLE
5
101
100
AcDbEntity
8
0
100
AcDbCircle
10
-29.967973011155475
20
60.677650701842992
30
1.7763568394002505e-14
40
2.7749999999999981
210
0
220
-1.3877787807814463e-17
230
1
0
CIRCLE
5
102
100
AcDbEntity
8
0
100
AcDbCircle
10
-29.967973011155486
20
110.67765070184301
30
1.7763568394002505e-14
40
2.7749999999999981
210
0
220
-1.3877787807814463e-17
230
1
0
CIRCLE
5
103
100
AcDbEntity
8
0
100
AcDbCircle
10
-157.05333549793593
20
85.141169059893244
30
0
40
6.0500000000000034
210
0
220
-1.387778780781446e-17
230
1
0
CIRCLE
5
104
100
AcDbEntity
8
0
100
AcDbCircle
10
-126.09512205089896
20
34.873876561513661
30
0
40
2.7749999999999981
210
0
220
0
230
1
0
CIRCLE
5
105
100
AcDbEntity
8
0
100
AcDbCircle
10
0.032026988844516824
20
85.677650701843007
30
0
40
2.7749999999999995
210
0
220
0
230
1
0
CIRCLE
5
106
100
AcDbEntity
8
0
100
AcDbCircle
10
-14.967973010899026
20
-26.716808346898784
30
1.7763568394002505e-14
40
19.089340880495456
210
0
220
0
230
1
0
CIRCLE
5
107
100
AcDbEntity
8
0
100
AcDbCircle
10
0.032026988844519044
20
60.677650701842992
30
1.7763568394002505e-14
40
2.7749999999999995
210
0
220
0
230
1
0
CIRCLE
5
108
100
AcDbEntity
8
0
100
AcDbCircle
10
0.032026988844516824
20
110.67765070184301
30
1.7763568394002505e-14
40
2.7749999999999995
210
0
220
0
230
1
0
CIRCLE
5
109
100
AcDbEntity
8
0
100
AcDbCircle
10
-126.08295255655803
20
84.873876561513683
30
1.7763568394002505e-14
40
2.7749999999999981
210
0
220
0
230
1
0
CIRCLE
5
110
100
AcDbEntity
8
0
100
AcDbCircle
10
-126.09512205089896
20
59.873876561513661
30
0
40
2.7749999999999981
210
0
220
0
230
1
0
CIRCLE
5
111
100
AcDbEntity
8
0
100
AcDbCircle
10
-29.967973011155475
20
85.677650701843007
30
0
40
2.7749999999999981
210
0
220
-1.3877787807814463e-17
230
1
0
LWPOLYLINE
5
112
100
AcDbEntity
8
0
100
AcDbPolyline
90
6
70
1
43
0.0
10
-17.613403711704517
20
27.658698161779569
10
-35.560536792341459
20
4.9406288931775144
42
0.62674270348444772
10
-32.915106091647004
20
-0.52057634329683455
10
2.9791600697557064
20
-0.52057634329821523
42
0.62674270348674377
10
5.6245907704913485
20
4.940628893305874
10
-12.322542310290583
20
27.658698161793396
42
0.4844041903090196
0
LWPOLYLINE
5
113
100
AcDbEntity
8
0
100
AcDbPolyline
90
4
70
1
43
0.0
10
194.0000000000116
20
-19.202572138656866
10
194.0000000000116
20
0.79743061348629185
10
190.07559895222246
20
0.79537183838102044
10
190.08609112566188
20
-19.204625409476211
0
LWPOLYLINE
5
114
100
AcDbEntity
8
0
100
AcDbPolyline
90
4
70
1
43
0.0
10
-193.99999999998838
20
104.51503358499563
10
-189.99999999998838
20
104.51503358499563
10
-189.99999999998838
20
124.51503358499565
10
-193.99999999998838
20
124.51503358499562
0
LWPOLYLINE
5
115
100
AcDbEntity
8
0
100
AcDbPolyline
90
4
70
1
43
0.0
10
-189.99999999998838
20
0.69567635391417404
10
-193.99999999998838
20
0.69567635391418303
10
-193.99999999998838
20
-19.304323646085816
10
-189.99999999998838
20
-19.304323646085827
0
LWPOLYLINE
5
116
100
AcDbEntity
8
0
100
AcDbPolyline
90
4
70
1
43
0.0
10
-189.99999999998838
20
-105.31903380650763
10
-193.99999999998838
20
-105.31903380650763
10
-193.99999999998838
20
-125.31903380650763
10
-189.99999999998838
20
-125.31903380650762
0
LWPOLYLINE
5
117
100
AcDbEntity
8
0
100
AcDbPolyline
90
4
70
1
43
0.0
10
194.0000000000116
20
104.61680213085441
10
194.0000000000116
20
124.61680488299756
10
190.01064224366121
20
124.61471203103503
10
190.02113441710054
20
104.61471478317783
0
LWPOLYLINE
5
118
100
AcDbEntity
8
0
100
AcDbPolyline
90
4
70
1
43
0.0
10
194.0000000000116
20
-125.21729688746163
10
194.0000000000116
20
-105.21729413531847
10
190.1312151885291
20
-105.21932373365985
10
190.14170736196849
20
-125.21932098151709
0
LWPOLYLINE
5
119
100
AcDbEntity
8
0
100
AcDbPolyline
90
4
70
1
43
0.0
10
199.0000000000116
20
-148.97315194356287
10
-198.99999999999994
20
-148.97315194356281
10
-198.99999999999994
20
148.97315194356281
10
199.0000000000116
20
148.97315194356278
0
CIRCLE
5
120
100
AcDbEntity
8
0
100
AcDbCircle
10
48.032026988844521
20
110.67765070184296
30
1.7763568394002505e-14
40
2.7749999999999995
210
0
220
1.387778780781446e-17
230
1
0
CIRCLE
5
121
100
AcDbEntity
8
0
100
AcDbCircle
10
78.032026988844521
20
110.67765070184296
30
1.7763568394002505e-14
40
2.7749999999999995
210
0
220
1.387778780781446e-17
230
1
0
CIRCLE
5
122
100
AcDbEntity
8
0
100
AcDbCircle
10
78.032026988844521
20
85.677650701842964
30
1.7763568394002505e-14
40
2.7749999999999995
210
0
220
1.387778780781446e-17
230
1
0
CIRCLE
5
123
100
AcDbEntity
8
0
100
AcDbCircle
10
48.032026988844535
20
85.677650701842964
30
1.7763568394002505e-14
40
2.7749999999999995
210
0
220
1.387778780781446e-17
230
1
0
CIRCLE
5
124
100
AcDbEntity
8
0
100
AcDbCircle
10
48.032026988844535
20
60.677650701842971
30
1.7763568394002505e-14
40
2.7749999999999995
210
0
220
1.387778780781446e-17
230
1
0
CIRCLE
5
125
100
AcDbEntity
8
0
100
AcDbCircle
10
78.032026988844521
20
60.677650701842971
30
1.7763568394002505e-14
40
2.7749999999999995
210
0
220
1.387778780781446e-17
230
1
0
LINE
5
126
100
AcDbEntity
8
0
100
AcDbLine
10
80.979160069755721
20
-0.52057634329818026
30
0
11
45.084893908352996
21
-0.520576343296828
31
3.1554436208840472e-29
0
ARC
5
127
100
AcDbEntity
8
0
100
AcDbCircle
10
45.084893908353145
20
2.8507551332367753
30
1.7763568394002505e-14
40
3.3713314765336051
210
-1.3500932629228219e-17
220
-3.2121352057099901e-18
230
1
100
AcDbArc
50
141.6914843858421
51
269.99999999999744
0
LINE
5
128
100
AcDbEntity
8
0
100
AcDbLine
10
42.439463207658548
20
4.9406288931775144
30
0
11
60.386596288295493
21
27.658698161779572
31
0
0
ARC
5
129
100
AcDbEntity
8
0
100
AcDbCircle
10
63.03202698900791
20
25.568824401824671
30
1.7763568394002505e-14
40
3.3713314765563851
210
-1.0593969152505284e-17
220
-8.3691695797844894e-18
230
1
100
AcDbArc
50
38.30851561445828
51
141.69148438584102
0
ARC
5
130
100
AcDbEntity
8
0
100
AcDbCircle
10
80.979160069755864
20
2.8507551333048573
30
0
40
3.3713314766030757
210
8.6027804704739483e-18
220
-3.6262486872356838e-31
230
1
100
AcDbArc
50
-90.000000000002444
51
38.308515614530648
0
LINE
5
131
100
AcDbEntity
8
0
100
AcDbLine
10
65.677457689709414
20
27.658698161793389
30
1.7763568394002505e-14
11
83.624590770491366
21
4.940628893305874
31
1.7763568394002505e-14
0
CIRCLE
5
132
100
AcDbEntity
8
0
100
AcDbCircle
10
63.032026989100984
20
-26.716808346898773
30
1.7763568394002505e-14
40
19.089340880495456
210
0
220
1.387778780781446e-17
230
1
0
LINE
5
133
100
AcDbEntity
8
0
100
AcDbLine
10
60.386596288388724
20
-81.092314855590899
30
1.7763568394002505e-14
11
42.439463207606778
21
-58.374245587103381
31
1.7763568394002505e-14
0
ARC
5
134
100
AcDbEntity
8
0
100
AcDbCircle
10
45.084893908342281
20
-56.284371827102376
30
-3.8518598887744717e-33
40
3.3713314766030766
210
-1.0889681474475974e-17
220
1.0889681474476953e-17
230
1
100
AcDbArc
50
89.99999999999747
51
218.30851561453068
0
LINE
5
135
100
AcDbEntity
8
0
100
AcDbLine
10
45.08489390834243
20
-52.91304035049933
30
1.7763568394002505e-14
11
80.979160069745163
21
-52.913040350500708
31
1.7763568394002536e-14
0
ARC
5
136
100
AcDbEntity
8
0
100
AcDbCircle
10
80.979160069745021
20
-56.284371827034327
30
1.7763568394002501e-14
40
3.3713314765336029
210
6.7504663146140232e-18
220
-5.3328263010517726e-18
230
1
100
AcDbArc
50
-38.308515614157542
51
89.999999999997584
0
ARC
5
137
100
AcDbEntity
8
0
100
AcDbCircle
10
63.032026989090241
20
-79.002441095622217
30
0
40
3.3713314765563505
210
-1.9911886821029837e-18
220
2.5205118947488608e-18
230
1
100
AcDbArc
50
218.30851561445775
51
321.6914843858421
0
LINE
5
138
100
AcDbEntity
8
0
100
AcDbLine
10
83.624590770439596
20
-58.37424558697505
30
0
11
65.677457689802665
21
-81.09231485557703
31
0
0
CIRCLE
5
139
100
AcDbEntity
8
0
100
AcDbCircle
10
141.03202698910098
20
-26.716808346898773
30
1.7763568394002505e-14
40
19.089340880495456
210
0
220
1.387778780781446e-17
230
1
0
LWPOLYLINE
5
140
100
AcDbEntity
8
0
100
AcDbPolyline
90
4
70
1
43
0.0
10
190.00000000001162
20
124.61680488299756
10
194.0000000000116
20
124.61680488299756
10
194.0000000000116
20
104.61680488299756
10
190.00000000001162
20
104.61680488299756
0
LWPOLYLINE
5
141
100
AcDbEntity
8
0
100
AcDbPolyline
90
4
70
1
43
0.0
10
190.00000000001162
20
0.79743061348629185
10
194.0000000000116
20
0.79743061348629185
10
194.0000000000116
20
-19.202569386513709
10
190.00000000001162
20
-19.202569386513709
0
LWPOLYLINE
5
142
100
AcDbEntity
8
0
100
AcDbPolyline
90
4
70
1
43
0.0
10
190.00000000001162
20
-105.21729413531847
10
194.0000000000116
20
-105.21729413531847
10
194.0000000000116
20
-125.21729413531847
10
190.00000000001162
20
-125.21729413531847
0
ENDSEC
0
SECTION
2
OBJECTS
0
DICTIONARY
5
C
100
AcDbDictionary
3
ACAD_GROUP
350
D
3
ACAD_MLINESTYLE
350
17
0
DICTIONARY
5
D
100
AcDbDictionary
0
DICTIONARY
5
1A
330
C
100
AcDbDictionary
0
DICTIONARY
5
17
100
AcDbDictionary
0
ENDSEC
0
EOF
