  0
SECTION
  2
HEADER
  9
$ACADVER
  1
AC1014
  9
$HANDSEED
  5
FFFF
  9
$MEASUREMENT
 70
     1
  0
ENDSEC
  0
SECTION
  2
TABLES
  0
TABLE
  2
VPORT
  5
8
330
0
100
AcDbSymbolTable
 70
     4
  0
VPORT
  5
2E
330
8
100
AcDbSymbolTableRecord
100
AcDbViewportTableRecord
  2
*ACTIVE
 70
     0
 10
0.0
 20
0.0
 11
1.0
 21
1.0
 12
210.0
 22
148.5
 13
0.0
 23
0.0
 14
10.0
 24
10.0
 15
10.0
 25
10.0
 16
0.0
 26
0.0
 36
1.0
 17
0.0
 27
0.0
 37
0.0
 40
341.0
 41
1.24
 42
50.0
 43
0.0
 44
0.0
 50
0.0
 51
0.0
 71
     0
 72
   100
 73
     1
 74
     3
 75
     0
 76
     0
 77
     0
 78
     0
  0
ENDTAB
  0
TABLE
  2
LTYPE
  5
5
330
0
100
AcDbSymbolTable
 70
     1
  0
LTYPE
  5
14
330
5
100
AcDbSymbolTableRecord
100
AcDbLinetypeTableRecord
  2
BYBLOCK
 70
     0
  3

 72
    65
 73
     0
 40
0.0
  0
LTYPE
  5
15
330
5
100
AcDbSymbolTableRecord
100
AcDbLinetypeTableRecord
  2
BYLAYER
 70
     0
  3

 72
    65
 73
     0
 40
0.0
  0
LTYPE
  5
16
330
5
100
AcDbSymbolTableRecord
100
AcDbLinetypeTableRecord
  2
CONTINUOUS
 70
     0
  3
Solid line
 72
    65
 73
     0
 40
0.0
  0
ENDTAB
  0
TABLE
  2
LAYER
  5
2
100
AcDbSymbolTable
 70
1
  0
LAYER
  5
50
100
AcDbSymbolTableRecord
100
AcDbLayerTableRecord
  2
0
 70
0
  6
CONTINUOUS
  0
ENDTAB
  0
TABLE
  2
STYLE
  5
3
330
0
100
AcDbSymbolTable
 70
     1
  0
STYLE
  5
11
330
3
100
AcDbSymbolTableRecord
100
AcDbTextStyleTableRecord
  2
STANDARD
 70
     0
 40
0.0
 41
1.0
 50
0.0
 71
     0
 42
2.5
  3
txt
  4

  0
ENDTAB
  0
TABLE
  2
VIEW
  5
6
330
0
100
AcDbSymbolTable
 70
     0
  0
ENDTAB
  0
TABLE
  2
UCS
  5
7
330
0
100
AcDbSymbolTable
 70
     0
  0
ENDTAB
  0
TABLE
  2
APPID
  5
9
330
0
100
AcDbSymbolTable
 70
     2
  0
APPID
  5
12
330
9
100
AcDbSymbolTableRecord
100
AcDbRegAppTableRecord
  2
ACAD
 70
     0
  0
ENDTAB
  0
TABLE
  2
DIMSTYLE
  5
A
330
0
100
AcDbSymbolTable
 70
     1
  0
DIMSTYLE
105
27
330
A
100
AcDbSymbolTableRecord
100
AcDbDimStyleTableRecord
  2
ISO-25
 70
     0
  3

  4

  5

  6

  7

 40
1.0
 41
2.5
 42
0.625
 43
3.75
 44
1.25
 45
0.0
 46
0.0
 47
0.0
 48
0.0
140
2.5
141
2.5
142
0.0
143
0.03937007874016
144
1.0
145
0.0
146
1.0
147
0.625
 71
     0
 72
     0
 73
     0
 74
     0
 75
     0
 76
     0
 77
     1
 78
     8
170
     0
171
     3
172
     1
173
     0
174
     0
175
     0
176
     0
177
     0
178
     0
270
     2
271
     2
272
     2
273
     2
274
     3
340
11
275
     0
280
     0
281
     0
282
     0
283
     0
284
     8
285
     0
286
     0
287
     3
288
     0
  0
ENDTAB
  0
TABLE
  2
BLOCK_RECORD
  5
1
330
0
100
AcDbSymbolTable
 70
     1
  0
BLOCK_RECORD
  5
1F
330
1
100
AcDbSymbolTableRecord
100
AcDbBlockTableRecord
  2
*MODEL_SPACE
  0
BLOCK_RECORD
  5
1B
330
1
100
AcDbSymbolTableRecord
100
AcDbBlockTableRecord
  2
*PAPER_SPACE
  0
ENDTAB
  0
ENDSEC
  0
SECTION
  2
BLOCKS
  0
BLOCK
  5
20
330
1F
100
AcDbEntity
  8
0
100
AcDbBlockBegin
  2
*MODEL_SPACE
 70
     0
 10
0.0
 20
0.0
 30
0.0
  3
*MODEL_SPACE
  1

  0
ENDBLK
  5
21
330
1F
100
AcDbEntity
  8
0
100
AcDbBlockEnd
  0
BLOCK
  5
1C
330
1B
100
AcDbEntity
 67
     1
  8
0
100
AcDbBlockBegin
  2
*PAPER_SPACE
  1

  0
ENDBLK
  5
1D
330
1B
100
AcDbEntity
 67
     1
  8
0
100
AcDbBlockEnd
  0
ENDSEC
  0
SECTION
  2
ENTITIES
  0
SPLINE
  5
100
100
AcDbEntity
  8
0
 62
1
100
AcDbSpline
 70
8
 71
3
 72
8
 73
4
 74
0
 40
0
 40
0
 40
0
 40
0
 40
1
 40
1
 40
1
 40
1
 10
44.544017
 20
92.045110
 30
0.0
 10
44.544017
 20
92.045110
 30
0.0
 10
40.612157
 20
91.711085
 30
0.0
 10
38.944616
 20
90.253923
 30
0.0
  0
SPLINE
  5
101
100
AcDbEntity
  8
0
 62
1
100
AcDbSpline
 70
8
 71
3
 72
8
 73
4
 74
0
 40
0
 40
0
 40
0
 40
0
 40
1
 40
1
 40
1
 40
1
 10
38.944616
 20
90.253923
 30
0.0
 10
38.041812
 20
89.465030
 30
0.0
 10
37.176373
 20
88.206785
 30
0.0
 10
37.176373
 20
88.206785
 30
0.0
  0
SPLINE
  5
102
100
AcDbEntity
  8
0
 62
1
100
AcDbSpline
 70
8
 71
3
 72
8
 73
4
 74
0
 40
0
 40
0
 40
0
 40
0
 40
1
 40
1
 40
1
 40
1
 10
37.176373
 20
80.274241
 30
0.0
 10
37.176373
 20
80.274241
 30
0.0
 10
28.668584
 20
74.857432
 30
0.0
 10
26.861671
 20
70.806373
 30
0.0
  0
SPLINE
  5
103
100
AcDbEntity
  8
0
 62
1
100
AcDbSpline
 70
8
 71
3
 72
8
 73
4
 74
0
 40
0
 40
0
 40
0
 40
0
 40
1
 40
1
 40
1
 40
1
 10
26.861671
 20
70.806373
 30
0.0
 10
21.148817
 20
57.998291
 30
0.0
 10
27.745789
 20
29.608282
 30
0.0
 10
27.745789
 20
29.608282
 30
0.0
  0
LWPOLYLINE
  5
104
100
AcDbEntity
  8
0
 62
1
100
AcDbPolyline
 90
2
 70
0
 10
37.176373
 20
88.206785
 30
0.0
 10
37.176373
 20
80.274241
 30
0.0
  0
SPLINE
  5
105
100
AcDbEntity
  8
0
 62
1
100
AcDbSpline
 70
8
 71
3
 72
8
 73
4
 74
0
 40
0
 40
0
 40
0
 40
0
 40
1
 40
1
 40
1
 40
1
 10
69.888738
 20
70.294598
 30
0.0
 10
69.150061
 20
72.918266
 30
0.0
 10
62.913995
 20
78.824224
 30
0.0
 10
60.163412
 20
82.321360
 30
0.0
  0
LWPOLYLINE
  5
106
100
AcDbEntity
  8
0
 62
1
100
AcDbPolyline
 90
4
 70
0
 10
27.745789
 20
29.608282
 30
0.0
 10
67.531159
 20
30.120060
 30
0.0
 10
70.772860
 20
33.446617
 30
0.0
 10
69.888738
 20
70.294598
 30
0.0
  0
SPLINE
  5
107
100
AcDbEntity
  8
0
 62
1
100
AcDbSpline
 70
8
 71
3
 72
8
 73
4
 74
0
 40
0
 40
0
 40
0
 40
0
 40
1
 40
1
 40
1
 40
1
 10
58.100504
 20
91.533364
 30
0.0
 10
58.100504
 20
91.533364
 30
0.0
 10
55.011441
 20
93.021616
 30
0.0
 10
54.269302
 20
93.580446
 30
0.0
  0
SPLINE
  5
108
100
AcDbEntity
  8
0
 62
1
100
AcDbSpline
 70
8
 71
3
 72
8
 73
4
 74
0
 40
0
 40
0
 40
0
 40
0
 40
1
 40
1
 40
1
 40
1
 10
54.269302
 20
93.580446
 30
0.0
 10
53.219783
 20
94.370839
 30
0.0
 10
53.679922
 20
97.162927
 30
0.0
 10
53.679922
 20
97.162927
 30
0.0
  0
LWPOLYLINE
  5
109
100
AcDbEntity
  8
0
 62
1
100
AcDbPolyline
 90
2
 70
0
 10
60.163412
 20
82.321360
 30
0.0
 10
58.100504
 20
91.533364
 30
0.0
  0
LWPOLYLINE
  5
10a
100
AcDbEntity
  8
0
 62
1
100
AcDbPolyline
 90
38
 70
0
 10
53.679922
 20
97.162927
 30
0.0
 10
54.269302
 20
97.674700
 30
0.0
 10
86.392245
 20
85.647920
 30
0.0
 10
87.571012
 20
83.089031
 30
0.0
 10
87.865762
 20
49.823492
 30
0.0
 10
88.455180
 20
43.938053
 30
0.0
 10
89.634045
 20
42.658610
 30
0.0
 10
92.286262
 20
41.635057
 30
0.0
 10
106.432230
 20
41.635057
 30
0.0
 10
107.611005
 20
41.123273
 30
0.0
 10
107.316345
 20
38.052615
 30
0.0
 10
109.084740
 20
37.796722
 30
0.0
 10
106.726927
 20
34.214280
 30
0.0
 10
106.137427
 20
31.911285
 30
0.0
 10
106.137427
 20
29.864175
 30
0.0
 10
107.316345
 20
29.096512
 30
0.0
 10
109.379302
 20
28.328842
 30
0.0
 10
111.736920
 20
28.840597
 30
0.0
 10
113.799937
 20
30.631837
 30
0.0
 10
113.799937
 20
33.958395
 30
0.0
 10
111.442237
 20
37.796722
 30
0.0
 10
114.094590
 20
37.796722
 30
0.0
 10
114.978720
 20
42.402716
 30
0.0
 10
114.683962
 20
43.682173
 30
0.0
 10
113.210490
 20
46.241052
 30
0.0
 10
112.621027
 20
47.008720
 30
0.0
 10
108.495172
 20
48.032269
 30
0.0
 10
96.412237
 20
48.032269
 30
0.0
 10
94.938690
 20
48.799939
 30
0.0
 10
93.465180
 20
50.591165
 30
0.0
 10
92.581065
 20
85.903827
 30
0.0
 10
91.696905
 20
88.206785
 30
0.0
 10
55.153456
 20
104.071893
 30
0.0
 10
51.027556
 20
104.583679
 30
0.0
 10
48.669898
 20
104.583679
 30
0.0
 10
46.017552
 20
102.536586
 30
0.0
 10
44.249310
 20
99.210025
 30
0.0
 10
44.544017
 20
92.045110
 30
0.0
  0
SPLINE
  5
10b
100
AcDbEntity
  8
0
 62
1
100
AcDbSpline
 70
8
 71
3
 72
8
 73
4
 74
0
 40
0
 40
0
 40
0
 40
0
 40
1
 40
1
 40
1
 40
1
 10
41.891665
 20
76.947691
 30
0.0
 10
41.891665
 20
76.947691
 30
0.0
 10
34.610947
 20
72.436247
 30
0.0
 10
33.050497
 20
69.015156
 30
0.0
  0
SPLINE
  5
10c
100
AcDbEntity
  8
0
 62
1
100
AcDbSpline
 70
8
 71
3
 72
8
 73
4
 74
0
 40
0
 40
0
 40
0
 40
0
 40
1
 40
1
 40
1
 40
1
 10
33.050497
 20
69.015156
 30
0.0
 10
28.166678
 20
58.308049
 30
0.0
 10
33.639907
 20
34.470172
 30
0.0
 10
33.639907
 20
34.470172
 30
0.0
  0
LWPOLYLINE
  5
10d
100
AcDbEntity
  8
0
 62
1
100
AcDbPolyline
 90
5
 70
0
 10
53.385176
 20
87.950937
 30
0.0
 10
45.133426
 20
88.206785
 30
0.0
 10
42.186370
 20
85.647920
 30
0.0
 10
42.775785
 20
80.018383
 30
0.0
 10
41.891665
 20
76.947691
 30
0.0
  0
SPLINE
  5
10e
100
AcDbEntity
  8
0
 62
1
100
AcDbSpline
 70
8
 71
3
 72
8
 73
4
 74
0
 40
0
 40
0
 40
0
 40
0
 40
1
 40
1
 40
1
 40
1
 10
64.289288
 20
56.220712
 30
0.0
 10
64.289288
 20
56.220712
 30
0.0
 10
65.302236
 20
65.729698
 30
0.0
 10
63.405200
 20
70.038708
 30
0.0
  0
SPLINE
  5
10f
100
AcDbEntity
  8
0
 62
1
100
AcDbSpline
 70
8
 71
3
 72
8
 73
4
 74
0
 40
0
 40
0
 40
0
 40
0
 40
1
 40
1
 40
1
 40
1
 10
63.405200
 20
70.038708
 30
0.0
 10
62.282193
 20
72.589512
 30
0.0
 10
57.511082
 20
76.435892
 30
0.0
 10
57.511082
 20
76.435892
 30
0.0
  0
LWPOLYLINE
  5
110
100
AcDbEntity
  8
0
 62
1
100
AcDbPolyline
 90
34
 70
0
 10
33.639907
 20
34.470172
 30
0.0
 10
38.649897
 20
34.726065
 30
0.0
 10
40.418134
 20
34.981950
 30
0.0
 10
38.944616
 20
37.284952
 30
0.0
 10
38.060488
 20
40.611499
 30
0.0
 10
38.944616
 20
43.426276
 30
0.0
 10
41.007546
 20
44.961609
 30
0.0
 10
42.775785
 20
45.985164
 30
0.0
 10
43.659903
 20
43.170389
 30
0.0
 10
46.509512
 20
41.646091
 30
0.0
 10
44.838724
 20
43.426276
 30
0.0
 10
45.133426
 20
47.520496
 30
0.0
 10
46.017552
 20
49.055824
 30
0.0
 10
47.196369
 20
52.638269
 30
0.0
 10
47.491077
 20
55.453045
 30
0.0
 10
44.838724
 20
57.500161
 30
0.0
 10
48.964603
 20
57.244267
 30
0.0
 10
52.206364
 20
55.964824
 30
0.0
 10
54.564015
 20
52.638269
 30
0.0
 10
56.332235
 20
48.032269
 30
0.0
 10
56.332235
 20
46.241052
 30
0.0
 10
57.216357
 20
45.985164
 30
0.0
 10
58.100503
 20
48.288160
 30
0.0
 10
57.805780
 20
51.358820
 30
0.0
 10
61.636939
 20
47.264608
 30
0.0
 10
61.931683
 20
45.217498
 30
0.0
 10
62.521069
 20
41.890941
 30
0.0
 10
61.047553
 20
38.308500
 30
0.0
 10
59.279297
 20
36.261390
 30
0.0
 10
62.521069
 20
36.261390
 30
0.0
 10
63.405194
 20
36.261390
 30
0.0
 10
64.583989
 20
37.029060
 30
0.0
 10
63.994591
 20
49.311721
 30
0.0
 10
64.289288
 20
56.220712
 30
0.0
  0
LWPOLYLINE
  5
111
100
AcDbEntity
  8
0
 62
1
100
AcDbPolyline
 90
4
 70
0
 10
57.511082
 20
76.435892
 30
0.0
 10
53.974609
 20
80.274241
 30
0.0
 10
54.269302
 20
85.136149
 30
0.0
 10
53.385176
 20
87.950937
 30
0.0
  0
LWPOLYLINE
  5
112
100
AcDbEntity
  8
0
 62
1
100
AcDbPolyline
 90
21
 70
1
 10
42.481075
 20
40.867384
 30
0.0
 10
41.596959
 20
39.076162
 30
0.0
 10
43.070490
 20
36.773167
 30
0.0
 10
43.659903
 20
35.749612
 30
0.0
 10
55.742827
 20
36.005505
 30
0.0
 10
57.511082
 20
38.052615
 30
0.0
 10
59.279297
 20
41.635057
 30
0.0
 10
58.984600
 20
43.938053
 30
0.0
 10
57.511082
 20
42.402716
 30
0.0
 10
55.153456
 20
42.146830
 30
0.0
 10
54.269302
 20
42.402716
 30
0.0
 10
53.974610
 20
45.473389
 30
0.0
 10
53.090502
 20
49.055824
 30
0.0
 10
51.322245
 20
50.591165
 30
0.0
 10
49.554020
 20
50.591165
 30
0.0
 10
51.322245
 20
47.776387
 30
0.0
 10
48.964604
 20
45.985164
 30
0.0
 10
49.848719
 20
42.402716
 30
0.0
 10
49.848719
 20
40.867384
 30
0.0
 10
48.375193
 20
38.564392
 30
0.0
 10
46.901666
 20
37.284952
 30
0.0
  0
LWPOLYLINE
  5
113
100
AcDbEntity
  8
0
 62
1
100
AcDbPolyline
 90
23
 70
1
 10
114.094590
 20
25.258185
 30
0.0
 10
111.147510
 20
26.537595
 30
0.0
 10
107.316345
 20
26.281747
 30
0.0
 10
104.958720
 20
25.002277
 30
0.0
 10
105.842813
 20
23.978730
 30
0.0
 10
106.432230
 20
23.211090
 30
0.0
 10
106.137428
 20
22.443352
 30
0.0
 10
102.011662
 20
21.419850
 30
0.0
 10
100.832782
 20
19.628625
 30
0.0
 10
100.832782
 20
16.046167
 30
0.0
 10
101.422192
 20
5.554755
 30
0.0
 10
110.263410
 20
4.019415
 30
0.0
 10
115.273357
 20
4.019415
 30
0.0
 10
121.462177
 20
5.298817
 30
0.0
 10
121.167532
 20
18.093292
 30
0.0
 10
116.746875
 20
20.140455
 30
0.0
 10
115.568092
 20
20.140455
 30
0.0
 10
117.925777
 20
21.164025
 30
0.0
 10
117.925777
 20
22.187520
 30
0.0
 10
117.925777
 20
23.978730
 30
0.0
 10
116.746875
 20
23.978730
 30
0.0
 10
115.273357
 20
24.234607
 30
0.0
 10
113.799937
 20
24.234607
 30
0.0
  0
LWPOLYLINE
  5
114
100
AcDbEntity
  8
0
 62
7
100
AcDbPolyline
 90
1
 70
1
 10
114.389280
 20
22.699298
 30
0.0
  0
LWPOLYLINE
  5
115
100
AcDbEntity
  8
0
 62
1
100
AcDbPolyline
 90
7
 70
1
 10
114.525300
 20
22.502835
 30
0.0
 10
113.587523
 20
22.050488
 30
0.0
 10
113.587523
 20
21.779085
 30
0.0
 10
113.795880
 20
21.598118
 30
0.0
 10
114.525300
 20
21.326700
 30
0.0
 10
115.046235
 20
21.598118
 30
0.0
 10
115.358850
 20
22.412333
 30
0.0
  0
LWPOLYLINE
  5
116
100
AcDbEntity
  8
0
 62
1
100
AcDbPolyline
 90
25
 70
1
 10
108.586200
 20
23.497987
 30
0.0
 10
109.315560
 20
23.769413
 30
0.0
 10
110.774325
 20
23.678947
 30
0.0
 10
111.607882
 20
22.864710
 30
0.0
 10
111.399442
 20
21.326700
 30
0.0
 10
111.503670
 20
19.698240
 30
0.0
 10
112.128780
 20
18.703057
 30
0.0
 10
113.587523
 20
17.798340
 30
0.0
 10
116.296613
 20
17.526952
 30
0.0
 10
117.546960
 20
16.622280
 30
0.0
 10
118.484692
 20
15.174743
 30
0.0
 10
118.588830
 20
12.098737
 30
0.0
 10
118.693088
 20
9.022710
 30
0.0
 10
117.859530
 20
7.213343
 30
0.0
 10
112.962330
 20
6.489585
 30
0.0
 10
108.586200
 20
6.760965
 30
0.0
 10
105.043643
 20
7.484768
 30
0.0
 10
104.418435
 20
8.570408
 30
0.0
 10
104.314253
 20
18.160245
 30
0.0
 10
105.147810
 20
18.974505
 30
0.0
 10
106.919100
 20
18.974505
 30
0.0
 10
108.169418
 20
19.064932
 30
0.0
 10
108.794625
 20
19.607775
 30
0.0
 10
108.794625
 20
20.602942
 30
0.0
 10
108.794625
 20
22.050488
 30
0.0
  0
ENDSEC
  0
SECTION
  2
OBJECTS
  0
DICTIONARY
  5
C
330
0
100
AcDbDictionary
  3
ACAD_GROUP
350
D
  3
ACAD_MLINESTYLE
350
17
  0
DICTIONARY
  5
D
330
C
100
AcDbDictionary
  0
DICTIONARY
  5
1A
330
C
100
AcDbDictionary
  0
DICTIONARY
  5
17
330
C
100
AcDbDictionary
  3
STANDARD
350
18
  0
DICTIONARY
  5
19
330
C
100
AcDbDictionary
  0
ENDSEC
  0
EOF
