0
SECTION
2
HEADER
9
$INSUNITS
70
4
9
$ACADVER
1
AC1014
9
$HANDSEED
5
FFFF
0
ENDSEC
0
SECTION
2
TABLES
0
TABLE
2
VPORT
5
8
100
AcDbSymbolTable
0
ENDTAB
0
TABLE
2
LTYPE
5
5
100
AcDbSymbolTable
0
LTYPE
5
14
100
AcDbSymbolTableRecord
100
AcDbLinetypeTableRecord
2
BYBLOCK
70
0
0
LTYPE
5
15
100
AcDbSymbolTableRecord
100
AcDbLinetypeTableRecord
2
BYLAYER
70
0
0
ENDTAB
0
TABLE
2
LAYER
5
2
100
AcDbSymbolTable
70
2
0
LAYER
5
50
100
AcDbSymbolTableRecord
100
AcDbLayerTableRecord
2
0
70
0
6
CONTINUOUS
0
ENDTAB
0
TABLE
2
STYLE
5
3
100
AcDbSymbolTable
70
1
0
STYLE
5
11
100
AcDbSymbolTableRecord
100
AcDbTextStyleTableRecord
2
STANDARD
70
0
0
ENDTAB
0
TABLE
2
VIEW
5
6
100
AcDbSymbolTable
70
0
0
ENDTAB
0
TABLE
2
UCS
5
7
100
AcDbSymbolTable
70
0
0
ENDTAB
0
TABLE
2
APPID
5
9
100
AcDbSymbolTable
70
2
0
APPID
5
12
100
AcDbSymbolTableRecord
100
AcDbRegAppTableRecord
2
ACAD
70
0
0
ENDTAB
0
TABLE
2
DIMSTYLE
5
A
100
AcDbSymbolTable
70
1
0
ENDTAB
0
TABLE
2
BLOCK_RECORD
5
1
100
AcDbSymbolTable
70
1
0
BLOCK_RECORD
5
1F
100
AcDbSymbolTableRecord
100
AcDbBlockTableRecord
2
*MODEL_SPACE
0
BLOCK_RECORD
5
1B
100
AcDbSymbolTableRecord
100
AcDbBlockTableRecord
2
*PAPER_SPACE
0
ENDTAB
0
ENDSEC
0
SECTION
2
BLOCKS
0
BLOCK
5
20
100
AcDbEntity
100
AcDbBlockBegin
2
*MODEL_SPACE
0
ENDBLK
5
21
100
AcDbEntity
100
AcDbBlockEnd
0
BLOCK
5
1C
100
AcDbEntity
100
AcDbBlockBegin
2
*PAPER_SPACE
0
ENDBLK
5
1D
100
AcDbEntity
100
AcDbBlockEnd
0
ENDSEC
0
SECTION
2
ENTITIES
0
LWPOLYLINE
5
100
100
AcDbEntity
8
0
100
AcDbPolyline
90
13
70
1
43
0.0
10
-1437.98678643724
20
723.09580756988817
42
-0.11556043279184672
10
-1423.245996690302
20
756.47808388746569
42
1.1999412610304061
10
-1496.4037014733162
20
798.48978659542763
42
0.11550033863929142
10
-1514.2565971533245
20
87.148865958407811
42
0.061167193050646801
10
-1512.6199796845372
20
79.273144162143566
10
-1508.1433400378389
20
57.730682889471112
42
0.52895040507578495
10
-1485.2336139910938
20
48.237666683364644
10
-1467.1282454036991
20
60.106157834459033
42
0.067119399457304912
10
-1459.751822902226
20
64.941574730993366
10
-1453.9866810768378
20
68.720759584874727
42
0.28720077635680669
10
-1447.3331458716052
20
83.182585869622002
10
-1448.4123459669786
20
91.558107887103688
42
-0.060103494586465342
10
-1452.8766338739749
20
643.8485714245262
0
LWPOLYLINE
5
101
100
AcDbEntity
8
0
100
AcDbPolyline
90
4
70
1
43
0.0
10
-1502.5149397727509
20
398.94020677392621
10
-1506.0709157732131
20
453.82513216044862
10
-1518.0458085848181
20
453.04928285125692
10
-1514.489832584356
20
398.16435746473439
0
LWPOLYLINE
5
102
100
AcDbEntity
8
0
100
AcDbPolyline
90
4
70
1
43
0.0
10
-1487.3329395799151
20
164.61271196133816
10
-1483.776963579453
20
109.7277865748157
10
-1471.8020707678479
20
110.50363588400745
10
-1475.35804676831
20
165.38856127052986
0
CIRCLE
5
103
100
AcDbEntity
8
0
100
AcDbCircle
10
-1455.9748217099107
20
784.1882377982306
30
0
40
19.209372712298585
210
0
220
-0
230
1
0
LWPOLYLINE
5
104
100
AcDbEntity
8
0
100
AcDbPolyline
90
4
70
1
43
0.0
10
-1640.069429593048
20
421.65642250353125
10
-1634.8110493332422
20
476.40447668852744
10
-1622.866019329243
20
475.25719372275154
10
-1628.1243995890488
20
420.50913953775535
0
LWPOLYLINE
5
105
100
AcDbEntity
8
0
100
AcDbPolyline
90
4
70
1
43
0.0
10
-1607.102368478606
20
764.89566330354921
10
-1612.3607487384118
20
710.14760911855296
10
-1624.3057787424109
20
711.29489208432892
10
-1619.0473984826051
20
766.04294626932506
0
LWPOLYLINE
5
106
100
AcDbEntity
8
0
100
AcDbPolyline
90
13
70
1
43
0.0
10
-1606.6491135871397
20
826.40136413436744
10
-1588.9209782850003
20
813.97644270209764
42
-0.067119399457312309
10
-1581.6982467774549
20
808.91432703239707
10
-1576.053224207317
20
804.9579627153405
42
-0.28720077635679442
10
-1569.8519212680933
20
790.2965237657196
10
-1571.1906521187616
20
781.95854789500333
42
0.06010349458646614
10
-1592.8008207307566
20
230.0729740724417
10
-1580.3786948306072
20
150.40163178747125
42
0.11556043279185044
10
-1566.6814963995353
20
116.57776433198437
42
-1.1999412610304032
10
-1641.1083481342905
20
76.857786054127502
42
-0.1155003386392931
10
-1636.8662552320031
20
788.41005813588151
42
-0.061167193050543099
10
-1634.9858940248382
20
796.2311675381153
10
-1629.8425421477759
20
817.62424753328435
42
-0.52895040507578128
0
CIRCLE
5
107
100
AcDbEntity
8
0
100
AcDbCircle
10
-1600.2549126095093
20
89.897165745852945
30
0
40
19.209372712298585
210
0
220
-0
230
1
0
LWPOLYLINE
5
108
100
AcDbEntity
8
0
100
AcDbPolyline
90
44
70
1
43
0.0
10
-1745.7269095897416
20
855.42014774735617
10
-1780.6946913206107
20
859.89468995745415
42
0.0079829133556040682
10
-1812.0736392276858
20
863.40180999962615
10
-1814.1452864006401
20
838.56085718487054
10
-1826.1037730157932
20
839.55815246471866
10
-1824.0260745161095
20
864.47166624628744
42
0.014807276085188245
10
-1882.4992121410626
20
867.60833407191535
10
-1882.9572323265666
20
842.60754471795553
10
-1894.9552190486029
20
842.82735058193396
10
-1894.497288236133
20
867.82326155617511
42
0.012325130838344016
10
-1943.2378304406916
20
867.19910546881704
10
-1942.1501310648473
20
842.22268588087013
10
-1954.1387681056824
20
841.70059211236071
10
-1955.008924386532
20
861.68165384708573
10
-1955.2569222871907
20
866.67549976393889
42
0.016530948053522811
10
-2020.4037723927272
20
861.27692800685099
10
-2017.366153890785
20
836.46206352601905
10
-2029.2772447671477
20
835.00401204029436
10
-2032.3148632690886
20
859.81887652112607
42
0.021471299665922615
10
-2115.9698999136967
20
845.38925385959658
10
-2112.9412371097023
20
819.27637261734719
10
-2124.8613294068959
20
817.8938388469146
10
-2127.7451597280888
20
842.75798635146896
42
0.00014094040193151421
10
-2128.2884430292747
20
842.6329397672032
42
1.0000000074505804
10
-2113.466285679222
20
778.31883826924991
42
-0.010977223117201904
10
-2073.7935898811547
20
786.54926485476767
10
-2061.8419099656012
20
815.1166608858324
10
-2050.7513753383646
20
810.47673781363687
10
-2048.476271409364
20
790.86097912521313
42
-0.06767070278299854
10
-1799.8571638017565
20
795.74411840000505
10
-1797.3611016993959
20
813.27314456370641
10
-1785.5138510118218
20
815.06561418761498
10
-1782.2596000548601
20
793.55678281152882
10
-1769.2118902929478
20
791.88717366891569
42
-0.34477742786543314
10
-1756.2156785513371
20
778.73665979228576
10
-1745.6695398081238
20
687.80872017401975
42
0.41421356237309837
10
-1717.9557355005691
20
665.85547324326762
10
-1711.1922104907014
20
666.63993040183436
42
0.41421356237309997
10
-1689.2389635599498
20
694.35373470938896
10
-1704.6455803392246
20
827.18831562453136
42
0.34477742786543519
10
-1730.6380038224447
20
853.4893433777911
10
-1733.8239647180053
20
853.89702484345071
10
-1736.997137434475
20
829.09922302733492
10
-1748.9000823062106
20
830.62234593123981
0
LWPOLYLINE
5
109
100
AcDbEntity
8
0
100
AcDbPolyline
90
4
70
1
43
0.0
10
-1758.3729879454236
20
87.932433592028218
10
-1760.3360221236064
20
142.89739058114347
10
-1748.3436678714361
20
143.32568894729241
10
-1746.3806336932532
20
88.360731958177183
0
LWPOLYLINE
5
110
100
AcDbEntity
8
0
100
AcDbPolyline
90
4
70
1
43
0.0
10
-1799.4215855621314
20
626.32150545226443
10
-1823.2162208016962
20
629.45444876743215
10
-1819.3000416577365
20
659.19774281688831
10
-1795.5054064181716
20
656.0647995017207
0
LWPOLYLINE
5
111
100
AcDbEntity
8
0
100
AcDbPolyline
90
4
70
1
43
0.0
10
-1766.409953916253
20
312.96748077523819
10
-1778.4023081684236
20
312.53918240908922
10
-1780.3653423466062
20
367.50413939820442
10
-1768.3729880944359
20
367.93243776435338
0
LWPOLYLINE
5
112
100
AcDbEntity
8
0
100
AcDbPolyline
90
10
70
1
43
0.0
10
-1773.9710044331823
20
43.12427338686188
42
-0.38128753452525854
10
-1788.8741342892533
20
56.422297919039863
42
-0.058864693749599246
10
-1786.9499101124009
20
551.87203684045039
42
0.35035897607509398
10
-1823.9175304093737
20
602.42191704873346
42
-0.53662451818918311
10
-1840.8669443583879
20
671.8524469983555
42
-0.0025597345758220291
10
-1829.0140208222424
20
682.57022899189087
42
-0.36007822915512311
10
-1786.9499101124011
20
683.5288246332783
42
-0.29135599414329594
10
-1722.3729874089825
20
561.93244065517854
42
0.058449583708517432
10
-1719.7942504306161
20
59.948298310018515
42
-0.45038605294450562
10
-1734.6829351636507
20
43.124273386861972
0
LWPOLYLINE
5
113
100
AcDbEntity
8
0
100
AcDbPolyline
90
4
70
1
43
0.0
10
-1864.4101266682389
20
180.35437627913518
10
-1875.852961513122
20
176.74030230192795
10
-1892.4174672419886
20
229.18662867430936
10
-1880.9746323971056
20
232.80070265151659
0
LWPOLYLINE
5
114
100
AcDbEntity
8
0
100
AcDbPolyline
90
4
70
1
43
0.0
10
-1943.6706135673248
20
391.4636856410998
10
-1955.1134484122078
20
387.84961166389252
10
-1971.6779541410742
20
440.29593803627392
10
-1960.235119296191
20
443.91001201348109
0
LWPOLYLINE
5
115
100
AcDbEntity
8
0
100
AcDbPolyline
90
4
70
1
43
0.0
10
-1996.1750039880521
20
708.69269101876068
10
-2017.5450272885689
20
697.76922526217152
10
-2031.1993594843052
20
724.48175438781755
10
-2009.8293361837884
20
735.40522014440648
0
LWPOLYLINE
5
116
100
AcDbEntity
8
0
100
AcDbPolyline
90
10
70
1
43
0.0
10
-1836.558016928183
20
157.2694032861059
42
-0.38128753452527014
10
-1846.1448933254017
20
139.74705935300577
10
-1883.162610693822
20
126.58495512308635
42
-0.45038605294449952
10
-1902.8272240842159
20
137.44882772455975
42
0.05844958370851671
10
-2068.5698723677997
20
611.28857235385112
42
-0.29135599414329572
10
-2048.4613252198978
20
747.49248519776893
42
-0.36007822915512216
10
-2008.5068421785541
20
760.68140480142813
42
-0.0025597345758111489
10
-1993.7482463008732
20
754.55388532497807
42
-0.53662451818909862
10
-1986.4579095106969
20
683.45724608100556
42
0.35035897607509281
10
-2004.3542872380272
20
623.44378922561634
42
-0.058864693749600024
0
LINE
5
117
100
AcDbEntity
8
0
100
AcDbLine
10
-1971.2503867324756
20
104.57152100050776
30
0
11
-1971.0038739774986
21
103.94098917247103
31
0
0
ARC
5
118
100
AcDbEntity
8
0
100
AcDbCircle
10
-1957.0336006806651
20
109.40280791825342
30
0
40
15.000000000000135
210
0
220
0
230
1
100
AcDbArc
50
201.3535129174432
51
277.44566308391239
0
LINE
5
119
100
AcDbEntity
8
0
100
AcDbLine
10
-1864.3241525510493
20
106.39125132469859
30
0
11
-1955.0898123470406
21
94.529284902031932
31
0
0
ARC
5
120
100
AcDbEntity
8
0
100
AcDbCircle
10
-1861.0845053283419
20
81.602046297663264
30
0
40
24.999999999999897
210
0
220
-0
230
1
100
AcDbArc
50
7.4456630839118798
51
97.445663083912166
0
LINE
5
121
100
AcDbEntity
8
0
100
AcDbLine
10
-1835.4129674682656
20
78.090239427771536
30
0
11
-1836.2953003013063
21
84.841693520370569
31
0
0
ARC
5
122
100
AcDbEntity
8
0
100
AcDbCircle
10
-1860.2021724953013
20
74.850592205063876
30
0
40
24.999999999999844
210
0
220
0
230
1
100
AcDbArc
50
-82.554336916087834
51
7.445663083912665
0
LINE
5
123
100
AcDbEntity
8
0
100
AcDbLine
10
-1989.5600352470185
20
32.732507350778015
30
0
11
-1856.9625252725939
21
50.061387178028497
31
0
0
ARC
5
124
100
AcDbEntity
8
0
100
AcDbCircle
10
-1993.4476119142678
20
62.479553383219951
30
0
40
29.99999999999946
210
0
220
0
230
1
100
AcDbArc
50
201.35351291744487
51
277.44566308391308
0
LINE
5
125
100
AcDbEntity
8
0
100
AcDbLine
10
-2022.5576936863433
20
54.547360103393572
30
0
11
-2021.3881585079341
21
51.555915891654507
31
0
0
LINE
5
126
100
AcDbEntity
8
0
100
AcDbLine
10
-1999.2739048582898
20
63.650391346364486
30
0
11
-2022.5576936863433
21
54.547360103393572
31
0
0
LINE
5
127
100
AcDbEntity
8
0
100
AcDbLine
10
-2003.6433598549152
20
74.826609983830451
30
0
11
-1999.2739048582898
21
63.650391346364486
31
0
0
LINE
5
128
100
AcDbEntity
8
0
100
AcDbLine
10
-2026.92714868297
20
65.723578740860418
30
0
11
-2003.6433598549152
21
74.826609983830451
31
0
0
LINE
5
129
100
AcDbEntity
8
0
100
AcDbLine
10
-2039.7634803850246
20
98.556426250670711
30
0
11
-2026.92714868297
21
65.723578740860418
31
0
0
ARC
5
130
100
AcDbEntity
8
0
100
AcDbCircle
10
-1118.7753270409992
20
458.62600067465308
30
0
40
988.87273044912399
210
0
220
0
230
1
100
AcDbArc
50
199.52400280580662
51
201.35351291744195
0
LINE
5
131
100
AcDbEntity
8
0
100
AcDbLine
10
-2027.1961489477681
20
136.18802085577363
30
0
11
-2050.7894253912914
21
128.14302455909328
31
0
0
LINE
5
132
100
AcDbEntity
8
0
100
AcDbLine
10
-2027.1961489477681
20
136.18802085577363
30
0
11
-2031.069026983093
21
147.54587345754194
31
0
0
LINE
5
133
100
AcDbEntity
8
0
100
AcDbLine
10
-2031.069026983093
20
147.54587345754194
30
0
11
-2054.7312199034436
21
139.4773775506153
31
0
0
ARC
5
134
100
AcDbEntity
8
0
100
AcDbCircle
10
-1118.7753270409992
20
458.62600067465308
30
0
40
988.87273044912013
210
0
220
0
230
1
100
AcDbArc
50
195.43537003581352
51
198.828699751393
0
LINE
5
135
100
AcDbEntity
8
0
100
AcDbLine
10
-2047.8403155402405
20
201.95486636173698
30
0
11
-2071.9806902759224
21
195.43631142737979
31
0
0
LINE
5
136
100
AcDbEntity
8
0
100
AcDbLine
10
-2047.8403155402405
20
201.95486636173698
30
0
11
-2050.9685981893203
21
213.53993639464872
31
0
0
LINE
5
137
100
AcDbEntity
8
0
100
AcDbLine
10
-2050.9685981893203
20
213.53993639464872
30
0
11
-2075.1042624371512
21
207.02265341957775
31
0
0
ARC
5
138
100
AcDbEntity
8
0
100
AcDbCircle
10
-1118.7753270409992
20
458.62600067465308
30
0
40
988.8727304491124
210
0
220
0
230
1
100
AcDbArc
50
191.91551082731482
51
194.74007972337083
0
LINE
5
139
100
AcDbEntity
8
0
100
AcDbLine
10
-2061.8486546599725
20
259.46759375725725
30
0
11
-2086.3409420368253
21
254.45436282151829
31
0
0
LINE
5
140
100
AcDbEntity
8
0
100
AcDbLine
10
-2061.8486546599725
20
259.46759375725725
30
0
11
-2064.2549966049755
21
271.22384819664927
31
0
0
LINE
5
141
100
AcDbEntity
8
0
100
AcDbLine
10
-2064.2549966049755
20
271.22384819664927
30
0
11
-2083.8487540039619
21
267.21327828831141
31
0
0
LINE
5
142
100
AcDbEntity
8
0
100
AcDbLine
10
-2083.8487540039619
20
267.21327828831141
30
0
11
-2088.7532167311811
21
266.24052685175735
31
0
0
ARC
5
143
100
AcDbEntity
8
0
100
AcDbCircle
10
-1118.7753270426706
20
458.62600067417418
30
0
40
988.87273044737742
210
0
220
0
230
1
100
AcDbArc
50
187.43018466437317
51
191.21845383251738
0
LINE
5
144
100
AcDbEntity
8
0
100
AcDbLine
10
-2074.5353329377804
20
333.829432451191
30
0
11
-2099.3446637000129
21
330.74694441463191
31
0
0
LINE
5
145
100
AcDbEntity
8
0
100
AcDbLine
10
-2074.5353329377804
20
333.829432451191
30
0
11
-2076.014921720428
21
345.73786715245484
31
0
0
LINE
5
146
100
AcDbEntity
8
0
100
AcDbLine
10
-2076.014921720428
20
345.73786715245484
30
0
11
-2100.8242524826601
21
342.65537911589558
31
0
0
ARC
5
147
100
AcDbEntity
8
0
100
AcDbCircle
10
-1118.7753270426706
20
458.62600067417418
30
0
40
988.87273044738276
210
0
220
0
230
1
100
AcDbArc
50
181.8147909936913
51
186.73489440940381
0
LINE
5
148
100
AcDbEntity
8
0
100
AcDbLine
10
-2081.0857796759892
20
430.71615059068245
30
0
11
-2107.1520570498906
21
427.3096055639831
31
0
0
LINE
5
149
100
AcDbEntity
8
0
100
AcDbLine
10
-2081.0857796759892
20
430.71615059068245
30
0
11
-2082.6408103428885
21
442.6149690036595
31
0
0
LINE
5
150
100
AcDbEntity
8
0
100
AcDbLine
10
-2082.6408103428885
20
442.6149690036595
30
0
11
-2107.4605826042011
21
439.37132701566918
31
0
0
ARC
5
151
100
AcDbEntity
8
0
100
AcDbCircle
10
-1118.7753283840357
20
458.62600064864284
30
0
40
988.8727291057761
210
0
220
0
230
1
100
AcDbArc
50
181.08339474757381
51
181.11569590821307
0
ARC
5
152
100
AcDbEntity
8
0
100
AcDbCircle
10
-2074.4771798163033
20
440.55266622851843
30
0
40
32.999999999999304
210
0
220
-0
230
1
100
AcDbArc
50
1.0833938938155592
51
181.08339474758898
0
ARC
5
153
100
AcDbEntity
8
0
100
AcDbCircle
10
-1118.7753270426706
20
458.62600067417418
30
0
40
922.87273044738538
210
0
220
0
230
1
100
AcDbArc
50
181.08339477811191
51
184.48626067573241
0
LINE
5
154
100
AcDbEntity
8
0
100
AcDbLine
10
-2057.4400042439224
20
372.52775154041603
30
0
11
-2038.8204855266936
21
386.4388622524807
31
0
0
LINE
5
155
100
AcDbEntity
8
0
100
AcDbLine
10
-2057.4400042439224
20
372.52775154041603
30
0
11
-2050.2577039211392
21
362.91450224200764
31
0
0
LINE
5
156
100
AcDbEntity
8
0
100
AcDbLine
10
-2050.2577039211392
20
362.91450224200764
30
0
11
-2036.8437569674575
21
364.58114659465218
31
0
0
ARC
5
157
100
AcDbEntity
8
0
100
AcDbCircle
10
-1118.7753270426706
20
458.62600067417418
30
0
40
922.87273044737958
210
0
220
0
230
1
100
AcDbArc
50
185.84884875531293
51
201.35351291745189
0
LINE
5
158
100
AcDbEntity
8
0
100
AcDbLine
10
-1997.4485554500723
20
114.12297571600536
30
0
11
-1978.2942778789586
21
122.58842873211314
31
0
0
LINE
5
159
100
AcDbEntity
8
0
100
AcDbLine
10
-1997.4485554500723
20
114.12297571600536
30
0
11
-1996.3071707128679
21
102.17738067508434
31
0
0
LINE
5
160
100
AcDbEntity
8
0
100
AcDbLine
10
-1996.3071707128679
20
102.17738067508434
30
0
11
-1971.2503867324756
21
104.57152100050776
31
0
0
LWPOLYLINE
5
161
100
AcDbEntity
8
0
100
AcDbPolyline
90
4
70
1
43
0.0
10
-1828.6607238518
20
566.79331767771885
10
-1939.0151236670295
20
581.79331767771873
10
-1939.0151236670295
20
561.79331767771873
10
-1828.6607238518
20
561.79331767771885
0
LWPOLYLINE
5
162
100
AcDbEntity
8
0
100
AcDbPolyline
90
4
70
1
43
0.0
10
-1803.6982712989218
20
748.62228194034151
10
-1914.0526711141513
20
763.62228194034151
10
-1914.0526711141513
20
743.62228194034151
10
-1803.698271298922
20
743.62228194034151
0
LINE
5
163
100
AcDbEntity
8
0
100
AcDbLine
10
-2118.812076684967
20
90.88977677552171
30
0
11
-2163.6916835154361
21
90.889776775521852
31
0
0
LINE
5
164
100
AcDbEntity
8
0
100
AcDbLine
10
-2163.6916835154361
20
90.889776775521852
30
0
11
-2163.6916835154361
21
104.91273486985438
31
0
0
LINE
5
165
100
AcDbEntity
8
0
100
AcDbLine
10
-2163.6916835154361
20
104.91273486985438
30
0
11
-2203.6916835154361
21
104.91273486985438
31
0
0
SPLINE
5
166
100
AcDbEntity
8
0
100
AcDbSpline
70
4
71
5
72
41
73
35
74
0
42
0.000000001
43
0.0000000001
44
0.0000000001
40
0
40
0
40
0
40
0
40
0
40
0
40
0.033333333333333333
40
0.066666666666666666
40
0.10000000000000001
40
0.13333333333333333
40
0.16666666666666666
40
0.19999999999999998
40
0.23333333333333331
40
0.26666666666666666
40
0.29999999999999999
40
0.33333333333333331
40
0.36666666666666664
40
0.39999999999999997
40
0.43333333333333329
40
0.46666666666666662
40
0.49999999999999994
40
0.53333333333333333
40
0.56666666666666665
40
0.59999999999999998
40
0.6333333333333333
40
0.66666666666666663
40
0.69999999999999996
40
0.73333333333333328
40
0.76666666666666661
40
0.79999999999999993
40
0.83333333333333326
40
0.86666666666666659
40
0.89999999999999991
40
0.93333333333333324
40
0.96666666666666656
40
1
40
1
40
1
40
1
40
1
40
1
41
1
41
1
41
1
41
1
41
1
41
1
41
1
41
1
41
1
41
1
41
1
41
1
41
1
41
1
41
1
41
1
41
1
41
1
41
1
41
1
41
1
41
1
41
1
41
1
41
1
41
1
41
1
41
1
41
1
41
1
41
1
41
1
41
1
41
1
41
1
10
-2618.3051357774402
20
104.91273486985436
30
0
10
-2615.579704460949
20
104.90382385887857
30
0
10
-2610.1335998412478
20
104.93918882854815
30
0
10
-2601.9787171550365
20
105.15179745575681
30
0
10
-2591.1341386928716
20
105.7549741628674
30
0
10
-2577.6241684209399
20
107.04017007412193
30
0
10
-2564.1536477271534
20
108.84585093350398
30
0
10
-2550.7095923241577
20
111.14604303653482
30
0
10
-2537.2697848620296
20
113.89300378404519
30
0
10
-2523.8007914818336
20
117.01126972037136
30
0
10
-2510.260518948663
20
120.39748482723928
30
0
10
-2496.6001869768475
20
123.91918082865267
30
0
10
-2482.7666395621377
20
127.41415414703546
30
0
10
-2468.7041322587102
20
130.68821923888771
30
0
10
-2454.3574343881764
20
133.51665782433452
30
0
10
-2439.6852222919774
20
135.67519623389504
30
0
10
-2424.6721854031907
20
136.96758096820128
30
0
10
-2409.3426802723666
20
137.25588685439038
30
0
10
-2393.7721919060168
20
136.48758344612492
30
0
10
-2378.105093150828
20
134.73169874384655
30
0
10
-2362.5290979338515
20
132.15402219190241
30
0
10
-2347.241517764086
20
128.98057374784548
30
0
10
-2332.4172925608773
20
125.46505204270345
30
0
10
-2318.1787652219746
20
121.85672822812718
30
0
10
-2304.5579439589446
20
118.36423174369783
30
0
10
-2291.481703842494
20
115.13401400927663
30
0
10
-2278.8143677300322
20
112.26636891246841
30
0
10
-2266.3899416532086
20
109.823993904551
30
0
10
-2254.0453396419784
20
107.84277500351153
30
0
10
-2241.6597190719253
20
106.34219399562967
30
0
10
-2229.1644203376391
20
105.33202650330212
30
0
10
-2219.0527346595982
20
104.91834027858319
30
0
10
-2211.3992798158456
20
104.82956228638132
30
0
10
-2206.266037914103
20
104.86863432350151
30
0
10
-2203.6916835154361
20
104.91273486985438
30
0
0
LINE
5
167
100
AcDbEntity
8
0
100
AcDbLine
10
-2658.3051357774402
20
104.91273486985435
30
0
11
-2618.3051357774402
21
104.91273486985436
31
0
0
LINE
5
168
100
AcDbEntity
8
0
100
AcDbLine
10
-2658.3051357774402
20
104.91273486985435
30
0
11
-2658.3051357774402
21
90.889776775521796
31
0
0
LINE
5
169
100
AcDbEntity
8
0
100
AcDbLine
10
-2705.7820766849673
20
90.889776775521923
30
0
11
-2658.3051357774402
21
90.889776775521796
31
0
0
ARC
5
170
100
AcDbEntity
8
0
100
AcDbCircle
10
-2705.7820766849663
20
80.889776775521582
30
0
40
10.000000000000338
210
0
220
0
230
1
100
AcDbArc
50
90.000000000005215
51
180
0
LINE
5
171
100
AcDbEntity
8
0
100
AcDbLine
10
-2715.7820766849673
20
80.889776775521923
30
0
11
-2715.7820766849673
21
70.889776775521923
31
0
0
ARC
5
172
100
AcDbEntity
8
0
100
AcDbCircle
10
-2705.7820766849673
20
70.889776775521611
30
0
40
10
210
0
220
0
230
1
100
AcDbArc
50
180
51
270
0
LINE
5
173
100
AcDbEntity
8
0
100
AcDbLine
10
-2705.7820766849673
20
60.889776775521611
30
0
11
-2658.3331428978754
21
60.889776775521909
31
0
0
LINE
5
174
100
AcDbEntity
8
0
100
AcDbLine
10
-2658.3331428978754
20
60.889776775521909
30
0
11
-2658.3331428978749
21
50.932022467873274
31
0
0
LINE
5
175
100
AcDbEntity
8
0
100
AcDbLine
10
-2658.3331428978749
20
50.932022467873274
30
0
11
-2618.4684085903968
21
50.932022467873139
31
0
0
SPLINE
5
176
100
AcDbEntity
8
0
100
AcDbSpline
70
4
71
5
72
41
73
35
74
0
42
0.000000001
43
0.0000000001
44
0.0000000001
40
0
40
0
40
0
40
0
40
0
40
0
40
0.033333333333333333
40
0.066666666666666666
40
0.10000000000000001
40
0.13333333333333333
40
0.16666666666666666
40
0.19999999999999998
40
0.23333333333333331
40
0.26666666666666666
40
0.29999999999999999
40
0.33333333333333331
40
0.36666666666666664
40
0.39999999999999997
40
0.43333333333333329
40
0.46666666666666662
40
0.49999999999999994
40
0.53333333333333333
40
0.56666666666666665
40
0.59999999999999998
40
0.6333333333333333
40
0.66666666666666663
40
0.69999999999999996
40
0.73333333333333328
40
0.76666666666666661
40
0.79999999999999993
40
0.83333333333333326
40
0.86666666666666659
40
0.89999999999999991
40
0.93333333333333324
40
0.96666666666666656
40
1
40
1
40
1
40
1
40
1
40
1
41
1
41
1
41
1
41
1
41
1
41
1
41
1
41
1
41
1
41
1
41
1
41
1
41
1
41
1
41
1
41
1
41
1
41
1
41
1
41
1
41
1
41
1
41
1
41
1
41
1
41
1
41
1
41
1
41
1
41
1
41
1
41
1
41
1
41
1
41
1
10
-2618.4684085903973
20
50.932022467873146
30
0
10
-2615.6032526459517
20
50.728737586490531
30
0
10
-2609.9108401489752
20
50.330333112109152
30
0
10
-2601.4859212348665
20
49.757222286710046
30
0
10
-2590.4804932752113
20
49.042154817872202
30
0
10
-2577.0938489419973
20
48.230561418212432
30
0
10
-2564.0442706101021
20
47.501626270970718
30
0
10
-2551.2627011364898
20
46.855502594562957
30
0
10
-2538.6296370930331
20
46.291792386510231
30
0
10
-2525.9652314834166
20
45.809330290118069
30
0
10
-2513.067808131349
20
45.406778891027145
30
0
10
-2499.7501128650324
20
45.08319059924878
30
0
10
-2485.8735288578887
20
44.838483055054809
30
0
10
-2471.3905661473918
20
44.674138161720613
30
0
10
-2456.3610054128008
20
44.59313180288639
30
0
10
-2440.9130462334083
20
44.598260337681026
30
0
10
-2425.2170495740825
20
44.69082752918262
30
0
10
-2409.4539939854735
20
44.869084903551567
30
0
10
-2393.7880887678575
20
45.126913476074236
30
0
10
-2378.3331771221633
20
45.451895092338319
30
0
10
-2363.1569898729026
20
45.827252184838692
30
0
10
-2348.293263702783
20
46.234567120606123
30
0
10
-2333.7510365593316
20
46.656298743104799
30
0
10
-2319.5244310974967
20
47.078168815064572
30
0
10
-2305.6030325300881
20
47.492121673204352
30
0
10
-2291.9784741993685
20
47.897392197023251
30
0
10
-2278.6431736353734
20
48.297838829117119
30
0
10
-2265.5907131775757
20
48.700048453263349
30
0
10
-2252.8155309194176
20
49.111301280911874
30
0
10
-2240.312790966429
20
49.537259673063694
30
0
10
-2228.0783419439226
20
49.981041043901662
30
0
10
-2218.5028822114709
20
50.351552007233963
30
0
10
-2211.4396827390465
20
50.638332404753058
30
0
10
-2206.7834083284429
20
50.833467758772187
30
0
10
-2204.4684024213161
20
50.932022467873153
30
0
0
LINE
5
177
100
AcDbEntity
8
0
100
AcDbLine
10
-2164.1671838395
20
50.932022467872891
30
0
11
-2204.4684024213161
21
50.932022467873168
31
0
0
LINE
5
178
100
AcDbEntity
8
0
100
AcDbLine
10
-2164.1671838395
20
60.889776775521973
30
0
11
-2164.1671838395
21
50.932022467872891
31
0
0
LINE
5
179
100
AcDbEntity
8
0
100
AcDbLine
10
-2164.1671838395
20
60.889776775521973
30
0
11
-2118.812076684967
21
60.889776775521831
31
0
0
ARC
5
180
100
AcDbEntity
8
0
100
AcDbCircle
10
-2118.8120766849665
20
70.889776775521241
30
0
40
9.9999999999994049
210
0
220
0
230
1
100
AcDbArc
50
-90.000000000002586
51
0
0
LINE
5
181
100
AcDbEntity
8
0
100
AcDbLine
10
-2108.812076684967
20
80.889776775521867
30
0
11
-2108.812076684967
21
70.88977677552171
31
0
0
ARC
5
182
100
AcDbEntity
8
0
100
AcDbCircle
10
-2118.8120766849665
20
80.889776775521796
30
0
40
9.9999999999997158
210
0
220
-0
230
1
100
AcDbArc
50
0
51
90.000000000002615
0
LWPOLYLINE
5
183
100
AcDbEntity
8
0
100
AcDbPolyline
90
8
70
1
43
0.0
10
-2124.691683515437
20
72.889776775522137
42
-0.41421356237309331
10
-2127.691683515437
20
69.889776775522037
10
-2139.691683515437
20
69.889776775521895
42
-0.41421356237430035
10
-2142.691683515437
20
72.889776775534358
10
-2142.6916835154366
20
78.889776775521938
42
-0.41421356237309681
10
-2139.691683515437
20
81.889776775521895
10
-2127.691683515437
20
81.889776775521909
42
-0.41421356237310542
10
-2124.691683515437
20
78.889776775521995
0
LWPOLYLINE
5
184
100
AcDbEntity
8
0
100
AcDbPolyline
90
8
70
1
43
0.0
10
-2697.3051357774402
20
78.889776775522037
42
-0.41421356237306728
10
-2694.3051357774402
20
81.889776775521867
10
-2682.3051357774398
20
81.88977677552144
42
-0.41421356237311063
10
-2679.3051357774402
20
78.889776775521739
10
-2679.3051357774398
20
72.889776775534415
42
-0.41421356237431251
10
-2682.3051357774398
20
69.889776775522009
10
-2694.3051357774407
20
69.889776775522549
42
-0.41421356237301354
10
-2697.3051357774398
20
72.889776775521824
0
LINE
5
185
100
AcDbEntity
8
0
100
AcDbLine
10
-2126.9111350229186
20
215.07533795749526
30
0
11
-2171.7907418533878
21
215.07533795749532
31
0
0
LINE
5
186
100
AcDbEntity
8
0
100
AcDbLine
10
-2171.7907418533878
20
215.07533795749532
30
0
11
-2171.7907418533878
21
229.09829605182782
31
0
0
LINE
5
187
100
AcDbEntity
8
0
100
AcDbLine
10
-2171.7907418533878
20
229.09829605182782
30
0
11
-2211.7907418533878
21
229.09829605182756
31
0
0
SPLINE
5
188
100
AcDbEntity
8
0
100
AcDbSpline
70
4
71
5
72
41
73
35
74
0
42
0.000000001
43
0.0000000001
44
0.0000000001
40
0
40
0
40
0
40
0
40
0
40
0
40
0.033333333333333333
40
0.066666666666666666
40
0.10000000000000001
40
0.13333333333333333
40
0.16666666666666666
40
0.19999999999999998
40
0.23333333333333331
40
0.26666666666666666
40
0.29999999999999999
40
0.33333333333333331
40
0.36666666666666664
40
0.39999999999999997
40
0.43333333333333329
40
0.46666666666666662
40
0.49999999999999994
40
0.53333333333333333
40
0.56666666666666665
40
0.59999999999999998
40
0.6333333333333333
40
0.66666666666666663
40
0.69999999999999996
40
0.73333333333333328
40
0.76666666666666661
40
0.79999999999999993
40
0.83333333333333326
40
0.86666666666666659
40
0.89999999999999991
40
0.93333333333333324
40
0.96666666666666656
40
1
40
1
40
1
40
1
40
1
40
1
41
1
41
1
41
1
41
1
41
1
41
1
41
1
41
1
41
1
41
1
41
1
41
1
41
1
41
1
41
1
41
1
41
1
41
1
41
1
41
1
41
1
41
1
41
1
41
1
41
1
41
1
41
1
41
1
41
1
41
1
41
1
41
1
41
1
41
1
41
1
10
-2626.4041941153914
20
229.09829605182665
30
0
10
-2623.6787627989002
20
229.08938504085071
30
0
10
-2618.2326581791995
20
229.12475001052016
30
0
10
-2610.0777754929877
20
229.33735863772881
30
0
10
-2599.2331970308232
20
229.94053534483939
30
0
10
-2585.7232267588915
20
231.22573125609406
30
0
10
-2572.252706065105
20
233.03141211547626
30
0
10
-2558.8086506621089
20
235.33160421850727
30
0
10
-2545.3688431999813
20
238.07856496601761
30
0
10
-2531.8998498197852
20
241.19683090234378
30
0
10
-2518.3595772866147
20
244.5830460092117
30
0
10
-2504.6992453147986
20
248.10474201062507
30
0
10
-2490.8656979000893
20
251.59971532900786
30
0
10
-2476.8031905966614
20
254.8737804208601
30
0
10
-2462.4564927261285
20
257.70221900630702
30
0
10
-2447.7842806299286
20
259.86075741586751
30
0
10
-2432.7712437411424
20
261.15314215017384
30
0
10
-2417.4417386103182
20
261.44144803636289
30
0
10
-2401.8712502439685
20
260.67314462809753
30
0
10
-2386.2041514887796
20
258.91725992581934
30
0
10
-2370.6281562718032
20
256.3395833738752
30
0
10
-2355.3405761020376
20
253.16613492981833
30
0
10
-2340.5163508988285
20
249.65061322467631
30
0
10
-2326.2778235599262
20
246.04228941010018
30
0
10
-2312.6570022968958
20
242.54979292567083
30
0
10
-2299.5807621804452
20
239.31957519124961
30
0
10
-2286.9134260679839
20
236.45193009444139
30
0
10
-2274.4889999911602
20
234.0095550865243
30
0
10
-2262.1443979799301
20
232.02833618548453
30
0
10
-2249.758777409877
20
230.52775517760267
30
0
10
-2237.2634786755907
20
229.51758768527526
30
0
10
-2227.1517929975494
20
229.10390146055619
30
0
10
-2219.4983381537968
20
229.0151234683546
30
0
10
-2214.3650962520546
20
229.05419550547478
30
0
10
-2211.7907418533878
20
229.09829605182765
30
0
0
LINE
5
189
100
AcDbEntity
8
0
100
AcDbLine
10
-2666.4041941153914
20
229.09829605182648
30
0
11
-2626.4041941153914
21
229.09829605182665
31
0
0
LINE
5
190
100
AcDbEntity
8
0
100
AcDbLine
10
-2666.4041941153914
20
229.09829605182648
30
0
11
-2666.4041941153914
21
215.07533795749393
31
0
0
LINE
5
191
100
AcDbEntity
8
0
100
AcDbLine
10
-2713.8811350229184
20
215.07533795749393
30
0
11
-2666.4041941153914
21
215.07533795749393
31
0
0
ARC
5
192
100
AcDbEntity
8
0
100
AcDbCircle
10
-2713.8811350229184
20
205.07533795749393
30
0
40
10
210
0
220
-0
230
1
100
AcDbArc
50
90
51
180
0
LINE
5
193
100
AcDbEntity
8
0
100
AcDbLine
10
-2723.8811350229184
20
205.07533795749373
30
0
11
-2723.8811350229184
21
195.07533795749364
31
0
0
ARC
5
194
100
AcDbEntity
8
0
100
AcDbCircle
10
-2713.8811350229184
20
195.07533795749356
30
0
40
10
210
0
220
0
230
1
100
AcDbArc
50
180
51
270
0
LINE
5
195
100
AcDbEntity
8
0
100
AcDbLine
10
-2713.8811350229184
20
185.07533795749356
30
0
11
-2666.4322012358261
21
185.0753379574939
31
0
0
LINE
5
196
100
AcDbEntity
8
0
100
AcDbLine
10
-2666.4322012358261
20
185.0753379574939
30
0
11
-2666.4322012358261
21
175.11758364984513
31
0
0
LINE
5
197
100
AcDbEntity
8
0
100
AcDbLine
10
-2666.4322012358261
20
175.11758364984513
30
0
11
-2626.567466928348
21
175.11758364984524
31
0
0
SPLINE
5
198
100
AcDbEntity
8
0
100
AcDbSpline
70
4
71
5
72
41
73
35
74
0
42
0.000000001
43
0.0000000001
44
0.0000000001
40
0
40
0
40
0
40
0
40
0
40
0
40
0.033333333333333333
40
0.066666666666666666
40
0.10000000000000001
40
0.13333333333333333
40
0.16666666666666666
40
0.19999999999999998
40
0.23333333333333331
40
0.26666666666666666
40
0.29999999999999999
40
0.33333333333333331
40
0.36666666666666664
40
0.39999999999999997
40
0.43333333333333329
40
0.46666666666666662
40
0.49999999999999994
40
0.53333333333333333
40
0.56666666666666665
40
0.59999999999999998
40
0.6333333333333333
40
0.66666666666666663
40
0.69999999999999996
40
0.73333333333333328
40
0.76666666666666661
40
0.79999999999999993
40
0.83333333333333326
40
0.86666666666666659
40
0.89999999999999991
40
0.93333333333333324
40
0.96666666666666656
40
1
40
1
40
1
40
1
40
1
40
1
41
1
41
1
41
1
41
1
41
1
41
1
41
1
41
1
41
1
41
1
41
1
41
1
41
1
41
1
41
1
41
1
41
1
41
1
41
1
41
1
41
1
41
1
41
1
41
1
41
1
41
1
41
1
41
1
41
1
41
1
41
1
41
1
41
1
41
1
41
1
10
-2626.567466928348
20
175.1175836498453
30
0
10
-2623.7023109839029
20
174.91429876846254
30
0
10
-2618.009898486926
20
174.51589429408116
30
0
10
-2609.5849795728182
20
173.94278346868219
30
0
10
-2598.579551613162
20
173.22771599984435
30
0
10
-2585.1929072799485
20
172.41612260018471
30
0
10
-2572.1433289480537
20
171.68718745294299
30
0
10
-2559.361759474441
20
171.04106377653525
30
0
10
-2546.7286954309843
20
170.47735356848239
30
0
10
-2534.0642898213673
20
169.99489147209036
30
0
10
-2521.1668664692997
20
169.59234007299943
30
0
10
-2507.8491712029836
20
169.26875178122134
30
0
10
-2493.9725871958399
20
169.02404423702723
30
0
10
-2479.489624485343
20
168.85969934369317
30
0
10
-2464.4600637507519
20
168.77869298485899
30
0
10
-2449.0121045713595
20
168.7838215196536
30
0
10
-2433.3161079120337
20
168.87638871115507
30
0
10
-2417.5530523234247
20
169.05464608552427
30
0
10
-2401.8871471058083
20
169.31247465804682
30
0
10
-2386.432235460115
20
169.63745627431086
30
0
10
-2371.2560482108538
20
170.01281336681143
30
0
10
-2356.3923220407337
20
170.420128302579
30
0
10
-2341.8500948972833
20
170.84185992507767
30
0
10
-2327.6234894354475
20
171.2637299970373
30
0
10
-2313.7020908680392
20
171.67768285517721
30
0
10
-2300.0775325373197
20
172.08295337899611
30
0
10
-2286.7422319733241
20
172.48340001108983
30
0
10
-2273.6897715155274
20
172.88560963523651
30
0
10
-2260.9145892573688
20
173.29686246288489
30
0
10
-2248.4118493043807
20
173.72282085503684
30
0
10
-2236.1774002818738
20
174.16660222587481
30
0
10
-2226.6019405494226
20
174.5371131892071
30
0
10
-2219.5387410769981
20
174.82389358672648
30
0
10
-2214.8824666663945
20
175.01902894074547
30
0
10
-2212.5674607592673
20
175.11758364984644
30
0
0
LINE
5
199
100
AcDbEntity
8
0
100
AcDbLine
10
-2172.2662421774517
20
175.11758364984618
30
0
11
-2212.5674607592673
21
175.11758364984644
31
0
0
LINE
5
200
100
AcDbEntity
8
0
100
AcDbLine
10
-2172.2662421774517
20
185.07533795749512
30
0
11
-2172.2662421774517
21
175.11758364984618
31
0
0
LINE
5
201
100
AcDbEntity
8
0
100
AcDbLine
10
-2172.2662421774517
20
185.07533795749512
30
0
11
-2126.9111350229186
21
185.07533795749509
31
0
0
ARC
5
202
100
AcDbEntity
8
0
100
AcDbCircle
10
-2126.9111350229186
20
195.07533795749507
30
0
40
9.9999999999999645
210
0
220
0
230
1
100
AcDbArc
50
-90
51
0
0
LINE
5
203
100
AcDbEntity
8
0
100
AcDbLine
10
-2116.9111350229186
20
205.07533795749512
30
0
11
-2116.9111350229186
21
195.07533795749515
31
0
0
ARC
5
204
100
AcDbEntity
8
0
100
AcDbCircle
10
-2126.9111350229186
20
205.07533795749495
30
0
40
10
210
0
220
-0
230
1
100
AcDbArc
50
0
51
90
0
LWPOLYLINE
5
205
100
AcDbEntity
8
0
100
AcDbPolyline
90
8
70
1
43
0.0
10
-2132.7907418533887
20
197.07533795749541
42
-0.41421356237309165
10
-2135.7907418533887
20
194.07533795749532
10
-2147.7907418533887
20
194.07533795749518
42
-0.41421356237431595
10
-2150.7907418533887
20
197.0753379575078
10
-2150.7907418533887
20
203.07533795749524
42
-0.41421356237309509
10
-2147.7907418533887
20
206.07533795749535
10
-2135.7907418533887
20
206.07533795749521
42
-0.41421356237307771
10
-2132.7907418533887
20
203.07533795749526
0
LWPOLYLINE
5
206
100
AcDbEntity
8
0
100
AcDbPolyline
90
8
70
1
43
0.0
10
-2705.404194115391
20
203.0753379574939
42
-0.41421356237306728
10
-2702.404194115391
20
206.07533795749373
10
-2690.404194115391
20
206.07533795749387
42
-0.41421356237308465
10
-2687.404194115391
20
203.07533795749384
10
-2687.4041941153919
20
197.07533795750629
42
-0.41421356237431251
10
-2690.404194115391
20
194.07533795749413
10
-2702.404194115391
20
194.07533795749384
42
-0.41421356237309853
10
-2705.404194115391
20
197.07533795749399
0
LWPOLYLINE
5
207
100
AcDbEntity
8
0
100
AcDbPolyline
90
16
70
1
43
0.0
10
-2136.7626711819553
20
309.71399927489102
42
-0.41421356237309509
10
-2146.7626711819553
20
299.71399927489102
10
-2601.376123443958
20
299.71399927489045
42
-0.41421356237309509
10
-2611.376123443958
20
309.71399927489045
10
-2611.376123443958
20
329.71399927489045
42
-0.41421356237309709
10
-2601.376123443958
20
339.71399927489051
10
-2591.376123443958
20
339.71399927489051
10
-2591.376123443958
20
319.71399927489057
10
-2579.3761234439576
20
319.71399927489045
10
-2579.3761234439576
20
339.71399927489051
10
-2168.7626711819557
20
339.71399927489102
10
-2168.7626711819553
20
319.71399927489114
10
-2156.7626711819553
20
319.71399927489097
10
-2156.7626711819553
20
339.71399927489102
10
-2146.7626711819553
20
339.71399927489108
42
-0.41421356237309509
10
-2136.7626711819553
20
329.71399927489108
0
LWPOLYLINE
5
208
100
AcDbEntity
8
0
100
AcDbPolyline
90
16
70
1
43
0.0
10
-2139.4934367725682
20
372.40789041787542
42
-0.41421356237309509
10
-2149.4934367725682
20
362.40789041787542
10
-2604.1068890345705
20
362.40789041787451
42
-0.41421356237309509
10
-2614.1068890345705
20
372.40789041787451
10
-2614.1068890345705
20
392.40789041787446
42
-0.41421356237309509
10
-2604.1068890345705
20
402.40789041787446
10
-2594.1068890345705
20
402.40789041787457
10
-2594.1068890345705
20
382.40789041787446
10
-2582.1068890345709
20
382.40789041787451
10
-2582.1068890345709
20
402.40789041787451
10
-2171.4934367725687
20
402.40789041787542
10
-2171.4934367725682
20
382.40789041787542
10
-2159.4934367725682
20
382.40789041787542
10
-2159.4934367725687
20
402.40789041787542
10
-2149.4934367725682
20
402.40789041787542
42
-0.41421356237309509
10
-2139.4934367725682
20
392.40789041787542
0
LWPOLYLINE
5
209
100
AcDbEntity
8
0
100
AcDbPolyline
90
16
70
1
43
0.0
10
-2144.6153639269178
20
442.90371242414716
42
-0.41421356237309509
10
-2154.6153639269178
20
432.90371242414716
10
-2609.2288161889201
20
432.90371242414608
42
-0.41421356237309509
10
-2619.2288161889201
20
442.90371242414608
10
-2619.2288161889201
20
462.90371242414602
42
-0.41421356237309709
10
-2609.2288161889201
20
472.90371242414608
10
-2599.2288161889201
20
472.90371242414614
10
-2599.2288161889201
20
452.90371242414608
10
-2587.2288161889201
20
452.90371242414608
10
-2587.2288161889196
20
472.90371242414614
10
-2176.6153639269178
20
472.90371242414716
10
-2176.6153639269173
20
452.90371242414716
10
-2164.6153639269178
20
452.90371242414716
10
-2164.6153639269178
20
472.90371242414716
10
-2154.6153639269178
20
472.90371242414716
42
-0.41421356237309509
10
-2144.6153639269178
20
462.90371242414716
0
LWPOLYLINE
5
210
100
AcDbEntity
8
0
100
AcDbPolyline
90
16
70
1
43
0.0
10
-2144.9243707482829
20
517.5252845673956
42
-0.41421356237309509
10
-2154.9243707482829
20
507.5252845673956
10
-2609.5378230102847
20
507.52528456739464
42
-0.41421356237311169
10
-2619.5378230102851
20
517.52528456739458
10
-2619.5378230102851
20
537.52528456739446
42
-0.4142135623730992
10
-2609.5378230102851
20
547.52528456739458
10
-2599.5378230102851
20
547.52528456739469
10
-2599.5378230102851
20
527.52528456739458
10
-2587.5378230102847
20
527.52528456739469
10
-2587.5378230102851
20
547.52528456739469
10
-2176.9243707482833
20
547.5252845673956
10
-2176.9243707482829
20
527.5252845673956
10
-2164.9243707482829
20
527.5252845673956
10
-2164.9243707482829
20
547.5252845673956
10
-2154.9243707482829
20
547.5252845673956
42
-0.41421356237309509
10
-2144.9243707482829
20
537.5252845673956
0
LWPOLYLINE
5
211
100
AcDbEntity
8
0
100
AcDbPolyline
90
16
70
1
43
0.0
10
-2149.861765107421
20
597.63106417543986
42
-0.41421356237309509
10
-2159.861765107421
20
587.63106417543986
10
-2614.4752173694233
20
587.63106417543906
42
-0.41421356237309509
10
-2624.4752173694233
20
597.63106417543906
10
-2624.4752173694233
20
617.63106417543895
42
-0.41421356237309709
10
-2614.4752173694233
20
627.63106417543906
10
-2604.4752173694233
20
627.63106417543906
10
-2604.4752173694233
20
607.63106417543906
10
-2592.4752173694237
20
607.63106417543906
10
-2592.4752173694237
20
627.63106417543918
10
-2181.8617651074214
20
627.63106417543975
10
-2181.861765107421
20
607.63106417543986
10
-2169.861765107421
20
607.63106417543975
10
-2169.8617651074214
20
627.63106417543986
10
-2159.861765107421
20
627.63106417543986
42
-0.41421356237309509
10
-2149.861765107421
20
617.63106417543986
0
LWPOLYLINE
5
212
100
AcDbEntity
8
0
100
AcDbPolyline
90
16
70
1
43
0.0
10
-2155.1417772969494
20
675.95338226469403
42
-0.41421356237309509
10
-2165.1417772969494
20
665.95338226469403
10
-2619.7552295589512
20
665.95338226469312
42
-0.41421356237309509
10
-2629.7552295589512
20
675.95338226469312
10
-2629.7552295589521
20
695.95338226469323
42
-0.41421356237309087
10
-2619.7552295589521
20
705.95338226469312
10
-2609.7552295589521
20
705.95338226469312
10
-2609.7552295589521
20
685.95338226469323
10
-2597.7552295589517
20
685.95338226469312
10
-2597.7552295589517
20
705.95338226469323
10
-2187.1417772969498
20
705.95338226469403
10
-2187.1417772969489
20
685.95338226469403
10
-2175.1417772969494
20
685.95338226469403
10
-2175.1417772969494
20
705.95338226469403
10
-2165.1417772969494
20
705.95338226469403
42
-0.41421356237309509
10
-2155.1417772969494
20
695.95338226469403
0
LWPOLYLINE
5
213
100
AcDbEntity
8
0
100
AcDbPolyline
90
20
70
1
43
0.0
10
-2777.3879390871662
20
109.86276146922873
42
-0.41421356237309515
10
-2790.0894279710378
20
116.08145748470403
10
-2826.1303399072322
20
221.26771464528167
42
-0.15503414972558771
10
-2827.4917429215379
20
281.81052003455926
10
-2730.257356959662
20
613.5283457110329
42
0.15503414972558782
10
-2730.8019181653849
20
637.74546786674387
10
-2758.1372327409408
20
717.52423244406532
42
-0.41421356237309509
10
-2751.9185367254654
20
730.22572132793687
10
-2732.9983518261179
20
736.70851419633334
42
-0.4142135623730846
10
-2720.2968629422462
20
730.48981818085838
10
-2709.9243935900213
20
700.21752241424781
10
-2705.1943480700165
20
701.83822038984408
10
-2686.9681222991776
20
648.64454775492118
42
-0.15503414972559587
10
-2685.6067192848732
20
588.10174236564296
10
-2782.8411052467482
20
256.38391668916927
42
0.15503414972558666
10
-2782.2965440410258
20
232.16679453345853
10
-2757.8914805369409
20
160.94003727755052
10
-2762.621526761779
20
159.319339060451
10
-2752.2490581723441
20
129.04704322149681
42
-0.41421356237310458
10
-2758.4677541878191
20
116.34555433762489
0
LWPOLYLINE
5
214
100
AcDbEntity
8
0
100
AcDbPolyline
90
20
70
1
43
0.0
10
-2874.9684473063485
20
105.10592940515316
42
-0.41421356237309515
10
-2887.6699361902201
20
111.32462542062846
10
-2923.7108481264154
20
216.51088258120575
42
-0.15503414972558746
10
-2925.0722511407207
20
277.05368797048351
10
-2827.8378651788453
20
608.77151364695726
42
0.15503414972558621
10
-2828.3824263845681
20
632.98863580266823
10
-2855.7177409601236
20
712.76740037998979
42
-0.41421356237309509
10
-2849.4990449446482
20
725.46888926386134
10
-2830.5788600453016
20
731.9516821322577
42
-0.41421356237308593
10
-2817.8773711614299
20
725.73298611678274
10
-2807.5049018092031
20
695.46069035017194
10
-2802.7748562891984
20
697.0813883257681
10
-2784.5486305183622
20
643.88771569084508
42
-0.15503414972558713
10
-2783.1872275040564
20
583.34491030156744
10
-2880.4216134659309
20
251.62708462509363
42
0.15503414972558568
10
-2879.877052260209
20
227.40996246938292
10
-2855.4719887561241
20
156.18320521347496
10
-2860.2020349809613
20
154.5625069963753
10
-2849.8295663915264
20
124.29021115742128
42
-0.41421356237310503
10
-2856.0482624070019
20
111.58872227354934
0
LWPOLYLINE
5
215
100
AcDbEntity
8
0
100
AcDbPolyline
90
20
70
1
43
0.0
10
-2981.1590407308499
20
106.53228625863365
10
-2976.5452013262493
20
108.45906749908507
10
-2987.3839829705116
20
134.41343989915964
42
-0.16032596585088943
10
-2988.8389562516841
20
153.1139025632101
10
-2880.532133304328
20
595.12295197044
42
0.16032596585087408
10
-2883.927070960397
20
638.7573648532242
10
-2908.9606572982807
20
698.70238853278556
10
-2913.5744967028809
20
696.77560729233414
10
-2925.9058966417697
20
726.30417948177728
42
0.41421356237308571
10
-2938.9871379318729
20
731.6782958100755
10
-2957.4424955502755
20
723.97117084827016
42
0.41421356237310392
10
-2962.8166118785743
20
710.88992955816593
10
-2929.3300609939852
20
630.70357277213043
42
-0.16032596585088477
10
-2927.8750877128132
20
612.00311010807991
10
-3036.1819106601679
20
169.9940607008495
42
0.16032596585088355
10
-3032.7869730040989
20
126.3596478180653
10
-3005.7383560287653
20
61.589464145579157
42
0.41421356237308943
10
-2992.6571147386621
20
56.215347817280794
10
-2974.2017571202596
20
63.92247277908632
42
0.41421356237310114
10
-2968.8276407919611
20
77.003714069190252
0
LWPOLYLINE
5
216
100
AcDbEntity
8
0
100
AcDbPolyline
90
20
70
1
43
0.0
10
-3074.6839188491522
20
87.472333520360053
10
-3070.0700794445515
20
89.399114760811443
10
-3080.9088610888139
20
115.35348716088622
42
-0.16032596585088885
10
-3082.3638343699859
20
134.05394982493669
10
-2974.0570114226302
20
576.06299923216625
42
0.16032596585087566
10
-2977.4519490786993
20
619.69741211495045
10
-3002.485535416582
20
679.64243579451204
10
-3007.0993748211827
20
677.71565455406051
10
-3019.4307747600715
20
707.24422674350376
42
0.41421356237308893
10
-3032.5120160501751
20
712.61834307180175
10
-3050.9673736685772
20
704.91121810999641
42
0.41421356237309631
10
-3056.3414899968761
20
691.82997681989252
10
-3022.8549391122879
20
611.64362003385668
42
-0.16032596585088363
10
-3021.399965831115
20
592.94315736980604
10
-3129.7067887784697
20
150.93410796257592
42
0.16032596585088485
10
-3126.3118511224002
20
107.29969507979156
10
-3099.2632341470676
20
42.529511407305392
42
0.41421356237309104
10
-3086.1819928569639
20
37.155395079007178
10
-3067.7266352385618
20
44.862520040812569
42
0.41421356237310114
10
-3062.3525189102634
20
57.943761330916495
0
LWPOLYLINE
5
217
100
AcDbEntity
8
0
100
AcDbPolyline
90
4
70
1
43
0.0
10
-2606.9416705666517
20
273.30748581597601
10
-2717.2960703818808
20
288.30748581597595
10
-2717.2960703818808
20
268.30748581597595
10
-2606.9416705666517
20
268.30748581597601
0
LWPOLYLINE
5
218
100
AcDbEntity
8
0
100
AcDbPolyline
90
4
70
1
43
0.0
10
-2787.3811079335019
20
58.08454245069548
10
-2897.7355077487309
20
73.084542450695395
10
-2897.7355077487309
20
53.084542450695402
10
-2787.3811079335014
20
53.08454245069548
0
LWPOLYLINE
5
219
100
AcDbEntity
8
0
100
AcDbPolyline
90
4
70
1
43
0.0
10
-2223.5262407085211
20
768.18800406445018
10
-2333.8806405237506
20
783.18800406445018
10
-2333.8806405237506
20
763.18800406445018
10
-2223.5262407085211
20
763.1880040644503
0
LWPOLYLINE
5
220
100
AcDbEntity
8
0
100
AcDbPolyline
90
4
70
1
43
0.0
10
-2222.4010637625688
20
823.32167441612626
10
-2332.7554635777983
20
838.32167441612626
10
-2332.7554635777983
20
818.32167441612626
10
-2222.4010637625688
20
818.32167441612637
0
LWPOLYLINE
5
221
100
AcDbEntity
8
0
100
AcDbPolyline
90
4
70
1
43
0.0
10
-2379.4363359955869
20
768.18800406445405
10
-2489.7907358108164
20
783.18800406445405
10
-2489.7907358108164
20
763.18800406445405
10
-2379.4363359955873
20
763.18800406445405
0
LWPOLYLINE
5
222
100
AcDbEntity
8
0
100
AcDbPolyline
90
4
70
1
43
0.0
10
-2378.3111590496346
20
823.32167441613035
10
-2488.6655588648641
20
838.32167441613035
10
-2488.6655588648641
20
818.32167441613035
10
-2378.3111590496351
20
818.32167441613035
0
LWPOLYLINE
5
223
100
AcDbEntity
8
0
100
AcDbPolyline
90
4
70
1
43
0.0
10
-2542.8731255378921
20
768.18800406445405
10
-2653.2275253531216
20
783.18800406445405
10
-2653.2275253531216
20
763.18800406445405
10
-2542.8731255378921
20
763.18800406445405
0
LWPOLYLINE
5
224
100
AcDbEntity
8
0
100
AcDbPolyline
90
4
70
1
43
0.0
10
-2541.7479485919393
20
823.32167441613012
10
-2652.1023484071684
20
838.32167441613012
10
-2652.1023484071693
20
818.32167441613012
10
-2541.7479485919393
20
818.32167441613012
0
LWPOLYLINE
5
225
100
AcDbEntity
8
0
100
AcDbPolyline
90
4
70
1
43
0.0
10
-2713.8366093354343
20
768.18800406445553
10
-2824.1910091506634
20
783.18800406445553
10
-2824.1910091506634
20
763.18800406445553
10
-2713.8366093354343
20
763.18800406445564
0
LWPOLYLINE
5
226
100
AcDbEntity
8
0
100
AcDbPolyline
90
4
70
1
43
0.0
10
-2712.7114323894821
20
823.32167441613149
10
-2823.0658322047111
20
838.32167441613149
10
-2823.0658322047111
20
818.32167441613149
10
-2712.7114323894821
20
818.3216744161316
0
LWPOLYLINE
5
227
100
AcDbEntity
8
0
100
AcDbPolyline
90
4
70
1
43
0.0
10
-2876.1981568412748
20
768.18800406445519
10
-2986.5525566565043
20
783.18800406445519
10
-2986.5525566565043
20
763.18800406445519
10
-2876.1981568412748
20
763.18800406445519
0
LWPOLYLINE
5
228
100
AcDbEntity
8
0
100
AcDbPolyline
90
4
70
1
43
0.0
10
-2875.0729798953225
20
823.32167441613149
10
-2985.4273797105525
20
838.32167441613149
10
-2985.4273797105534
20
818.32167441613149
10
-2875.0729798953234
20
818.32167441613149
0
LWPOLYLINE
5
229
100
AcDbEntity
8
0
100
AcDbPolyline
90
4
70
1
43
0.0
10
-3042.8606724929659
20
768.18800406445473
10
-3153.215072308195
20
783.18800406445473
10
-3153.215072308195
20
763.18800406445473
10
-3042.8606724929659
20
763.18800406445484
0
LWPOLYLINE
5
230
100
AcDbEntity
8
0
100
AcDbPolyline
90
4
70
1
43
0.0
10
-3041.7354955470146
20
823.32167441613137
10
-3152.0898953622441
20
838.32167441613137
10
-3152.0898953622441
20
818.32167441613137
10
-3041.7354955470146
20
818.32167441613149
0
ENDSEC
0
SECTION
2
OBJECTS
0
DICTIONARY
5
C
100
AcDbDictionary
3
ACAD_GROUP
350
D
3
ACAD_MLINESTYLE
350
17
0
DICTIONARY
5
D
100
AcDbDictionary
0
DICTIONARY
5
1A
330
C
100
AcDbDictionary
0
DICTIONARY
5
17
100
AcDbDictionary
0
ENDSEC
0
EOF
