0
SECTION
2
HEADER
9
$INSUNITS
70
4
9
$ACADVER
1
AC1014
9
$HANDSEED
5
FFFF
0
ENDSEC
0
SECTION
2
TABLES
0
TABLE
2
VPORT
5
8
100
AcDbSymbolTable
0
ENDTAB
0
TABLE
2
LTYPE
5
5
100
AcDbSymbolTable
0
LTYPE
5
14
100
AcDbSymbolTableRecord
100
AcDbLinetypeTableRecord
2
BYBLOCK
70
0
0
LTYPE
5
15
100
AcDbSymbolTableRecord
100
AcDbLinetypeTableRecord
2
BYLAYER
70
0
0
ENDTAB
0
TABLE
2
LAYER
5
2
100
AcDbSymbolTable
70
2
0
LAYER
5
50
100
AcDbSymbolTableRecord
100
AcDbLayerTableRecord
2
0
70
0
6
CONTINUOUS
0
ENDTAB
0
TABLE
2
STYLE
5
3
100
AcDbSymbolTable
70
1
0
STYLE
5
11
100
AcDbSymbolTableRecord
100
AcDbTextStyleTableRecord
2
STANDARD
70
0
0
ENDTAB
0
TABLE
2
VIEW
5
6
100
AcDbSymbolTable
70
0
0
ENDTAB
0
TABLE
2
UCS
5
7
100
AcDbSymbolTable
70
0
0
ENDTAB
0
TABLE
2
APPID
5
9
100
AcDbSymbolTable
70
2
0
APPID
5
12
100
AcDbSymbolTableRecord
100
AcDbRegAppTableRecord
2
ACAD
70
0
0
ENDTAB
0
TABLE
2
DIMSTYLE
5
A
100
AcDbSymbolTable
70
1
0
ENDTAB
0
TABLE
2
BLOCK_RECORD
5
1
100
AcDbSymbolTable
70
1
0
BLOCK_RECORD
5
1F
100
AcDbSymbolTableRecord
100
AcDbBlockTableRecord
2
*MODEL_SPACE
0
BLOCK_RECORD
5
1B
100
AcDbSymbolTableRecord
100
AcDbBlockTableRecord
2
*PAPER_SPACE
0
ENDTAB
0
ENDSEC
0
SECTION
2
BLOCKS
0
BLOCK
5
20
100
AcDbEntity
100
AcDbBlockBegin
2
*MODEL_SPACE
0
ENDBLK
5
21
100
AcDbEntity
100
AcDbBlockEnd
0
BLOCK
5
1C
100
AcDbEntity
100
AcDbBlockBegin
2
*PAPER_SPACE
0
ENDBLK
5
1D
100
AcDbEntity
100
AcDbBlockEnd
0
ENDSEC
0
SECTION
2
ENTITIES
0
LWPOLYLINE
5
100
100
AcDbEntity
8
0
100
AcDbPolyline
90
26
70
1
43
0.0
10
-1.1851403548913031
20
18.991738416911275
10
-1.1851403548913009
20
24.991738416911279
10
-24.997657753920226
20
24.991738416911279
10
-24.997657753920226
20
1.1849523379090019
10
-18.997657754315341
20
1.185021195842715
10
-18.997632506152367
20
-1.0149788040124035
10
-24.997657753920226
20
-1.014997506769264
10
-24.99765775392023
20
-23.54022742387793
10
-21.445543834470271
20
-19.984593923918194
10
-19.888632934219316
20
-21.538951813427477
10
-23.436941266945936
20
-25.095642078879109
10
1.1038020418847181
20
-25.095642078877766
10
1.1023422460797552
20
-19.095642612432094
10
-1.0976577539201962
20
-19.095643078879096
10
-1.0976577539201937
20
-25.095642078879095
10
24.98588486932746
20
-25.095642078879081
10
24.985884869318291
20
-1.1082615830887219
10
18.985884869318287
20
-1.108261583088723
10
18.985884869318287
20
1.0917384169112785
10
24.985884869318291
20
1.0917384169112765
10
24.985884869318294
20
23.37280479004172
10
21.5136496716447
20
19.900569592368139
10
19.958014753034313
20
21.456204510978548
10
23.493548658967043
20
24.991738416911279
10
1.0148596451086971
20
24.991738416911279
10
1.0148596451086971
20
18.991738416911275
0
LINE
5
101
100
AcDbEntity
8
0
100
AcDbLine
10
14.17994975661291
20
-14.185869093621138
30
0
11
-14.104321490848989
21
14.09840215384077
31
0
0
LINE
5
102
100
AcDbEntity
8
0
100
AcDbLine
10
15.947716709579138
20
-15.953636046581327
30
0
11
24.985884869327421
21
-24.991804206336433
31
0
0
LINE
5
103
100
AcDbEntity
8
0
100
AcDbLine
10
-24.997657753920226
20
24.991738416911279
30
0
11
-15.872088443821337
21
15.866169106813102
31
0
0
LINE
5
104
100
AcDbEntity
8
0
100
AcDbLine
10
-22.876337410359859
20
24.991738416911279
30
0
11
-0.0029596579675956326
21
2.1183606645190145
31
0
0
LINE
5
105
100
AcDbEntity
8
0
100
AcDbLine
10
1.7648072949986782
20
0.35059371155274399
30
0
11
24.985884869326608
21
-22.870483862775227
31
0
0
LINE
5
106
100
AcDbEntity
8
0
100
AcDbLine
10
-0.35651304856096611
20
-1.7707266320068991
30
0
11
22.96840239831117
21
-25.095642078879081
31
0
0
LINE
5
107
100
AcDbEntity
8
0
100
AcDbLine
10
12.058629413053266
20
-16.307189437180782
30
0
11
-16.225641834408634
21
11.977081810281128
31
0
0
LINE
5
108
100
AcDbEntity
8
0
100
AcDbLine
10
13.826396366019493
20
-18.074956390140969
30
0
11
20.847082054752306
21
-25.095642078879084
31
0
0
LINE
5
109
100
AcDbEntity
8
0
100
AcDbLine
10
-24.997657753920226
20
22.870418073352354
30
0
11
-2.1242800015272398
21
-0.0029596790406286782
31
0
0
LINE
5
110
100
AcDbEntity
8
0
100
AcDbLine
10
-24.997657753920226
20
20.749097729792155
30
0
11
-17.993408787380982
21
13.744848763253458
31
0
0
LINE
5
111
100
AcDbEntity
8
0
100
AcDbLine
10
-2.4778333921206102
20
-3.8920469755665419
30
0
11
18.72576171119189
21
-25.095642078879084
31
0
0
LINE
5
112
100
AcDbEntity
8
0
100
AcDbLine
10
9.9373090694936241
20
-18.428509780740423
30
0
11
-18.346962177968276
21
9.8557614667214839
31
0
0
LINE
5
113
100
AcDbEntity
8
0
100
AcDbLine
10
11.705076022459851
20
-20.196276733700614
30
0
11
16.604441367634625
21
-25.095642078879084
31
0
0
LINE
5
114
100
AcDbEntity
8
0
100
AcDbLine
10
-24.997657753920226
20
18.627777386233063
30
0
11
-4.245600345086884
21
-2.1242800226002716
31
0
0
LINE
5
115
100
AcDbEntity
8
0
100
AcDbLine
10
-24.997657753920226
20
16.506457042673034
30
0
11
-20.114729130940624
21
11.623528419693816
31
0
0
LINE
5
116
100
AcDbEntity
8
0
100
AcDbLine
10
3.8861276385583228
20
2.4719140551123875
30
0
11
24.985884869324984
21
-18.62784317565432
31
0
0
LINE
5
117
100
AcDbEntity
8
0
100
AcDbLine
10
16.301270100172555
20
-12.064548750061494
30
0
11
-11.983001147289343
21
16.219722497400411
31
0
0
LINE
5
118
100
AcDbEntity
8
0
100
AcDbLine
10
-18.633696723240579
20
24.991738416911279
30
0
11
2.1183606855920489
21
4.2396810080786569
31
0
0
LINE
5
119
100
AcDbEntity
8
0
100
AcDbLine
10
-20.755017066800768
20
24.991738416911279
30
0
11
-13.750768100261691
21
17.987489450372745
31
0
0
LINE
5
120
100
AcDbEntity
8
0
100
AcDbLine
10
18.069037053138782
20
-13.832315703021685
30
0
11
24.985884869325798
21
-20.749163519213923
31
0
0
LINE
5
121
100
AcDbEntity
8
0
100
AcDbLine
10
6.0074479821179674
20
4.5932343986720312
30
0
11
24.985884869323364
21
-14.385202488533402
31
0
0
LINE
5
122
100
AcDbEntity
8
0
100
AcDbLine
10
18.422590443732201
20
-9.9432284065018521
30
0
11
-9.8616808037296977
21
18.341042840960057
31
0
0
LINE
5
123
100
AcDbEntity
8
0
100
AcDbLine
10
-14.391056036121286
20
24.991738416911279
30
0
11
4.2396810291516935
21
6.3610013516383015
31
0
0
LINE
5
124
100
AcDbEntity
8
0
100
AcDbLine
10
-16.512376379681314
20
24.991738416911279
30
0
11
-11.629447756702049
21
20.108809793932387
31
0
0
LINE
5
125
100
AcDbEntity
8
0
100
AcDbLine
10
20.190357396698428
20
-11.710995359462043
30
0
11
24.985884869324178
21
-16.506522832091409
31
0
0
ENDSEC
0
SECTION
2
OBJECTS
0
DICTIONARY
5
C
100
AcDbDictionary
3
ACAD_GROUP
350
D
3
ACAD_MLINESTYLE
350
17
0
DICTIONARY
5
D
100
AcDbDictionary
0
DICTIONARY
5
1A
330
C
100
AcDbDictionary
0
DICTIONARY
5
17
100
AcDbDictionary
0
ENDSEC
0
EOF
