  0
SECTION
  2
HEADER
  9
$ACADVER
  1
AC1032
  9
$ACADMAINTVER
 90
       55
  9
$DWGCODEPAGE
  3
ANSI_1252
  9
$LASTSAVEDBY
  1
Alumno
  9
$REQUIREDVERSIONS
160
                 0
  9
$INSBASE
 10
0.0
 20
0.0
 30
0.0
  9
$EXTMIN
 10
22.23705072145051
 20
32.14047054858653
 30
0.0
  9
$EXTMAX
 10
246.4669657134083
 20
427.1474845666072
 30
0.0
  9
$LIMMIN
 10
0.0
 20
0.0
  9
$LIMMAX
 10
12.0
 20
9.0
  9
$ORTHOMODE
 70
     0
  9
$REGENMODE
 70
     1
  9
$FILLMODE
 70
     1
  9
$QTEXTMODE
 70
     0
  9
$MIRRTEXT
 70
     1
  9
$LTSCALE
 40
1.0
  9
$ATTMODE
 70
     1
  9
$TEXTSIZE
 40
0.2
  9
$TRACEWID
 40
0.05
  9
$TEXTSTYLE
  7
Standard
  9
$CLAYER
  8
0
  9
$CELTYPE
  6
ByLayer
  9
$CECOLOR
 62
   256
  9
$CELTSCALE
 40
1.0
  9
$DISPSILH
 70
     0
  9
$DIMSCALE
 40
1.0
  9
$DIMASZ
 40
0.18
  9
$DIMEXO
 40
0.0625
  9
$DIMDLI
 40
0.38
  9
$DIMRND
 40
0.0
  9
$DIMDLE
 40
0.0
  9
$DIMEXE
 40
0.18
  9
$DIMTP
 40
0.0
  9
$DIMTM
 40
0.0
  9
$DIMTXT
 40
0.18
  9
$DIMCEN
 40
0.09
  9
$DIMTSZ
 40
0.0
  9
$DIMTOL
 70
     0
  9
$DIMLIM
 70
     0
  9
$DIMTIH
 70
     1
  9
$DIMTOH
 70
     1
  9
$DIMSE1
 70
     0
  9
$DIMSE2
 70
     0
  9
$DIMTAD
 70
     0
  9
$DIMZIN
 70
     0
  9
$DIMBLK
  1

  9
$DIMASO
 70
     1
  9
$DIMSHO
 70
     1
  9
$DIMPOST
  1

  9
$DIMAPOST
  1

  9
$DIMALT
 70
     0
  9
$DIMALTD
 70
     2
  9
$DIMALTF
 40
25.4
  9
$DIMLFAC
 40
1.0
  9
$DIMTOFL
 70
     0
  9
$DIMTVP
 40
0.0
  9
$DIMTIX
 70
     0
  9
$DIMSOXD
 70
     0
  9
$DIMSAH
 70
     0
  9
$DIMBLK1
  1

  9
$DIMBLK2
  1

  9
$DIMSTYLE
  2
Standard
  9
$DIMCLRD
 70
     0
  9
$DIMCLRE
 70
     0
  9
$DIMCLRT
 70
     0
  9
$DIMTFAC
 40
1.0
  9
$DIMGAP
 40
0.09
  9
$DIMJUST
 70
     0
  9
$DIMSD1
 70
     0
  9
$DIMSD2
 70
     0
  9
$DIMTOLJ
 70
     1
  9
$DIMTZIN
 70
     0
  9
$DIMALTZ
 70
     0
  9
$DIMALTTZ
 70
     0
  9
$DIMUPT
 70
     0
  9
$DIMDEC
 70
     4
  9
$DIMTDEC
 70
     4
  9
$DIMALTU
 70
     2
  9
$DIMALTTD
 70
     2
  9
$DIMTXSTY
  7
Standard
  9
$DIMAUNIT
 70
     0
  9
$DIMADEC
 70
     0
  9
$DIMALTRND
 40
0.0
  9
$DIMAZIN
 70
     0
  9
$DIMDSEP
 70
    46
  9
$DIMATFIT
 70
     3
  9
$DIMFRAC
 70
     0
  9
$DIMLDRBLK
  1

  9
$DIMLUNIT
 70
     2
  9
$DIMLWD
 70
    -2
  9
$DIMLWE
 70
    -2
  9
$DIMTMOVE
 70
     0
  9
$DIMFXL
 40
1.0
  9
$DIMFXLON
 70
     0
  9
$DIMJOGANG
 40
0.7853981633974483
  9
$DIMTFILL
 70
     0
  9
$DIMTFILLCLR
 70
     0
  9
$DIMARCSYM
 70
     0
  9
$DIMLTYPE
  6

  9
$DIMLTEX1
  6

  9
$DIMLTEX2
  6

  9
$DIMTXTDIRECTION
 70
     0
  9
$LUNITS
 70
     2
  9
$LUPREC
 70
     4
  9
$SKETCHINC
 40
0.1
  9
$FILLETRAD
 40
0.5
  9
$AUNITS
 70
     0
  9
$AUPREC
 70
     0
  9
$MENU
  1
.
  9
$ELEVATION
 40
0.0
  9
$PELEVATION
 40
0.0
  9
$THICKNESS
 40
0.0
  9
$LIMCHECK
 70
     0
  9
$CHAMFERA
 40
0.5
  9
$CHAMFERB
 40
0.5
  9
$CHAMFERC
 40
1.0
  9
$CHAMFERD
 40
0.0
  9
$SKPOLY
 70
     0
  9
$TDCREATE
 40
2459117.451388889
  9
$TDUCREATE
 40
2459117.368058808
  9
$TDUPDATE
 40
2459117.453182871
  9
$TDUUPDATE
 40
2459117.369849537
  9
$TDINDWG
 40
0.0017592708
  9
$TDUSRTIMER
 40
0.0017592708
  9
$USRTIMER
 70
     1
  9
$ANGBASE
 50
0.0
  9
$ANGDIR
 70
     0
  9
$PDMODE
 70
     0
  9
$PDSIZE
 40
0.0
  9
$PLINEWID
 40
0.0
  9
$SPLFRAME
 70
     0
  9
$SPLINETYPE
 70
     6
  9
$SPLINESEGS
 70
     8
  9
$HANDSEED
  5
152
  9
$SURFTAB1
 70
     6
  9
$SURFTAB2
 70
     6
  9
$SURFTYPE
 70
     6
  9
$SURFU
 70
     6
  9
$SURFV
 70
     6
  9
$UCSBASE
  2

  9
$UCSNAME
  2

  9
$UCSORG
 10
0.0
 20
0.0
 30
0.0
  9
$UCSXDIR
 10
1.0
 20
0.0
 30
0.0
  9
$UCSYDIR
 10
0.0
 20
1.0
 30
0.0
  9
$UCSORTHOREF
  2

  9
$UCSORTHOVIEW
 70
     0
  9
$UCSORGTOP
 10
0.0
 20
0.0
 30
0.0
  9
$UCSORGBOTTOM
 10
0.0
 20
0.0
 30
0.0
  9
$UCSORGLEFT
 10
0.0
 20
0.0
 30
0.0
  9
$UCSORGRIGHT
 10
0.0
 20
0.0
 30
0.0
  9
$UCSORGFRONT
 10
0.0
 20
0.0
 30
0.0
  9
$UCSORGBACK
 10
0.0
 20
0.0
 30
0.0
  9
$PUCSBASE
  2

  9
$PUCSNAME
  2

  9
$PUCSORG
 10
0.0
 20
0.0
 30
0.0
  9
$PUCSXDIR
 10
1.0
 20
0.0
 30
0.0
  9
$PUCSYDIR
 10
0.0
 20
1.0
 30
0.0
  9
$PUCSORTHOREF
  2

  9
$PUCSORTHOVIEW
 70
     0
  9
$PUCSORGTOP
 10
0.0
 20
0.0
 30
0.0
  9
$PUCSORGBOTTOM
 10
0.0
 20
0.0
 30
0.0
  9
$PUCSORGLEFT
 10
0.0
 20
0.0
 30
0.0
  9
$PUCSORGRIGHT
 10
0.0
 20
0.0
 30
0.0
  9
$PUCSORGFRONT
 10
0.0
 20
0.0
 30
0.0
  9
$PUCSORGBACK
 10
0.0
 20
0.0
 30
0.0
  9
$USERI1
 70
     0
  9
$USERI2
 70
     0
  9
$USERI3
 70
     0
  9
$USERI4
 70
     0
  9
$USERI5
 70
     0
  9
$USERR1
 40
0.0
  9
$USERR2
 40
0.0
  9
$USERR3
 40
0.0
  9
$USERR4
 40
0.0
  9
$USERR5
 40
0.0
  9
$WORLDVIEW
 70
     1
  9
$SHADEDGE
 70
     3
  9
$SHADEDIF
 70
    70
  9
$TILEMODE
 70
     1
  9
$MAXACTVP
 70
    64
  9
$PINSBASE
 10
0.0
 20
0.0
 30
0.0
  9
$PLIMCHECK
 70
     0
  9
$PEXTMIN
 10
1.000000000000000E+20
 20
1.000000000000000E+20
 30
1.000000000000000E+20
  9
$PEXTMAX
 10
-1.000000000000000E+20
 20
-1.000000000000000E+20
 30
-1.000000000000000E+20
  9
$PLIMMIN
 10
0.0
 20
0.0
  9
$PLIMMAX
 10
12.0
 20
9.0
  9
$UNITMODE
 70
     0
  9
$VISRETAIN
 70
     1
  9
$PLINEGEN
 70
     0
  9
$PSLTSCALE
 70
     1
  9
$TREEDEPTH
 70
  3020
  9
$CMLSTYLE
  2
Standard
  9
$CMLJUST
 70
     0
  9
$CMLSCALE
 40
1.0
  9
$PROXYGRAPHICS
 70
     1
  9
$MEASUREMENT
 70
     0
  9
$CELWEIGHT
370
    -1
  9
$ENDCAPS
280
     0
  9
$JOINSTYLE
280
     0
  9
$LWDISPLAY
290
     1
  9
$INSUNITS
 70
     1
  9
$HYPERLINKBASE
  1

  9
$STYLESHEET
  1

  9
$XEDIT
290
     1
  9
$CEPSNTYPE
380
     0
  9
$PSTYLEMODE
290
     1
  9
$FINGERPRINTGUID
  2
{F9E6249C-54CF-4DA7-9863-842E3C0F0292}
  9
$VERSIONGUID
  2
{A7A13AC1-E939-304A-9862-DC2EF9139C88}
  9
$EXTNAMES
290
     1
  9
$PSVPSCALE
 40
0.0
  9
$OLESTARTUP
290
     0
  9
$SORTENTS
280
   127
  9
$INDEXCTL
280
     0
  9
$HIDETEXT
280
     1
  9
$XCLIPFRAME
280
     0
  9
$HALOGAP
280
     0
  9
$OBSCOLOR
 70
   257
  9
$OBSLTYPE
280
     0
  9
$INTERSECTIONDISPLAY
280
     0
  9
$INTERSECTIONCOLOR
 70
   257
  9
$DIMASSOC
280
     2
  9
$PROJECTNAME
  1

  9
$CAMERADISPLAY
290
     0
  9
$LENSLENGTH
 40
50.0
  9
$CAMERAHEIGHT
 40
0.0
  9
$STEPSPERSEC
 40
2.0
  9
$STEPSIZE
 40
6.0
  9
$3DDWFPREC
 40
2.0
  9
$PSOLWIDTH
 40
0.25
  9
$PSOLHEIGHT
 40
4.0
  9
$LOFTANG1
 40
1.570796326794897
  9
$LOFTANG2
 40
1.570796326794897
  9
$LOFTMAG1
 40
0.0
  9
$LOFTMAG2
 40
0.0
  9
$LOFTPARAM
 70
     7
  9
$LOFTNORMALS
280
     1
  9
$LATITUDE
 40
37.795
  9
$LONGITUDE
 40
-122.394
  9
$NORTHDIRECTION
 40
0.0
  9
$TIMEZONE
 70
 -8000
  9
$LIGHTGLYPHDISPLAY
280
     1
  9
$TILEMODELIGHTSYNCH
280
     1
  9
$CMATERIAL
347
3C
  9
$SOLIDHIST
280
     1
  9
$SHOWHIST
280
     1
  9
$DWFFRAME
280
     2
  9
$DGNFRAME
280
     2
  9
$REALWORLDSCALE
290
     1
  9
$INTERFERECOLOR
 62
   256
  9
$INTERFEREOBJVS
345
33
  9
$INTERFEREVPVS
346
112
  9
$CSHADOW
280
     0
  9
$SHADOWPLANELOCATION
 40
0.0
  0
ENDSEC
  0
SECTION
  2
CLASSES
  0
CLASS
  1
ACDBDICTIONARYWDFLT
  2
AcDbDictionaryWithDefault
  3
ObjectDBX Classes
 90
        0
 91
        1
280
     0
281
     0
  0
CLASS
  1
VISUALSTYLE
  2
AcDbVisualStyle
  3
ObjectDBX Classes
 90
     4095
 91
       26
280
     0
281
     0
  0
CLASS
  1
MATERIAL
  2
AcDbMaterial
  3
ObjectDBX Classes
 90
     1153
 91
        3
280
     0
281
     0
  0
CLASS
  1
SUN
  2
AcDbSun
  3
SCENEOE
 90
     1153
 91
        1
280
     0
281
     0
  0
CLASS
  1
TABLESTYLE
  2
AcDbTableStyle
  3
ObjectDBX Classes
 90
     4095
 91
        1
280
     0
281
     0
  0
CLASS
  1
SCALE
  2
AcDbScale
  3
ObjectDBX Classes
 90
     1153
 91
       17
280
     0
281
     0
  0
CLASS
  1
MLEADERSTYLE
  2
AcDbMLeaderStyle
  3
ACDB_MLEADERSTYLE_CLASS
 90
     4095
 91
        1
280
     0
281
     0
  0
CLASS
  1
ACDBSECTIONVIEWSTYLE
  2
AcDbSectionViewStyle
  3
ObjectDBX Classes
 90
     1025
 91
        1
280
     0
281
     0
  0
CLASS
  1
ACDBDETAILVIEWSTYLE
  2
AcDbDetailViewStyle
  3
ObjectDBX Classes
 90
     1025
 91
        1
280
     0
281
     0
  0
CLASS
  1
RAPIDRTRENDERSETTINGS
  2
AcDbRapidRTRenderSettings
  3
ObjectDBX Classes
 90
     1024
 91
        7
280
     0
281
     0
  0
CLASS
  1
DICTIONARYVAR
  2
AcDbDictionaryVar
  3
ObjectDBX Classes
 90
        0
 91
        7
280
     0
281
     0
  0
CLASS
  1
CELLSTYLEMAP
  2
AcDbCellStyleMap
  3
ObjectDBX Classes
 90
     1152
 91
        1
280
     0
281
     0
  0
ENDSEC
  0
SECTION
  2
TABLES
  0
TABLE
  2
VPORT
  5
8
330
0
100
AcDbSymbolTable
 70
     1
  0
VPORT
  5
29
330
8
100
AcDbSymbolTableRecord
100
AcDbViewportTableRecord
  2
*Active
 70
     0
 10
0.0
 20
0.0
 11
1.0
 21
1.0
 12
-519.0708420853407
 22
-33.68688193765411
 13
0.0
 23
0.0
 14
0.5
 24
0.5
 15
0.5
 25
0.5
 16
0.0
 26
0.0
 36
1.0
 17
139.699999965075
 27
215.899999946025
 37
0.0
 40
1353.739564074348
 41
2.341911764705882
 42
50.0
 43
0.0
 44
0.0
 50
0.0
 51
0.0
 71
     0
 72
   100
 73
     1
 74
     3
 75
     0
 76
     0
 77
     0
 78
     0
281
     0
 65
     1
110
0.0
120
0.0
130
0.0
111
1.0
121
0.0
131
0.0
112
0.0
122
1.0
132
0.0
 79
     0
146
0.0
348
2F
 60
     3
 61
     5
292
     1
282
     1
141
0.0
142
0.0
 63
   250
361
3F
1001
ACAD_NAV_VCDISPLAY
1070
     3
  0
ENDTAB
  0
TABLE
  2
LTYPE
  5
5
330
0
100
AcDbSymbolTable
 70
     1
  0
LTYPE
  5
14
330
5
100
AcDbSymbolTableRecord
100
AcDbLinetypeTableRecord
  2
ByBlock
 70
     0
  3

 72
    65
 73
     0
 40
0.0
  0
LTYPE
  5
15
330
5
100
AcDbSymbolTableRecord
100
AcDbLinetypeTableRecord
  2
ByLayer
 70
     0
  3

 72
    65
 73
     0
 40
0.0
  0
LTYPE
  5
16
330
5
100
AcDbSymbolTableRecord
100
AcDbLinetypeTableRecord
  2
Continuous
 70
     0
  3
Solid line
 72
    65
 73
     0
 40
0.0
  0
ENDTAB
  0
TABLE
  2
LAYER
  5
2
330
0
100
AcDbSymbolTable
 70
     2
  0
LAYER
  5
10
102
{ACAD_XDICTIONARY
360
142
102
}
330
2
100
AcDbSymbolTableRecord
100
AcDbLayerTableRecord
  2
0
 70
     0
 62
     7
  6
Continuous
370
    -3
390
F
347
3E
348
0
  0
LAYER
  5
40
102
{ACAD_XDICTIONARY
360
144
102
}
330
2
100
AcDbSymbolTableRecord
100
AcDbLayerTableRecord
  2
Capa 1
 70
     0
 62
     7
  6
Continuous
370
    -3
390
F
347
3E
348
0
  0
ENDTAB
  0
TABLE
  2
STYLE
  5
3
330
0
100
AcDbSymbolTable
 70
     1
  0
STYLE
  5
11
330
3
100
AcDbSymbolTableRecord
100
AcDbTextStyleTableRecord
  2
Standard
 70
     0
 40
0.0
 41
1.0
 50
0.0
 71
     0
 42
0.2
  3
txt
  4

  0
ENDTAB
  0
TABLE
  2
VIEW
  5
6
330
0
100
AcDbSymbolTable
 70
     0
  0
ENDTAB
  0
TABLE
  2
UCS
  5
7
330
0
100
AcDbSymbolTable
 70
     0
  0
ENDTAB
  0
TABLE
  2
APPID
  5
9
330
0
100
AcDbSymbolTable
 70
     2
  0
APPID
  5
12
330
9
100
AcDbSymbolTableRecord
100
AcDbRegAppTableRecord
  2
ACAD
 70
     0
  0
APPID
  5
14E
330
9
100
AcDbSymbolTableRecord
100
AcDbRegAppTableRecord
  2
ACAD_NAV_VCDISPLAY
 70
     0
  0
ENDTAB
  0
TABLE
  2
DIMSTYLE
  5
A
330
0
100
AcDbSymbolTable
 70
     1
100
AcDbDimStyleTable
 71
     1
340
27
  0
DIMSTYLE
105
27
330
A
100
AcDbSymbolTableRecord
100
AcDbDimStyleTableRecord
  2
Standard
 70
     0
340
11
  0
ENDTAB
  0
TABLE
  2
BLOCK_RECORD
  5
1
330
0
100
AcDbSymbolTable
 70
     4
  0
BLOCK_RECORD
  5
1F
330
1
100
AcDbSymbolTableRecord
100
AcDbBlockTableRecord
  2
*Model_Space
340
22
 70
     0
280
     1
281
     0
  0
BLOCK_RECORD
  5
1B
330
1
100
AcDbSymbolTableRecord
100
AcDbBlockTableRecord
  2
*Paper_Space
340
1E
 70
     0
280
     1
281
     0
  0
BLOCK_RECORD
  5
23
330
1
100
AcDbSymbolTableRecord
100
AcDbBlockTableRecord
  2
*Paper_Space0
340
26
 70
     0
280
     1
281
     0
  0
BLOCK_RECORD
  5
76
330
1
100
AcDbSymbolTableRecord
100
AcDbBlockTableRecord
  2
block 2
340
0
 70
     0
280
     1
281
     0
  0
BLOCK_RECORD
  5
9D
330
1
100
AcDbSymbolTableRecord
100
AcDbBlockTableRecord
  2
block 3
340
0
 70
     0
280
     1
281
     0
  0
BLOCK_RECORD
  5
BF
330
1
100
AcDbSymbolTableRecord
100
AcDbBlockTableRecord
  2
block 4
340
0
 70
     0
280
     1
281
     0
  0
ENDTAB
  0
ENDSEC
  0
SECTION
  2
BLOCKS
  0
BLOCK
  5
20
330
1F
100
AcDbEntity
  8
0
100
AcDbBlockBegin
  2
*Model_Space
 70
     0
 10
0.0
 20
0.0
 30
0.0
  3
*Model_Space
  1

  0
ENDBLK
  5
21
330
1F
100
AcDbEntity
  8
0
100
AcDbBlockEnd
  0
BLOCK
  5
1C
330
1B
100
AcDbEntity
 67
     1
  8
0
100
AcDbBlockBegin
  2
*Paper_Space
 70
     0
 10
0.0
 20
0.0
 30
0.0
  3
*Paper_Space
  1

  0
ENDBLK
  5
1D
330
1B
100
AcDbEntity
 67
     1
  8
0
100
AcDbBlockEnd
  0
BLOCK
  5
24
330
23
100
AcDbEntity
 67
     1
  8
0
100
AcDbBlockBegin
  2
*Paper_Space0
 70
     0
 10
0.0
 20
0.0
 30
0.0
  3
*Paper_Space0
  1

  0
ENDBLK
  5
25
330
23
100
AcDbEntity
 67
     1
  8
0
100
AcDbBlockEnd
  0
BLOCK
  5
78
330
76
100
AcDbEntity
  8
0
100
AcDbBlockBegin
  2
block 2
 70
     0
 10
0.0
 20
0.0
 30
0.0
  3
block 2
  1

  0
SPLINE
  5
7A
330
76
100
AcDbEntity
  8
Capa 1
370
     0
100
AcDbSpline
210
0.0
220
0.0
230
1.0
 70
    11
 71
     3
 72
    32
 73
    28
 74
     0
 42
0.000000001
 43
0.0000000001
 40
0.0
 40
0.0
 40
0.0
 40
0.0
 40
1.0
 40
1.0
 40
1.0
 40
2.0
 40
2.0
 40
2.0
 40
3.0
 40
3.0
 40
3.0
 40
4.0
 40
4.0
 40
4.0
 40
5.0
 40
5.0
 40
5.0
 40
6.0
 40
6.0
 40
6.0
 40
7.0
 40
7.0
 40
7.0
 40
8.0
 40
8.0
 40
8.0
 40
9.0
 40
9.0
 40
9.0
 40
9.0
 10
108.1606675619355
 20
424.3503254147458
 30
0.0
 10
108.1606675619355
 20
424.3503254147458
 30
0.0
 10
108.718773030546
 20
424.3503254147458
 30
0.0
 10
108.718773030546
 20
424.3503254147458
 30
0.0
 10
108.718773030546
 20
424.3503254147458
 30
0.0
 10
108.7186007757717
 20
420.7939533453223
 30
0.0
 10
108.7186007757717
 20
420.7939533453223
 30
0.0
 10
108.8529594996965
 20
420.9222831521478
 30
0.0
 10
109.029176133767
 20
421.0502684494248
 30
0.0
 10
109.2472506779833
 20
421.1784260014762
 30
0.0
 10
109.4653252221997
 20
421.3065835535275
 30
0.0
 10
109.6611789005361
 20
421.4027017175659
 30
0.0
 10
109.8348117129927
 20
421.4667804935916
 30
0.0
 10
109.8348117129927
 20
421.4667804935916
 30
0.0
 10
109.8348117129927
 20
420.9272785406015
 30
0.0
 10
109.8348117129927
 20
420.9272785406015
 30
0.0
 10
109.5226860620291
 20
420.7805174729298
 30
0.0
 10
109.2498344995973
 20
420.6029228006652
 30
0.0
 10
109.0162570256973
 20
420.3939777594849
 30
0.0
 10
108.7826795517974
 20
420.1852049730787
 30
0.0
 10
108.6173149685054
 20
419.9828056133203
 30
0.0
 10
108.5201632758213
 20
419.7862629158867
 30
0.0
 10
108.5201632758213
 20
419.7862629158867
 30
0.0
 10
108.1604953071613
 20
419.7862629158867
 30
0.0
 10
108.1604953071613
 20
419.7862629158867
 30
0.0
 10
108.1604953071613
 20
419.7862629158867
 30
0.0
 10
108.1606675619355
 20
424.3503254147458
 30
0.0
 10
108.1606675619355
 20
424.3503254147458
 30
0.0
  0
HATCH
  5
7B
330
76
100
AcDbEntity
  8
Capa 1
 62
   250
100
AcDbHatch
 10
0.0
 20
0.0
 30
0.0
210
0.0
220
0.0
230
1.0
  2
SOLID
 70
     1
 71
     0
 91
        1
 92
        1
 93
        1
 72
     4
 94
        3
 73
     0
 74
     0
 95
       32
 96
       28
 40
0.0
 40
0.0
 40
0.0
 40
0.0
 40
1.0
 40
1.0
 40
1.0
 40
2.0
 40
2.0
 40
2.0
 40
3.0
 40
3.0
 40
3.0
 40
4.0
 40
4.0
 40
4.0
 40
5.0
 40
5.0
 40
5.0
 40
6.0
 40
6.0
 40
6.0
 40
7.0
 40
7.0
 40
7.0
 40
8.0
 40
8.0
 40
8.0
 40
9.0
 40
9.0
 40
9.0
 40
9.0
 10
108.1606675619355
 20
424.3503254147458
 10
108.1606675619355
 20
424.3503254147458
 10
108.718773030546
 20
424.3503254147458
 10
108.718773030546
 20
424.3503254147458
 10
108.718773030546
 20
424.3503254147458
 10
108.7186007757717
 20
420.7939533453223
 10
108.7186007757717
 20
420.7939533453223
 10
108.8529594996965
 20
420.9222831521478
 10
109.029176133767
 20
421.0502684494248
 10
109.2472506779833
 20
421.1784260014762
 10
109.4653252221997
 20
421.3065835535275
 10
109.6611789005361
 20
421.4027017175659
 10
109.8348117129927
 20
421.4667804935916
 10
109.8348117129927
 20
421.4667804935916
 10
109.8348117129927
 20
420.9272785406015
 10
109.8348117129927
 20
420.9272785406015
 10
109.5226860620291
 20
420.7805174729298
 10
109.2498344995973
 20
420.6029228006652
 10
109.0162570256973
 20
420.3939777594849
 10
108.7826795517974
 20
420.1852049730787
 10
108.6173149685054
 20
419.9828056133203
 10
108.5201632758213
 20
419.7862629158867
 10
108.5201632758213
 20
419.7862629158867
 10
108.1604953071613
 20
419.7862629158867
 10
108.1604953071613
 20
419.7862629158867
 10
108.1604953071613
 20
419.7862629158867
 10
108.1606675619355
 20
424.3503254147458
 10
108.1606675619355
 20
424.3503254147458
 97
        0
 97
        0
 75
     2
 76
     1
 98
        0
450
        0
451
        0
460
0.0
461
0.0
452
        0
462
0.0
453
        0
470

  0
POLYLINE
  5
7C
330
76
100
AcDbEntity
  8
Capa 1
370
     0
100
AcDb2dPolyline
 66
     1
 10
0.0
 20
0.0
 30
0.0
  0
VERTEX
  5
7D
330
7C
100
AcDbEntity
  8
Capa 1
370
     0
100
AcDbVertex
100
AcDb2dVertex
 10
104.8091064191102
 20
424.35049766952
 30
0.0
  0
VERTEX
  5
7E
330
7C
100
AcDbEntity
  8
Capa 1
370
     0
100
AcDbVertex
100
AcDb2dVertex
 10
104.808934164336
 20
421.0576754047181
 30
0.0
  0
VERTEX
  5
7F
330
7C
100
AcDbEntity
  8
Capa 1
370
     0
100
AcDbVertex
100
AcDb2dVertex
 10
104.2508286957255
 20
421.0576754047181
 30
0.0
  0
VERTEX
  5
80
330
7C
100
AcDbEntity
  8
Capa 1
370
     0
100
AcDbVertex
100
AcDb2dVertex
 10
104.2510009504998
 20
424.35049766952
 30
0.0
  0
VERTEX
  5
81
330
7C
100
AcDbEntity
  8
Capa 1
370
     0
100
AcDbVertex
100
AcDb2dVertex
 10
104.8091064191102
 20
424.35049766952
 30
0.0
  0
SEQEND
  5
82
330
7C
100
AcDbEntity
  8
Capa 1
370
     0
  0
POLYLINE
  5
83
330
76
100
AcDbEntity
  8
Capa 1
370
     0
100
AcDb2dPolyline
 66
     1
 10
0.0
 20
0.0
 30
0.0
  0
VERTEX
  5
84
330
83
100
AcDbEntity
  8
Capa 1
370
     0
100
AcDbVertex
100
AcDb2dVertex
 10
104.808934164336
 20
420.4468599751834
 30
0.0
  0
VERTEX
  5
85
330
83
100
AcDbEntity
  8
Capa 1
370
     0
100
AcDbVertex
100
AcDb2dVertex
 10
104.808934164336
 20
419.8050386862814
 30
0.0
  0
VERTEX
  5
86
330
83
100
AcDbEntity
  8
Capa 1
370
     0
100
AcDbVertex
100
AcDb2dVertex
 10
104.2508286957255
 20
419.8050386862814
 30
0.0
  0
VERTEX
  5
87
330
83
100
AcDbEntity
  8
Capa 1
370
     0
100
AcDbVertex
100
AcDb2dVertex
 10
104.2508286957255
 20
420.4468599751834
 30
0.0
  0
VERTEX
  5
88
330
83
100
AcDbEntity
  8
Capa 1
370
     0
100
AcDbVertex
100
AcDb2dVertex
 10
104.808934164336
 20
420.4468599751834
 30
0.0
  0
SEQEND
  5
89
330
83
100
AcDbEntity
  8
Capa 1
370
     0
  0
HATCH
  5
8A
330
76
100
AcDbEntity
  8
Capa 1
 62
   250
100
AcDbHatch
 10
0.0
 20
0.0
 30
0.0
210
0.0
220
0.0
230
1.0
  2
SOLID
 70
     1
 71
     0
 91
        2
 92
        1
 93
        4
 72
     1
 10
104.8091064191102
 20
424.35049766952
 11
104.808934164336
 21
421.0576754047181
 72
     1
 10
104.808934164336
 20
421.0576754047181
 11
104.2508286957255
 21
421.0576754047181
 72
     1
 10
104.2508286957255
 20
421.0576754047181
 11
104.2510009504998
 21
424.35049766952
 72
     1
 10
104.2510009504998
 20
424.35049766952
 11
104.8091064191102
 21
424.35049766952
 97
        0
 92
        1
 93
        4
 72
     1
 10
104.808934164336
 20
420.4468599751834
 11
104.808934164336
 21
419.8050386862814
 72
     1
 10
104.808934164336
 20
419.8050386862814
 11
104.2508286957255
 21
419.8050386862814
 72
     1
 10
104.2508286957255
 20
419.8050386862814
 11
104.2508286957255
 21
420.4468599751834
 72
     1
 10
104.2508286957255
 20
420.4468599751834
 11
104.808934164336
 21
420.4468599751834
 97
        0
 75
     2
 76
     1
 98
        0
450
        0
451
        0
460
0.0
461
0.0
452
        0
462
0.0
453
        0
470

  0
SPLINE
  5
8B
330
76
100
AcDbEntity
  8
Capa 1
370
     0
100
AcDbSpline
210
0.0
220
0.0
230
1.0
 70
    11
 71
     3
 72
    59
 73
    55
 74
     0
 42
0.000000001
 43
0.0000000001
 40
0.0
 40
0.0
 40
0.0
 40
0.0
 40
1.0
 40
1.0
 40
1.0
 40
2.0
 40
2.0
 40
2.0
 40
3.0
 40
3.0
 40
3.0
 40
4.0
 40
4.0
 40
4.0
 40
5.0
 40
5.0
 40
5.0
 40
6.0
 40
6.0
 40
6.0
 40
7.0
 40
7.0
 40
7.0
 40
8.0
 40
8.0
 40
8.0
 40
9.0
 40
9.0
 40
9.0
 40
10.0
 40
10.0
 40
10.0
 40
11.0
 40
11.0
 40
11.0
 40
12.0
 40
12.0
 40
12.0
 40
13.0
 40
13.0
 40
13.0
 40
14.0
 40
14.0
 40
14.0
 40
15.0
 40
15.0
 40
15.0
 40
16.0
 40
16.0
 40
16.0
 40
17.0
 40
17.0
 40
17.0
 40
18.0
 40
18.0
 40
18.0
 40
18.0
 10
103.4014404038371
 20
424.35049766952
 30
0.0
 10
103.4014404038371
 20
424.35049766952
 30
0.0
 10
103.4012681490629
 20
421.0576754047181
 30
0.0
 10
103.4012681490629
 20
421.0576754047181
 30
0.0
 10
103.4012681490629
 20
421.0576754047181
 30
0.0
 10
102.8989732273135
 20
421.0576754047181
 30
0.0
 10
102.8989732273135
 20
421.0576754047181
 30
0.0
 10
102.8989732273135
 20
421.0576754047181
 30
0.0
 10
102.8989732273135
 20
421.5258638811637
 30
0.0
 10
102.8989732273135
 20
421.5258638811637
 30
0.0
 10
102.6571275242489
 20
421.1643011099867
 30
0.0
 10
102.3077948420446
 20
420.9834335970111
 30
0.0
 10
101.8509751807005
 20
420.9834335970111
 30
0.0
 10
101.6525376807501
 20
420.9834335970111
 30
0.0
 10
101.4701198748061
 20
421.0190903352835
 30
0.0
 10
101.3037217628685
 20
421.0904038118281
 30
0.0
 10
101.137323650931
 20
421.1617172883728
 30
0.0
 10
101.0127834491392
 20
421.2552516307973
 30
0.0
 10
100.9301011574932
 20
421.3710068391017
 30
0.0
 10
100.8474188658472
 20
421.4867620474061
 30
0.0
 10
100.789541261695
 20
421.6242213572676
 30
0.0
 10
100.7566405998109
 20
421.783384768686
 30
0.0
 10
100.7359700268994
 20
421.8867376332436
 30
0.0
 10
100.7256347404436
 20
422.0676051462192
 30
0.0
 10
100.7256347404436
 20
422.325987307613
 30
0.0
 10
100.7256347404436
 20
422.325987307613
 30
0.0
 10
100.7256347404436
 20
424.3506699242942
 30
0.0
 10
100.7256347404436
 20
424.3506699242942
 30
0.0
 10
100.7256347404436
 20
424.3506699242942
 30
0.0
 10
101.2837402090541
 20
424.3506699242942
 30
0.0
 10
101.2837402090541
 20
424.3506699242942
 30
0.0
 10
101.2837402090541
 20
424.3506699242942
 30
0.0
 10
101.2837402090541
 20
422.3476914091701
 30
0.0
 10
101.2837402090541
 20
422.3476914091701
 30
0.0
 10
101.2837402090541
 20
422.1203151071434
 30
0.0
 10
101.3054443106112
 20
421.9502996449465
 30
0.0
 10
101.3488525137253
 20
421.8376450225788
 30
0.0
 10
101.3922607168394
 20
421.7249904002111
 30
0.0
 10
101.4690863461605
 20
421.6350734080461
 30
0.0
 10
101.579673911237
 20
421.5678940460836
 30
0.0
 10
101.6902614763136
 20
421.5007146841214
 30
0.0
 10
101.8199693213332
 20
421.4671250031401
 30
0.0
 10
101.968797446296
 20
421.4671250031401
 30
0.0
 10
102.2065090347782
 20
421.4671250031401
 30
0.0
 10
102.4116644709249
 20
421.5425725942671
 30
0.0
 10
102.5842637547359
 20
421.6934677765212
 30
0.0
 10
102.7570352933212
 20
421.844362958775
 30
0.0
 10
102.8433349352267
 20
422.130478138825
 30
0.0
 10
102.8433349352267
 20
422.5521578262195
 30
0.0
 10
102.8433349352267
 20
422.5521578262195
 30
0.0
 10
102.8433349352267
 20
424.35049766952
 30
0.0
 10
102.8433349352267
 20
424.35049766952
 30
0.0
 10
102.8433349352267
 20
424.35049766952
 30
0.0
 10
103.4014404038371
 20
424.35049766952
 30
0.0
 10
103.4014404038371
 20
424.35049766952
 30
0.0
  0
HATCH
  5
8C
330
76
100
AcDbEntity
  8
Capa 1
 62
   250
100
AcDbHatch
 10
0.0
 20
0.0
 30
0.0
210
0.0
220
0.0
230
1.0
  2
SOLID
 70
     1
 71
     0
 91
        1
 92
        1
 93
        1
 72
     4
 94
        3
 73
     0
 74
     0
 95
       59
 96
       55
 40
0.0
 40
0.0
 40
0.0
 40
0.0
 40
1.0
 40
1.0
 40
1.0
 40
2.0
 40
2.0
 40
2.0
 40
3.0
 40
3.0
 40
3.0
 40
4.0
 40
4.0
 40
4.0
 40
5.0
 40
5.0
 40
5.0
 40
6.0
 40
6.0
 40
6.0
 40
7.0
 40
7.0
 40
7.0
 40
8.0
 40
8.0
 40
8.0
 40
9.0
 40
9.0
 40
9.0
 40
10.0
 40
10.0
 40
10.0
 40
11.0
 40
11.0
 40
11.0
 40
12.0
 40
12.0
 40
12.0
 40
13.0
 40
13.0
 40
13.0
 40
14.0
 40
14.0
 40
14.0
 40
15.0
 40
15.0
 40
15.0
 40
16.0
 40
16.0
 40
16.0
 40
17.0
 40
17.0
 40
17.0
 40
18.0
 40
18.0
 40
18.0
 40
18.0
 10
103.4014404038371
 20
424.35049766952
 10
103.4014404038371
 20
424.35049766952
 10
103.4012681490629
 20
421.0576754047181
 10
103.4012681490629
 20
421.0576754047181
 10
103.4012681490629
 20
421.0576754047181
 10
102.8989732273135
 20
421.0576754047181
 10
102.8989732273135
 20
421.0576754047181
 10
102.8989732273135
 20
421.0576754047181
 10
102.8989732273135
 20
421.5258638811637
 10
102.8989732273135
 20
421.5258638811637
 10
102.6571275242489
 20
421.1643011099867
 10
102.3077948420446
 20
420.9834335970111
 10
101.8509751807005
 20
420.9834335970111
 10
101.6525376807501
 20
420.9834335970111
 10
101.4701198748061
 20
421.0190903352835
 10
101.3037217628685
 20
421.0904038118281
 10
101.137323650931
 20
421.1617172883728
 10
101.0127834491392
 20
421.2552516307973
 10
100.9301011574932
 20
421.3710068391017
 10
100.8474188658472
 20
421.4867620474061
 10
100.789541261695
 20
421.6242213572676
 10
100.7566405998109
 20
421.783384768686
 10
100.7359700268994
 20
421.8867376332436
 10
100.7256347404436
 20
422.0676051462192
 10
100.7256347404436
 20
422.325987307613
 10
100.7256347404436
 20
422.325987307613
 10
100.7256347404436
 20
424.3506699242942
 10
100.7256347404436
 20
424.3506699242942
 10
100.7256347404436
 20
424.3506699242942
 10
101.2837402090541
 20
424.3506699242942
 10
101.2837402090541
 20
424.3506699242942
 10
101.2837402090541
 20
424.3506699242942
 10
101.2837402090541
 20
422.3476914091701
 10
101.2837402090541
 20
422.3476914091701
 10
101.2837402090541
 20
422.1203151071434
 10
101.3054443106112
 20
421.9502996449465
 10
101.3488525137253
 20
421.8376450225788
 10
101.3922607168394
 20
421.7249904002111
 10
101.4690863461605
 20
421.6350734080461
 10
101.579673911237
 20
421.5678940460836
 10
101.6902614763136
 20
421.5007146841214
 10
101.8199693213332
 20
421.4671250031401
 10
101.968797446296
 20
421.4671250031401
 10
102.2065090347782
 20
421.4671250031401
 10
102.4116644709249
 20
421.5425725942671
 10
102.5842637547359
 20
421.6934677765212
 10
102.7570352933212
 20
421.844362958775
 10
102.8433349352267
 20
422.130478138825
 10
102.8433349352267
 20
422.5521578262195
 10
102.8433349352267
 20
422.5521578262195
 10
102.8433349352267
 20
424.35049766952
 10
102.8433349352267
 20
424.35049766952
 10
102.8433349352267
 20
424.35049766952
 10
103.4014404038371
 20
424.35049766952
 10
103.4014404038371
 20
424.35049766952
 97
        0
 97
        0
 75
     2
 76
     1
 98
        0
450
        0
451
        0
460
0.0
461
0.0
452
        0
462
0.0
453
        0
470

  0
ENDBLK
  5
79
330
76
100
AcDbEntity
  8
0
100
AcDbBlockEnd
  0
BLOCK
  5
9F
330
9D
100
AcDbEntity
  8
0
100
AcDbBlockBegin
  2
block 3
 70
     0
 10
0.0
 20
0.0
 30
0.0
  3
block 3
  1

  0
SPLINE
  5
A1
330
9D
100
AcDbEntity
  8
Capa 1
370
     0
100
AcDbSpline
210
0.0
220
0.0
230
1.0
 70
    11
 71
     3
 72
    32
 73
    28
 74
     0
 42
0.000000001
 43
0.0000000001
 40
0.0
 40
0.0
 40
0.0
 40
0.0
 40
1.0
 40
1.0
 40
1.0
 40
2.0
 40
2.0
 40
2.0
 40
3.0
 40
3.0
 40
3.0
 40
4.0
 40
4.0
 40
4.0
 40
5.0
 40
5.0
 40
5.0
 40
6.0
 40
6.0
 40
6.0
 40
7.0
 40
7.0
 40
7.0
 40
8.0
 40
8.0
 40
8.0
 40
9.0
 40
9.0
 40
9.0
 40
9.0
 10
59.68231742214539
 20
367.0788858131782
 30
0.0
 10
59.68231742214539
 20
367.0788858131782
 30
0.0
 10
59.68231742214539
 20
367.6369912817887
 30
0.0
 10
59.68231742214539
 20
367.6369912817887
 30
0.0
 10
59.68231742214539
 20
367.6369912817887
 30
0.0
 10
63.23868949156882
 20
367.6369912817887
 30
0.0
 10
63.23868949156882
 20
367.6369912817887
 30
0.0
 10
63.11035968474325
 20
367.7713500057134
 30
0.0
 10
62.98237438746622
 20
367.947566639784
 30
0.0
 10
62.85421683541493
 20
368.1656411840003
 30
0.0
 10
62.72605928336362
 20
368.3837157282166
 30
0.0
 10
62.62994111932515
 20
368.579569406553
 30
0.0
 10
62.5658623432995
 20
368.7532022190096
 30
0.0
 10
62.5658623432995
 20
368.7532022190096
 30
0.0
 10
63.10536429628964
 20
368.7532022190096
 30
0.0
 10
63.10536429628964
 20
368.7532022190096
 30
0.0
 10
63.25212536396128
 20
368.441076568046
 30
0.0
 10
63.42972003622591
 20
368.1682250056141
 30
0.0
 10
63.63866507740631
 20
367.9346475317144
 30
0.0
 10
63.84743786381246
 20
367.7010700578143
 30
0.0
 10
64.04983722357087
 20
367.5357054745223
 30
0.0
 10
64.24637992100437
 20
367.4385537818383
 30
0.0
 10
64.24637992100437
 20
367.4385537818383
 30
0.0
 10
64.24637992100437
 20
367.0788858131782
 30
0.0
 10
64.24637992100437
 20
367.0788858131782
 30
0.0
 10
64.24637992100437
 20
367.0788858131782
 30
0.0
 10
59.68231742214539
 20
367.0788858131782
 30
0.0
 10
59.68231742214539
 20
367.0788858131782
 30
0.0
  0
HATCH
  5
A2
330
9D
100
AcDbEntity
  8
Capa 1
 62
   250
100
AcDbHatch
 10
0.0
 20
0.0
 30
0.0
210
0.0
220
0.0
230
1.0
  2
SOLID
 70
     1
 71
     0
 91
        1
 92
        1
 93
        1
 72
     4
 94
        3
 73
     0
 74
     0
 95
       32
 96
       28
 40
0.0
 40
0.0
 40
0.0
 40
0.0
 40
1.0
 40
1.0
 40
1.0
 40
2.0
 40
2.0
 40
2.0
 40
3.0
 40
3.0
 40
3.0
 40
4.0
 40
4.0
 40
4.0
 40
5.0
 40
5.0
 40
5.0
 40
6.0
 40
6.0
 40
6.0
 40
7.0
 40
7.0
 40
7.0
 40
8.0
 40
8.0
 40
8.0
 40
9.0
 40
9.0
 40
9.0
 40
9.0
 10
59.68231742214539
 20
367.0788858131782
 10
59.68231742214539
 20
367.0788858131782
 10
59.68231742214539
 20
367.6369912817887
 10
59.68231742214539
 20
367.6369912817887
 10
59.68231742214539
 20
367.6369912817887
 10
63.23868949156882
 20
367.6369912817887
 10
63.23868949156882
 20
367.6369912817887
 10
63.11035968474325
 20
367.7713500057134
 10
62.98237438746622
 20
367.947566639784
 10
62.85421683541493
 20
368.1656411840003
 10
62.72605928336362
 20
368.3837157282166
 10
62.62994111932515
 20
368.579569406553
 10
62.5658623432995
 20
368.7532022190096
 10
62.5658623432995
 20
368.7532022190096
 10
63.10536429628964
 20
368.7532022190096
 10
63.10536429628964
 20
368.7532022190096
 10
63.25212536396128
 20
368.441076568046
 10
63.42972003622591
 20
368.1682250056141
 10
63.63866507740631
 20
367.9346475317144
 10
63.84743786381246
 20
367.7010700578143
 10
64.04983722357087
 20
367.5357054745223
 10
64.24637992100437
 20
367.4385537818383
 10
64.24637992100437
 20
367.4385537818383
 10
64.24637992100437
 20
367.0788858131782
 10
64.24637992100437
 20
367.0788858131782
 10
64.24637992100437
 20
367.0788858131782
 10
59.68231742214539
 20
367.0788858131782
 10
59.68231742214539
 20
367.0788858131782
 97
        0
 97
        0
 75
     2
 76
     1
 98
        0
450
        0
451
        0
460
0.0
461
0.0
452
        0
462
0.0
453
        0
470

  0
POLYLINE
  5
A3
330
9D
100
AcDbEntity
  8
Capa 1
370
     0
100
AcDb2dPolyline
 66
     1
 10
0.0
 20
0.0
 30
0.0
  0
VERTEX
  5
A4
330
A3
100
AcDbEntity
  8
Capa 1
370
     0
100
AcDbVertex
100
AcDb2dVertex
 10
59.68231742214539
 20
365.3363565167388
 30
0.0
  0
VERTEX
  5
A5
330
A3
100
AcDbEntity
  8
Capa 1
370
     0
100
AcDbVertex
100
AcDb2dVertex
 10
60.317937539174
 20
365.3363565167388
 30
0.0
  0
VERTEX
  5
A6
330
A3
100
AcDbEntity
  8
Capa 1
370
     0
100
AcDbVertex
100
AcDb2dVertex
 10
60.317937539174
 20
364.7007363997103
 30
0.0
  0
VERTEX
  5
A7
330
A3
100
AcDbEntity
  8
Capa 1
370
     0
100
AcDbVertex
100
AcDb2dVertex
 10
59.68231742214539
 20
364.7007363997103
 30
0.0
  0
VERTEX
  5
A8
330
A3
100
AcDbEntity
  8
Capa 1
370
     0
100
AcDbVertex
100
AcDb2dVertex
 10
59.68231742214539
 20
365.3363565167388
 30
0.0
  0
SEQEND
  5
A9
330
A3
100
AcDbEntity
  8
Capa 1
370
     0
  0
HATCH
  5
AA
330
9D
100
AcDbEntity
  8
Capa 1
 62
   250
100
AcDbHatch
 10
0.0
 20
0.0
 30
0.0
210
0.0
220
0.0
230
1.0
  2
SOLID
 70
     1
 71
     0
 91
        1
 92
        1
 93
        4
 72
     1
 10
59.68231742214539
 20
365.3363565167388
 11
60.317937539174
 21
365.3363565167388
 72
     1
 10
60.317937539174
 20
365.3363565167388
 11
60.317937539174
 21
364.7007363997103
 72
     1
 10
60.317937539174
 20
364.7007363997103
 11
59.68231742214539
 21
364.7007363997103
 72
     1
 10
59.68231742214539
 20
364.7007363997103
 11
59.68231742214539
 21
365.3363565167388
 97
        0
 75
     2
 76
     1
 98
        0
450
        0
451
        0
460
0.0
461
0.0
452
        0
462
0.0
453
        0
470

  0
SPLINE
  5
AB
330
9D
100
AcDbEntity
  8
Capa 1
370
     0
100
AcDbSpline
210
0.0
220
0.0
230
1.0
 70
     9
 71
     3
 72
    41
 73
    37
 74
     0
 42
0.000000001
 43
0.0000000001
 40
0.0
 40
0.0
 40
0.0
 40
0.0
 40
1.0
 40
1.0
 40
1.0
 40
2.0
 40
2.0
 40
2.0
 40
3.0
 40
3.0
 40
3.0
 40
4.0
 40
4.0
 40
4.0
 40
5.0
 40
5.0
 40
5.0
 40
6.0
 40
6.0
 40
6.0
 40
7.0
 40
7.0
 40
7.0
 40
8.0
 40
8.0
 40
8.0
 40
9.0
 40
9.0
 40
9.0
 40
10.0
 40
10.0
 40
10.0
 40
11.0
 40
11.0
 40
11.0
 40
12.0
 40
12.0
 40
12.0
 40
12.0
 10
61.92404105439745
 20
363.8854545531259
 30
0.0
 10
62.46147595009643
 20
363.8854545531259
 30
0.0
 10
62.89400768826954
 20
363.8301607705876
 30
0.0
 10
63.22163626891682
 20
363.7195732055111
 30
0.0
 10
63.54909259478981
 20
363.6089856404347
 30
0.0
 10
63.80179034863289
 20
363.4446545857882
 30
0.0
 10
63.97972953044604
 20
363.2265800415718
 30
0.0
 10
64.15732420271068
 20
363.0085054973555
 30
0.0
 10
64.24637992100437
 20
362.7341036419553
 30
0.0
 10
64.24637992100437
 20
362.4033744753714
 30
0.0
 10
64.24637992100437
 20
362.1594617150157
 30
0.0
 10
64.19711505556531
 20
361.9455212853817
 30
0.0
 10
64.09910208900995
 20
361.7615531864694
 30
0.0
 10
64.00074461290606
 20
361.577585087557
 30
0.0
 10
63.8591511884623
 20
361.4256563766575
 30
0.0
 10
63.67432181567864
 20
361.3057670537708
 30
0.0
 10
63.48932018812073
 20
361.1858777308841
 30
0.0
 10
63.26383868861111
 20
361.0918266241368
 30
0.0
 10
62.99839408147263
 20
361.0236137335289
 30
0.0
 10
62.73277721955985
 20
360.9554008429208
 30
0.0
 10
62.37465954386814
 20
360.9212943976169
 30
0.0
 10
61.92404105439745
 20
360.9212943976169
 30
0.0
 10
61.39074027328079
 20
360.9212943976169
 30
0.0
 10
60.96027559239882
 20
360.9760714158324
 30
0.0
 10
60.63264701175157
 20
361.0856254522634
 30
0.0
 10
60.3050184311043
 20
361.1951794886943
 30
0.0
 10
60.05180391293844
 20
361.3589937790179
 30
0.0
 10
59.87300345725397
 20
361.5770683232342
 30
0.0
 10
59.69420300156951
 20
361.7951428674505
 30
0.0
 10
59.60480277372727
 20
362.0705782514963
 30
0.0
 10
59.60480277372727
 20
362.4033744753714
 30
0.0
 10
59.60480277372727
 20
362.8415906210952
 30
0.0
 10
59.76189912785467
 20
363.1857556600717
 30
0.0
 10
60.07609183610945
 20
363.4358695923008
 30
0.0
 10
60.45436332038988
 20
363.7355928995175
 30
0.0
 10
61.07034639315254
 20
363.8854545531259
 30
0.0
 10
61.92404105439745
 20
363.8854545531259
 30
0.0
  0
SPLINE
  5
AC
330
9D
100
AcDbEntity
  8
Capa 1
370
     0
100
AcDbSpline
210
0.0
220
0.0
230
1.0
 70
    11
 71
     3
 72
    29
 73
    25
 74
     0
 42
0.000000001
 43
0.0000000001
 40
0.0
 40
0.0
 40
0.0
 40
0.0
 40
1.0
 40
1.0
 40
1.0
 40
2.0
 40
2.0
 40
2.0
 40
3.0
 40
3.0
 40
3.0
 40
4.0
 40
4.0
 40
4.0
 40
5.0
 40
5.0
 40
5.0
 40
6.0
 40
6.0
 40
6.0
 40
7.0
 40
7.0
 40
7.0
 40
8.0
 40
8.0
 40
8.0
 40
8.0
 10
61.92404105439745
 20
363.3118461548319
 30
0.0
 10
61.17783337229234
 20
363.3118461548319
 30
0.0
 10
60.68122285809358
 20
363.2245129842807
 30
0.0
 10
60.43420951180118
 20
363.0498466431784
 30
0.0
 10
60.18719616550876
 20
362.8751803020763
 30
0.0
 10
60.06368949236255
 20
362.6596895794741
 30
0.0
 10
60.06368949236255
 20
362.4033744753714
 30
0.0
 10
60.06368949236255
 20
362.1470593712688
 30
0.0
 10
60.18771292983154
 20
361.9315686486664
 30
0.0
 10
60.43575980476953
 20
361.7569023075642
 30
0.0
 10
60.68380667970753
 20
361.5822359664621
 30
0.0
 10
61.1799004295835
 20
361.494902795911
 30
0.0
 10
61.92404105439745
 20
361.494902795911
 30
0.0
 10
62.67231579379373
 20
361.494902795911
 30
0.0
 10
63.16927081754102
 20
361.5822359664621
 30
0.0
 10
63.41542288996212
 20
361.7569023075642
 30
0.0
 10
63.66140270760896
 20
361.9315686486664
 30
0.0
 10
63.78439261643237
 20
362.14912642856
 30
0.0
 10
63.78439261643237
 20
362.4095756472448
 30
0.0
 10
63.78439261643237
 20
362.6658907513474
 30
0.0
 10
63.67587210864701
 20
362.8705294231713
 30
0.0
 10
63.45883109307628
 20
363.0234916627164
 30
0.0
 10
63.18167316128792
 20
363.2157279907933
 30
0.0
 10
62.67024873650258
 20
363.3118461548319
 30
0.0
 10
61.92404105439745
 20
363.3118461548319
 30
0.0
  0
HATCH
  5
AD
330
9D
100
AcDbEntity
  8
Capa 1
 62
   250
100
AcDbHatch
 10
0.0
 20
0.0
 30
0.0
210
0.0
220
0.0
230
1.0
  2
SOLID
 70
     1
 71
     0
 91
        2
 92
        1
 93
        1
 72
     4
 94
        3
 73
     0
 74
     0
 95
       41
 96
       37
 40
0.0
 40
0.0
 40
0.0
 40
0.0
 40
1.0
 40
1.0
 40
1.0
 40
2.0
 40
2.0
 40
2.0
 40
3.0
 40
3.0
 40
3.0
 40
4.0
 40
4.0
 40
4.0
 40
5.0
 40
5.0
 40
5.0
 40
6.0
 40
6.0
 40
6.0
 40
7.0
 40
7.0
 40
7.0
 40
8.0
 40
8.0
 40
8.0
 40
9.0
 40
9.0
 40
9.0
 40
10.0
 40
10.0
 40
10.0
 40
11.0
 40
11.0
 40
11.0
 40
12.0
 40
12.0
 40
12.0
 40
12.0
 10
61.92404105439745
 20
363.8854545531259
 10
62.46147595009643
 20
363.8854545531259
 10
62.89400768826954
 20
363.8301607705876
 10
63.22163626891682
 20
363.7195732055111
 10
63.54909259478981
 20
363.6089856404347
 10
63.80179034863289
 20
363.4446545857882
 10
63.97972953044604
 20
363.2265800415718
 10
64.15732420271068
 20
363.0085054973555
 10
64.24637992100437
 20
362.7341036419553
 10
64.24637992100437
 20
362.4033744753714
 10
64.24637992100437
 20
362.1594617150157
 10
64.19711505556531
 20
361.9455212853817
 10
64.09910208900995
 20
361.7615531864694
 10
64.00074461290606
 20
361.577585087557
 10
63.8591511884623
 20
361.4256563766575
 10
63.67432181567864
 20
361.3057670537708
 10
63.48932018812073
 20
361.1858777308841
 10
63.26383868861111
 20
361.0918266241368
 10
62.99839408147263
 20
361.0236137335289
 10
62.73277721955985
 20
360.9554008429208
 10
62.37465954386814
 20
360.9212943976169
 10
61.92404105439745
 20
360.9212943976169
 10
61.39074027328079
 20
360.9212943976169
 10
60.96027559239882
 20
360.9760714158324
 10
60.63264701175157
 20
361.0856254522634
 10
60.3050184311043
 20
361.1951794886943
 10
60.05180391293844
 20
361.3589937790179
 10
59.87300345725397
 20
361.5770683232342
 10
59.69420300156951
 20
361.7951428674505
 10
59.60480277372727
 20
362.0705782514963
 10
59.60480277372727
 20
362.4033744753714
 10
59.60480277372727
 20
362.8415906210952
 10
59.76189912785467
 20
363.1857556600717
 10
60.07609183610945
 20
363.4358695923008
 10
60.45436332038988
 20
363.7355928995175
 10
61.07034639315254
 20
363.8854545531259
 10
61.92404105439745
 20
363.8854545531259
 97
        0
 97
        0
 92
        1
 93
        1
 72
     4
 94
        3
 73
     0
 74
     0
 95
       29
 96
       25
 40
0.0
 40
0.0
 40
0.0
 40
0.0
 40
1.0
 40
1.0
 40
1.0
 40
2.0
 40
2.0
 40
2.0
 40
3.0
 40
3.0
 40
3.0
 40
4.0
 40
4.0
 40
4.0
 40
5.0
 40
5.0
 40
5.0
 40
6.0
 40
6.0
 40
6.0
 40
7.0
 40
7.0
 40
7.0
 40
8.0
 40
8.0
 40
8.0
 40
8.0
 10
61.92404105439745
 20
363.3118461548319
 10
61.17783337229234
 20
363.3118461548319
 10
60.68122285809358
 20
363.2245129842807
 10
60.43420951180118
 20
363.0498466431784
 10
60.18719616550876
 20
362.8751803020763
 10
60.06368949236255
 20
362.6596895794741
 10
60.06368949236255
 20
362.4033744753714
 10
60.06368949236255
 20
362.1470593712688
 10
60.18771292983154
 20
361.9315686486664
 10
60.43575980476953
 20
361.7569023075642
 10
60.68380667970753
 20
361.5822359664621
 10
61.1799004295835
 20
361.494902795911
 10
61.92404105439745
 20
361.494902795911
 10
62.67231579379373
 20
361.494902795911
 10
63.16927081754102
 20
361.5822359664621
 10
63.41542288996212
 20
361.7569023075642
 10
63.66140270760896
 20
361.9315686486664
 10
63.78439261643237
 20
362.14912642856
 10
63.78439261643237
 20
362.4095756472448
 10
63.78439261643237
 20
362.6658907513474
 10
63.67587210864701
 20
362.8705294231713
 10
63.45883109307628
 20
363.0234916627164
 10
63.18167316128792
 20
363.2157279907933
 10
62.67024873650258
 20
363.3118461548319
 10
61.92404105439745
 20
363.3118461548319
 97
        0
 97
        0
 75
     2
 76
     1
 98
        0
450
        0
451
        0
460
0.0
461
0.0
452
        0
462
0.0
453
        0
470

  0
POLYLINE
  5
AE
330
9D
100
AcDbEntity
  8
Capa 1
370
     0
100
AcDb2dPolyline
 66
     1
 10
0.0
 20
0.0
 30
0.0
  0
VERTEX
  5
AF
330
AE
100
AcDbEntity
  8
Capa 1
370
     0
100
AcDbVertex
100
AcDb2dVertex
 10
59.68231742214539
 20
358.4315238904268
 30
0.0
  0
VERTEX
  5
B0
330
AE
100
AcDbEntity
  8
Capa 1
370
     0
100
AcDbVertex
100
AcDb2dVertex
 10
62.97513968694718
 20
358.4315238904268
 30
0.0
  0
VERTEX
  5
B1
330
AE
100
AcDbEntity
  8
Capa 1
370
     0
100
AcDbVertex
100
AcDb2dVertex
 10
62.97513968694718
 20
357.8734184218164
 30
0.0
  0
VERTEX
  5
B2
330
AE
100
AcDbEntity
  8
Capa 1
370
     0
100
AcDbVertex
100
AcDb2dVertex
 10
59.68231742214539
 20
357.8734184218164
 30
0.0
  0
VERTEX
  5
B3
330
AE
100
AcDbEntity
  8
Capa 1
370
     0
100
AcDbVertex
100
AcDb2dVertex
 10
59.68231742214539
 20
358.4315238904268
 30
0.0
  0
SEQEND
  5
B4
330
AE
100
AcDbEntity
  8
Capa 1
370
     0
  0
POLYLINE
  5
B5
330
9D
100
AcDbEntity
  8
Capa 1
370
     0
100
AcDb2dPolyline
 66
     1
 10
0.0
 20
0.0
 30
0.0
  0
VERTEX
  5
B6
330
B5
100
AcDbEntity
  8
Capa 1
370
     0
100
AcDbVertex
100
AcDb2dVertex
 10
63.58595511648198
 20
358.4315238904268
 30
0.0
  0
VERTEX
  5
B7
330
B5
100
AcDbEntity
  8
Capa 1
370
     0
100
AcDbVertex
100
AcDb2dVertex
 10
64.22777640538403
 20
358.4315238904268
 30
0.0
  0
VERTEX
  5
B8
330
B5
100
AcDbEntity
  8
Capa 1
370
     0
100
AcDbVertex
100
AcDb2dVertex
 10
64.22777640538403
 20
357.8734184218164
 30
0.0
  0
VERTEX
  5
B9
330
B5
100
AcDbEntity
  8
Capa 1
370
     0
100
AcDbVertex
100
AcDb2dVertex
 10
63.58595511648198
 20
357.8734184218164
 30
0.0
  0
VERTEX
  5
BA
330
B5
100
AcDbEntity
  8
Capa 1
370
     0
100
AcDbVertex
100
AcDb2dVertex
 10
63.58595511648198
 20
358.4315238904268
 30
0.0
  0
SEQEND
  5
BB
330
B5
100
AcDbEntity
  8
Capa 1
370
     0
  0
HATCH
  5
BC
330
9D
100
AcDbEntity
  8
Capa 1
 62
   250
100
AcDbHatch
 10
0.0
 20
0.0
 30
0.0
210
0.0
220
0.0
230
1.0
  2
SOLID
 70
     1
 71
     0
 91
        2
 92
        1
 93
        4
 72
     1
 10
59.68231742214539
 20
358.4315238904268
 11
62.97513968694718
 21
358.4315238904268
 72
     1
 10
62.97513968694718
 20
358.4315238904268
 11
62.97513968694718
 21
357.8734184218164
 72
     1
 10
62.97513968694718
 20
357.8734184218164
 11
59.68231742214539
 21
357.8734184218164
 72
     1
 10
59.68231742214539
 20
357.8734184218164
 11
59.68231742214539
 21
358.4315238904268
 97
        0
 92
        1
 93
        4
 72
     1
 10
63.58595511648198
 20
358.4315238904268
 11
64.22777640538403
 21
358.4315238904268
 72
     1
 10
64.22777640538403
 20
358.4315238904268
 11
64.22777640538403
 21
357.8734184218164
 72
     1
 10
64.22777640538403
 20
357.8734184218164
 11
63.58595511648198
 21
357.8734184218164
 72
     1
 10
63.58595511648198
 20
357.8734184218164
 11
63.58595511648198
 21
358.4315238904268
 97
        0
 75
     2
 76
     1
 98
        0
450
        0
451
        0
460
0.0
461
0.0
452
        0
462
0.0
453
        0
470

  0
SPLINE
  5
BD
330
9D
100
AcDbEntity
  8
Capa 1
370
     0
100
AcDbSpline
210
0.0
220
0.0
230
1.0
 70
    11
 71
     3
 72
    59
 73
    55
 74
     0
 42
0.000000001
 43
0.0000000001
 40
0.0
 40
0.0
 40
0.0
 40
0.0
 40
1.0
 40
1.0
 40
1.0
 40
2.0
 40
2.0
 40
2.0
 40
3.0
 40
3.0
 40
3.0
 40
4.0
 40
4.0
 40
4.0
 40
5.0
 40
5.0
 40
5.0
 40
6.0
 40
6.0
 40
6.0
 40
7.0
 40
7.0
 40
7.0
 40
8.0
 40
8.0
 40
8.0
 40
9.0
 40
9.0
 40
9.0
 40
10.0
 40
10.0
 40
10.0
 40
11.0
 40
11.0
 40
11.0
 40
12.0
 40
12.0
 40
12.0
 40
13.0
 40
13.0
 40
13.0
 40
14.0
 40
14.0
 40
14.0
 40
15.0
 40
15.0
 40
15.0
 40
16.0
 40
16.0
 40
16.0
 40
17.0
 40
17.0
 40
17.0
 40
18.0
 40
18.0
 40
18.0
 40
18.0
 10
59.68231742214539
 20
357.0238578751538
 30
0.0
 10
59.68231742214539
 20
357.0238578751538
 30
0.0
 10
62.97513968694718
 20
357.0238578751538
 30
0.0
 10
62.97513968694718
 20
357.0238578751538
 30
0.0
 10
62.97513968694718
 20
357.0238578751538
 30
0.0
 10
62.97513968694718
 20
356.5215629534043
 30
0.0
 10
62.97513968694718
 20
356.5215629534043
 30
0.0
 10
62.97513968694718
 20
356.5215629534043
 30
0.0
 10
62.50695121050174
 20
356.5215629534043
 30
0.0
 10
62.50695121050174
 20
356.5215629534043
 30
0.0
 10
62.86868623645297
 20
356.2797172503398
 30
0.0
 10
63.0495537494286
 20
355.9303845681355
 30
0.0
 10
63.0495537494286
 20
355.4735649067914
 30
0.0
 10
63.0495537494286
 20
355.2751274068409
 30
0.0
 10
63.01389701115625
 20
355.092709600897
 30
0.0
 10
62.94258353461158
 20
354.9263114889594
 30
0.0
 10
62.87127005806691
 20
354.7599133770219
 30
0.0
 10
62.77773571564236
 20
354.6353731752301
 30
0.0
 10
62.66198050733798
 20
354.5526908835841
 30
0.0
 10
62.54622529903359
 20
354.4700085919381
 30
0.0
 10
62.40876598917211
 20
354.4121309877859
 30
0.0
 10
62.24960257775358
 20
354.3790580711275
 30
0.0
 10
62.14624971319608
 20
354.358387498216
 30
0.0
 10
61.96538220022046
 20
354.3480522117602
 30
0.0
 10
61.70700003882672
 20
354.3480522117602
 30
0.0
 10
61.70700003882672
 20
354.3480522117602
 30
0.0
 10
59.68231742214539
 20
354.3480522117602
 30
0.0
 10
59.68231742214539
 20
354.3480522117602
 30
0.0
 10
59.68231742214539
 20
354.3480522117602
 30
0.0
 10
59.68231742214539
 20
354.9061576803707
 30
0.0
 10
59.68231742214539
 20
354.9061576803707
 30
0.0
 10
59.68231742214539
 20
354.9061576803707
 30
0.0
 10
61.68529593726965
 20
354.9061576803707
 30
0.0
 10
61.68529593726965
 20
354.9061576803707
 30
0.0
 10
61.91267223929614
 20
354.9061576803707
 30
0.0
 10
62.08268770149321
 20
354.9278617819278
 30
0.0
 10
62.19534232386089
 20
354.9712699850419
 30
0.0
 10
62.30799694622856
 20
355.0146781881561
 30
0.0
 10
62.39791393839357
 20
355.0916760722513
 30
0.0
 10
62.46509330035594
 20
355.2022636373278
 30
0.0
 10
62.53227266231832
 20
355.3128512024045
 30
0.0
 10
62.5658623432995
 20
355.4425590474241
 30
0.0
 10
62.5658623432995
 20
355.5913871723869
 30
0.0
 10
62.5658623432995
 20
355.8290987608692
 30
0.0
 10
62.49041475217254
 20
356.0342541970157
 30
0.0
 10
62.33951956991859
 20
356.2068534808268
 30
0.0
 10
62.18862438766465
 20
356.3794527646379
 30
0.0
 10
61.90233695284039
 20
356.4657524065434
 30
0.0
 10
61.48065726544581
 20
356.4657524065434
 30
0.0
 10
61.48065726544581
 20
356.4657524065434
 30
0.0
 10
59.68231742214539
 20
356.4657524065434
 30
0.0
 10
59.68231742214539
 20
356.4657524065434
 30
0.0
 10
59.68231742214539
 20
356.4657524065434
 30
0.0
 10
59.68231742214539
 20
357.0238578751538
 30
0.0
 10
59.68231742214539
 20
357.0238578751538
 30
0.0
  0
HATCH
  5
BE
330
9D
100
AcDbEntity
  8
Capa 1
 62
   250
100
AcDbHatch
 10
0.0
 20
0.0
 30
0.0
210
0.0
220
0.0
230
1.0
  2
SOLID
 70
     1
 71
     0
 91
        1
 92
        1
 93
        1
 72
     4
 94
        3
 73
     0
 74
     0
 95
       59
 96
       55
 40
0.0
 40
0.0
 40
0.0
 40
0.0
 40
1.0
 40
1.0
 40
1.0
 40
2.0
 40
2.0
 40
2.0
 40
3.0
 40
3.0
 40
3.0
 40
4.0
 40
4.0
 40
4.0
 40
5.0
 40
5.0
 40
5.0
 40
6.0
 40
6.0
 40
6.0
 40
7.0
 40
7.0
 40
7.0
 40
8.0
 40
8.0
 40
8.0
 40
9.0
 40
9.0
 40
9.0
 40
10.0
 40
10.0
 40
10.0
 40
11.0
 40
11.0
 40
11.0
 40
12.0
 40
12.0
 40
12.0
 40
13.0
 40
13.0
 40
13.0
 40
14.0
 40
14.0
 40
14.0
 40
15.0
 40
15.0
 40
15.0
 40
16.0
 40
16.0
 40
16.0
 40
17.0
 40
17.0
 40
17.0
 40
18.0
 40
18.0
 40
18.0
 40
18.0
 10
59.68231742214539
 20
357.0238578751538
 10
59.68231742214539
 20
357.0238578751538
 10
62.97513968694718
 20
357.0238578751538
 10
62.97513968694718
 20
357.0238578751538
 10
62.97513968694718
 20
357.0238578751538
 10
62.97513968694718
 20
356.5215629534043
 10
62.97513968694718
 20
356.5215629534043
 10
62.97513968694718
 20
356.5215629534043
 10
62.50695121050174
 20
356.5215629534043
 10
62.50695121050174
 20
356.5215629534043
 10
62.86868623645297
 20
356.2797172503398
 10
63.0495537494286
 20
355.9303845681355
 10
63.0495537494286
 20
355.4735649067914
 10
63.0495537494286
 20
355.2751274068409
 10
63.01389701115625
 20
355.092709600897
 10
62.94258353461158
 20
354.9263114889594
 10
62.87127005806691
 20
354.7599133770219
 10
62.77773571564236
 20
354.6353731752301
 10
62.66198050733798
 20
354.5526908835841
 10
62.54622529903359
 20
354.4700085919381
 10
62.40876598917211
 20
354.4121309877859
 10
62.24960257775358
 20
354.3790580711275
 10
62.14624971319608
 20
354.358387498216
 10
61.96538220022046
 20
354.3480522117602
 10
61.70700003882672
 20
354.3480522117602
 10
61.70700003882672
 20
354.3480522117602
 10
59.68231742214539
 20
354.3480522117602
 10
59.68231742214539
 20
354.3480522117602
 10
59.68231742214539
 20
354.3480522117602
 10
59.68231742214539
 20
354.9061576803707
 10
59.68231742214539
 20
354.9061576803707
 10
59.68231742214539
 20
354.9061576803707
 10
61.68529593726965
 20
354.9061576803707
 10
61.68529593726965
 20
354.9061576803707
 10
61.91267223929614
 20
354.9061576803707
 10
62.08268770149321
 20
354.9278617819278
 10
62.19534232386089
 20
354.9712699850419
 10
62.30799694622856
 20
355.0146781881561
 10
62.39791393839357
 20
355.0916760722513
 10
62.46509330035594
 20
355.2022636373278
 10
62.53227266231832
 20
355.3128512024045
 10
62.5658623432995
 20
355.4425590474241
 10
62.5658623432995
 20
355.5913871723869
 10
62.5658623432995
 20
355.8290987608692
 10
62.49041475217254
 20
356.0342541970157
 10
62.33951956991859
 20
356.2068534808268
 10
62.18862438766465
 20
356.3794527646379
 10
61.90233695284039
 20
356.4657524065434
 10
61.48065726544581
 20
356.4657524065434
 10
61.48065726544581
 20
356.4657524065434
 10
59.68231742214539
 20
356.4657524065434
 10
59.68231742214539
 20
356.4657524065434
 10
59.68231742214539
 20
356.4657524065434
 10
59.68231742214539
 20
357.0238578751538
 10
59.68231742214539
 20
357.0238578751538
 97
        0
 97
        0
 75
     2
 76
     1
 98
        0
450
        0
451
        0
460
0.0
461
0.0
452
        0
462
0.0
453
        0
470

  0
ENDBLK
  5
A0
330
9D
100
AcDbEntity
  8
0
100
AcDbBlockEnd
  0
BLOCK
  5
C1
330
BF
100
AcDbEntity
  8
0
100
AcDbBlockBegin
  2
block 4
 70
     0
 10
0.0
 20
0.0
 30
0.0
  3
block 4
  1

  0
SPLINE
  5
C3
330
BF
100
AcDbEntity
  8
Capa 1
370
     0
100
AcDbSpline
210
0.0
220
0.0
230
1.0
 70
     9
 71
     3
 72
    62
 73
    58
 74
     0
 42
0.000000001
 43
0.0000000001
 40
0.0
 40
0.0
 40
0.0
 40
0.0
 40
1.0
 40
1.0
 40
1.0
 40
2.0
 40
2.0
 40
2.0
 40
3.0
 40
3.0
 40
3.0
 40
4.0
 40
4.0
 40
4.0
 40
5.0
 40
5.0
 40
5.0
 40
6.0
 40
6.0
 40
6.0
 40
7.0
 40
7.0
 40
7.0
 40
8.0
 40
8.0
 40
8.0
 40
9.0
 40
9.0
 40
9.0
 40
10.0
 40
10.0
 40
10.0
 40
11.0
 40
11.0
 40
11.0
 40
12.0
 40
12.0
 40
12.0
 40
13.0
 40
13.0
 40
13.0
 40
14.0
 40
14.0
 40
14.0
 40
15.0
 40
15.0
 40
15.0
 40
16.0
 40
16.0
 40
16.0
 40
17.0
 40
17.0
 40
17.0
 40
18.0
 40
18.0
 40
18.0
 40
19.0
 40
19.0
 40
19.0
 40
19.0
 10
101.0963270146565
 20
382.2114677321382
 30
0.0
 10
101.0963270146565
 20
382.2114677321382
 30
0.0
 10
100.6085014939451
 20
382.2748574890667
 30
0.0
 10
100.6085014939451
 20
382.2748574890667
 30
0.0
 10
100.6619004739665
 20
382.6110988084271
 30
0.0
 10
100.7983262551824
 20
382.8743041035002
 30
0.0
 10
101.0177788375928
 20
383.064473374286
 30
0.0
 10
101.2374036747775
 20
383.2546426450718
 30
0.0
 10
101.5069823964983
 20
383.3497272804647
 30
0.0
 10
101.8266872575294
 20
383.3497272804647
 30
0.0
 10
102.227351862464
 20
383.3497272804647
 30
0.0
 10
102.5492960355606
 20
383.2188136520252
 30
0.0
 10
102.7926920315935
 20
382.9569863951462
 30
0.0
 10
103.0362602824007
 20
382.6951591382672
 30
0.0
 10
103.15787215303
 20
382.3199882399235
 30
0.0
 10
103.15787215303
 20
381.8311291905665
 30
0.0
 10
103.15787215303
 20
381.5152139345691
 30
0.0
 10
103.1055067016542
 20
381.2385727671037
 30
0.0
 10
103.0007757989026
 20
381.0015501977184
 30
0.0
 10
102.896044896151
 20
380.7645276283332
 30
0.0
 10
102.7367092299582
 20
380.5867607012944
 30
0.0
 10
102.5225965455499
 20
380.4682494166018
 30
0.0
 10
102.3086561159159
 20
380.3497381319091
 30
0.0
 10
102.075767661113
 20
380.2904824895628
 30
0.0
 10
101.8239311811412
 20
380.2904824895628
 30
0.0
 10
101.506121122627
 20
380.2904824895628
 30
0.0
 10
101.2461886682648
 20
380.3709254691434
 30
0.0
 10
101.0439615632807
 20
380.5316391735303
 30
0.0
 10
100.8419067130708
 20
380.6925251326915
 30
0.0
 10
100.7123711228254
 20
380.9207627085893
 30
0.0
 10
100.6553547925445
 20
381.2165241559979
 30
0.0
 10
100.6553547925445
 20
381.2165241559979
 30
0.0
 10
101.1376681604795
 20
381.2909382184794
 30
0.0
 10
101.1376681604795
 20
381.2909382184794
 30
0.0
 10
101.1836601852076
 20
381.0943955210458
 30
0.0
 10
101.2649644386595
 20
380.9464286699544
 30
0.0
 10
101.3815809208352
 20
380.8472099199791
 30
0.0
 10
101.4983696577851
 20
380.747991170004
 30
0.0
 10
101.6392740631319
 20
380.6983817950164
 30
0.0
 10
101.8046386464238
 20
380.6983817950164
 30
0.0
 10
102.0545803238787
 20
380.6983817950164
 30
0.0
 10
102.2576687027342
 20
380.7879542776329
 30
0.0
 10
102.413731528216
 20
380.9670992428659
 30
0.0
 10
102.5699666084721
 20
381.1462442080989
 30
0.0
 10
102.647998021213
 20
381.4297755665349
 30
0.0
 10
102.647998021213
 20
381.8173488086255
 30
0.0
 10
102.647998021213
 20
382.2106064582669
 30
0.0
 10
102.5727226848603
 20
382.4963771287683
 30
0.0
 10
102.4219997573806
 20
382.6744885653557
 30
0.0
 10
102.2714490846752
 20
382.8527722567174
 30
0.0
 10
102.0747341324674
 20
382.9418279750111
 30
0.0
 10
101.8321994103058
 20
382.9418279750111
 30
0.0
 10
101.6375515153892
 20
382.9418279750111
 30
0.0
 10
101.4749430084854
 20
382.8822278231161
 30
0.0
 10
101.3443738895945
 20
382.7626830097781
 30
0.0
 10
101.2139770254778
 20
382.6433104512142
 30
0.0
 10
101.1312947338318
 20
382.4595146070761
 30
0.0
 10
101.0963270146565
 20
382.2114677321382
 30
0.0
  0
HATCH
  5
C4
330
BF
100
AcDbEntity
  8
Capa 1
 62
   250
100
AcDbHatch
 10
0.0
 20
0.0
 30
0.0
210
0.0
220
0.0
230
1.0
  2
SOLID
 70
     1
 71
     0
 91
        1
 92
        1
 93
        1
 72
     4
 94
        3
 73
     0
 74
     0
 95
       62
 96
       58
 40
0.0
 40
0.0
 40
0.0
 40
0.0
 40
1.0
 40
1.0
 40
1.0
 40
2.0
 40
2.0
 40
2.0
 40
3.0
 40
3.0
 40
3.0
 40
4.0
 40
4.0
 40
4.0
 40
5.0
 40
5.0
 40
5.0
 40
6.0
 40
6.0
 40
6.0
 40
7.0
 40
7.0
 40
7.0
 40
8.0
 40
8.0
 40
8.0
 40
9.0
 40
9.0
 40
9.0
 40
10.0
 40
10.0
 40
10.0
 40
11.0
 40
11.0
 40
11.0
 40
12.0
 40
12.0
 40
12.0
 40
13.0
 40
13.0
 40
13.0
 40
14.0
 40
14.0
 40
14.0
 40
15.0
 40
15.0
 40
15.0
 40
16.0
 40
16.0
 40
16.0
 40
17.0
 40
17.0
 40
17.0
 40
18.0
 40
18.0
 40
18.0
 40
19.0
 40
19.0
 40
19.0
 40
19.0
 10
101.0963270146565
 20
382.2114677321382
 10
101.0963270146565
 20
382.2114677321382
 10
100.6085014939451
 20
382.2748574890667
 10
100.6085014939451
 20
382.2748574890667
 10
100.6619004739665
 20
382.6110988084271
 10
100.7983262551824
 20
382.8743041035002
 10
101.0177788375928
 20
383.064473374286
 10
101.2374036747775
 20
383.2546426450718
 10
101.5069823964983
 20
383.3497272804647
 10
101.8266872575294
 20
383.3497272804647
 10
102.227351862464
 20
383.3497272804647
 10
102.5492960355606
 20
383.2188136520252
 10
102.7926920315935
 20
382.9569863951462
 10
103.0362602824007
 20
382.6951591382672
 10
103.15787215303
 20
382.3199882399235
 10
103.15787215303
 20
381.8311291905665
 10
103.15787215303
 20
381.5152139345691
 10
103.1055067016542
 20
381.2385727671037
 10
103.0007757989026
 20
381.0015501977184
 10
102.896044896151
 20
380.7645276283332
 10
102.7367092299582
 20
380.5867607012944
 10
102.5225965455499
 20
380.4682494166018
 10
102.3086561159159
 20
380.3497381319091
 10
102.075767661113
 20
380.2904824895628
 10
101.8239311811412
 20
380.2904824895628
 10
101.506121122627
 20
380.2904824895628
 10
101.2461886682648
 20
380.3709254691434
 10
101.0439615632807
 20
380.5316391735303
 10
100.8419067130708
 20
380.6925251326915
 10
100.7123711228254
 20
380.9207627085893
 10
100.6553547925445
 20
381.2165241559979
 10
100.6553547925445
 20
381.2165241559979
 10
101.1376681604795
 20
381.2909382184794
 10
101.1376681604795
 20
381.2909382184794
 10
101.1836601852076
 20
381.0943955210458
 10
101.2649644386595
 20
380.9464286699544
 10
101.3815809208352
 20
380.8472099199791
 10
101.4983696577851
 20
380.747991170004
 10
101.6392740631319
 20
380.6983817950164
 10
101.8046386464238
 20
380.6983817950164
 10
102.0545803238787
 20
380.6983817950164
 10
102.2576687027342
 20
380.7879542776329
 10
102.413731528216
 20
380.9670992428659
 10
102.5699666084721
 20
381.1462442080989
 10
102.647998021213
 20
381.4297755665349
 10
102.647998021213
 20
381.8173488086255
 10
102.647998021213
 20
382.2106064582669
 10
102.5727226848603
 20
382.4963771287683
 10
102.4219997573806
 20
382.6744885653557
 10
102.2714490846752
 20
382.8527722567174
 10
102.0747341324674
 20
382.9418279750111
 10
101.8321994103058
 20
382.9418279750111
 10
101.6375515153892
 20
382.9418279750111
 10
101.4749430084854
 20
382.8822278231161
 10
101.3443738895945
 20
382.7626830097781
 10
101.2139770254778
 20
382.6433104512142
 10
101.1312947338318
 20
382.4595146070761
 10
101.0963270146565
 20
382.2114677321382
 97
        0
 97
        0
 75
     2
 76
     1
 98
        0
450
        0
451
        0
460
0.0
461
0.0
452
        0
462
0.0
453
        0
470

  0
SPLINE
  5
C5
330
BF
100
AcDbEntity
  8
Capa 1
370
     0
100
AcDbSpline
210
0.0
220
0.0
230
1.0
 70
    11
 71
     3
 72
    56
 73
    52
 74
     0
 42
0.000000001
 43
0.0000000001
 40
0.0
 40
0.0
 40
0.0
 40
0.0
 40
1.0
 40
1.0
 40
1.0
 40
2.0
 40
2.0
 40
2.0
 40
3.0
 40
3.0
 40
3.0
 40
4.0
 40
4.0
 40
4.0
 40
5.0
 40
5.0
 40
5.0
 40
6.0
 40
6.0
 40
6.0
 40
7.0
 40
7.0
 40
7.0
 40
8.0
 40
8.0
 40
8.0
 40
9.0
 40
9.0
 40
9.0
 40
10.0
 40
10.0
 40
10.0
 40
11.0
 40
11.0
 40
11.0
 40
12.0
 40
12.0
 40
12.0
 40
13.0
 40
13.0
 40
13.0
 40
14.0
 40
14.0
 40
14.0
 40
15.0
 40
15.0
 40
15.0
 40
16.0
 40
16.0
 40
16.0
 40
17.0
 40
17.0
 40
17.0
 40
17.0
 10
100.1840657301623
 20
383.2835814471479
 30
0.0
 10
100.1840657301623
 20
383.2835814471479
 30
0.0
 10
100.1840657301623
 20
379.2433457168211
 30
0.0
 10
100.1840657301623
 20
379.2433457168211
 30
0.0
 10
100.1840657301623
 20
379.2433457168211
 30
0.0
 10
99.68797198028635
 20
379.2433457168211
 30
0.0
 10
99.68797198028635
 20
379.2433457168211
 30
0.0
 10
99.68797198028635
 20
379.2433457168211
 30
0.0
 10
99.68797198028635
 20
380.69286964224
 30
0.0
 10
99.68797198028635
 20
380.69286964224
 30
0.0
 10
99.45646156367757
 20
380.4246689587133
 30
0.0
 10
99.16431746652836
 20
380.2904824895628
 30
0.0
 10
98.8115396888388
 20
380.2904824895628
 30
0.0
 10
98.59484318281658
 20
380.2904824895628
 30
0.0
 10
98.4063964597734
 20
380.3332016735799
 30
0.0
 10
98.24654402925782
 20
380.4188122963884
 30
0.0
 10
98.08669159874222
 20
380.5042506644226
 30
0.0
 10
97.97231442863193
 20
380.6224174395667
 30
0.0
 10
97.90341251892693
 20
380.7729681122721
 30
0.0
 10
97.83451060922194
 20
380.9236910397518
 30
0.0
 10
97.80005965436943
 20
381.1422823482908
 30
0.0
 10
97.80005965436943
 20
381.4289142926636
 30
0.0
 10
97.80005965436943
 20
381.4289142926636
 30
0.0
 10
97.80005965436943
 20
383.2837537019221
 30
0.0
 10
97.80005965436943
 20
383.2837537019221
 30
0.0
 10
97.80005965436943
 20
383.2837537019221
 30
0.0
 10
98.29615340424542
 20
383.2837537019221
 30
0.0
 10
98.29615340424542
 20
383.2837537019221
 30
0.0
 10
98.29615340424542
 20
383.2837537019221
 30
0.0
 10
98.29615340424542
 20
381.4289142926636
 30
0.0
 10
98.29615340424542
 20
381.4289142926636
 30
0.0
 10
98.29615340424542
 20
381.1808674177256
 30
0.0
 10
98.34989689381531
 20
381.0001721595243
 30
0.0
 10
98.4573838729551
 20
380.8871730276081
 30
0.0
 10
98.5648708520949
 20
380.7741738956919
 30
0.0
 10
98.7169718177687
 20
380.7176743297338
 30
0.0
 10
98.91351451520218
 20
380.7176743297338
 30
0.0
 10
99.06062009242235
 20
380.7176743297338
 30
0.0
 10
99.19876842138087
 20
380.7559148896201
 30
0.0
 10
99.32830401162625
 20
380.8320514998441
 30
0.0
 10
99.45783960187164
 20
380.9083603648424
 30
0.0
 10
99.55016816087635
 20
381.0117132293998
 30
0.0
 10
99.60528968864037
 20
381.1421100935167
 30
0.0
 10
99.66041121640435
 20
381.2726792124075
 30
0.0
 10
99.68797198028635
 20
381.4526854515118
 30
0.0
 10
99.68797198028635
 20
381.6823010656037
 30
0.0
 10
99.68797198028635
 20
381.6823010656037
 30
0.0
 10
99.68797198028635
 20
383.2835814471479
 30
0.0
 10
99.68797198028635
 20
383.2835814471479
 30
0.0
 10
99.68797198028635
 20
383.2835814471479
 30
0.0
 10
100.1840657301623
 20
383.2835814471479
 30
0.0
 10
100.1840657301623
 20
383.2835814471479
 30
0.0
  0
HATCH
  5
C6
330
BF
100
AcDbEntity
  8
Capa 1
 62
   250
100
AcDbHatch
 10
0.0
 20
0.0
 30
0.0
210
0.0
220
0.0
230
1.0
  2
SOLID
 70
     1
 71
     0
 91
        1
 92
        1
 93
        1
 72
     4
 94
        3
 73
     0
 74
     0
 95
       56
 96
       52
 40
0.0
 40
0.0
 40
0.0
 40
0.0
 40
1.0
 40
1.0
 40
1.0
 40
2.0
 40
2.0
 40
2.0
 40
3.0
 40
3.0
 40
3.0
 40
4.0
 40
4.0
 40
4.0
 40
5.0
 40
5.0
 40
5.0
 40
6.0
 40
6.0
 40
6.0
 40
7.0
 40
7.0
 40
7.0
 40
8.0
 40
8.0
 40
8.0
 40
9.0
 40
9.0
 40
9.0
 40
10.0
 40
10.0
 40
10.0
 40
11.0
 40
11.0
 40
11.0
 40
12.0
 40
12.0
 40
12.0
 40
13.0
 40
13.0
 40
13.0
 40
14.0
 40
14.0
 40
14.0
 40
15.0
 40
15.0
 40
15.0
 40
16.0
 40
16.0
 40
16.0
 40
17.0
 40
17.0
 40
17.0
 40
17.0
 10
100.1840657301623
 20
383.2835814471479
 10
100.1840657301623
 20
383.2835814471479
 10
100.1840657301623
 20
379.2433457168211
 10
100.1840657301623
 20
379.2433457168211
 10
100.1840657301623
 20
379.2433457168211
 10
99.68797198028635
 20
379.2433457168211
 10
99.68797198028635
 20
379.2433457168211
 10
99.68797198028635
 20
379.2433457168211
 10
99.68797198028635
 20
380.69286964224
 10
99.68797198028635
 20
380.69286964224
 10
99.45646156367757
 20
380.4246689587133
 10
99.16431746652836
 20
380.2904824895628
 10
98.8115396888388
 20
380.2904824895628
 10
98.59484318281658
 20
380.2904824895628
 10
98.4063964597734
 20
380.3332016735799
 10
98.24654402925782
 20
380.4188122963884
 10
98.08669159874222
 20
380.5042506644226
 10
97.97231442863193
 20
380.6224174395667
 10
97.90341251892693
 20
380.7729681122721
 10
97.83451060922194
 20
380.9236910397518
 10
97.80005965436943
 20
381.1422823482908
 10
97.80005965436943
 20
381.4289142926636
 10
97.80005965436943
 20
381.4289142926636
 10
97.80005965436943
 20
383.2837537019221
 10
97.80005965436943
 20
383.2837537019221
 10
97.80005965436943
 20
383.2837537019221
 10
98.29615340424542
 20
383.2837537019221
 10
98.29615340424542
 20
383.2837537019221
 10
98.29615340424542
 20
383.2837537019221
 10
98.29615340424542
 20
381.4289142926636
 10
98.29615340424542
 20
381.4289142926636
 10
98.29615340424542
 20
381.1808674177256
 10
98.34989689381531
 20
381.0001721595243
 10
98.4573838729551
 20
380.8871730276081
 10
98.5648708520949
 20
380.7741738956919
 10
98.7169718177687
 20
380.7176743297338
 10
98.91351451520218
 20
380.7176743297338
 10
99.06062009242235
 20
380.7176743297338
 10
99.19876842138087
 20
380.7559148896201
 10
99.32830401162625
 20
380.8320514998441
 10
99.45783960187164
 20
380.9083603648424
 10
99.55016816087635
 20
381.0117132293998
 10
99.60528968864037
 20
381.1421100935167
 10
99.66041121640435
 20
381.2726792124075
 10
99.68797198028635
 20
381.4526854515118
 10
99.68797198028635
 20
381.6823010656037
 10
99.68797198028635
 20
381.6823010656037
 10
99.68797198028635
 20
383.2835814471479
 10
99.68797198028635
 20
383.2835814471479
 10
99.68797198028635
 20
383.2835814471479
 10
100.1840657301623
 20
383.2835814471479
 10
100.1840657301623
 20
383.2835814471479
 97
        0
 97
        0
 75
     2
 76
     1
 98
        0
450
        0
451
        0
460
0.0
461
0.0
452
        0
462
0.0
453
        0
470

  0
SPLINE
  5
C7
330
BF
100
AcDbEntity
  8
Capa 1
370
     0
100
AcDbSpline
210
0.0
220
0.0
230
1.0
 70
     9
 71
     3
 72
    50
 73
    46
 74
     0
 42
0.000000001
 43
0.0000000001
 40
0.0
 40
0.0
 40
0.0
 40
0.0
 40
1.0
 40
1.0
 40
1.0
 40
2.0
 40
2.0
 40
2.0
 40
3.0
 40
3.0
 40
3.0
 40
4.0
 40
4.0
 40
4.0
 40
5.0
 40
5.0
 40
5.0
 40
6.0
 40
6.0
 40
6.0
 40
7.0
 40
7.0
 40
7.0
 40
8.0
 40
8.0
 40
8.0
 40
9.0
 40
9.0
 40
9.0
 40
10.0
 40
10.0
 40
10.0
 40
11.0
 40
11.0
 40
11.0
 40
12.0
 40
12.0
 40
12.0
 40
13.0
 40
13.0
 40
13.0
 40
14.0
 40
14.0
 40
14.0
 40
15.0
 40
15.0
 40
15.0
 40
15.0
 10
95.04139944455562
 20
382.3411755771578
 30
0.0
 10
95.04139944455562
 20
382.3411755771578
 30
0.0
 10
94.52876923635045
 20
382.4045653340864
 30
0.0
 10
94.52876923635045
 20
382.4045653340864
 30
0.0
 10
94.6097289802538
 20
382.7041163865288
 30
0.0
 10
94.75941837908791
 20
382.936488077009
 30
0.0
 10
94.97800968762705
 20
383.1018526603009
 30
0.0
 10
95.1967732509404
 20
383.267217243593
 30
0.0
 10
95.47599824001988
 20
383.3498995352389
 30
0.0
 10
95.81585690963979
 20
383.3498995352389
 30
0.0
 10
96.24408227845636
 20
383.3498995352389
 30
0.0
 10
96.58342418375344
 20
383.2181246329282
 30
0.0
 10
96.83422713507964
 20
382.9544025735323
 30
0.0
 10
97.08503008640585
 20
382.6908527689106
 30
0.0
 10
97.21043156206892
 20
382.321021768569
 30
0.0
 10
97.21043156206892
 20
381.8450818272818
 30
0.0
 10
97.21043156206892
 20
381.3527776824397
 30
0.0
 10
97.08365204821173
 20
380.9705443383511
 30
0.0
 10
96.83009302049734
 20
380.6985540497906
 30
0.0
 10
96.57653399278295
 20
380.4267360160044
 30
0.0
 10
96.24769962871587
 20
380.2906547443371
 30
0.0
 10
95.84341767352178
 20
380.2906547443371
 30
0.0
 10
95.4520548263974
 20
380.2906547443371
 30
0.0
 10
95.13234996536622
 20
380.4239799396162
 30
0.0
 10
94.88430309042824
 20
380.6902858206262
 30
0.0
 10
94.63625621549022
 20
380.9567639564102
 30
0.0
 10
94.51223277802126
 20
381.3315903452053
 30
0.0
 10
94.51223277802126
 20
381.8147649870116
 30
0.0
 10
94.51223277802126
 20
381.8442205534105
 30
0.0
 10
94.51326630666681
 20
381.8883177756217
 30
0.0
 10
94.51498885440946
 20
381.9470566536452
 30
0.0
 10
94.51498885440946
 20
381.9470566536452
 30
0.0
 10
96.69780135386377
 20
381.9470566536452
 30
0.0
 10
96.69780135386377
 20
381.9470566536452
 30
0.0
 10
96.67954234779193
 20
382.2686563171933
 30
0.0
 10
96.58859182698131
 20
382.5148083896144
 30
0.0
 10
96.42494979143195
 20
382.6856851256828
 30
0.0
 10
96.26148001065686
 20
382.8565618617512
 30
0.0
 10
96.05753035793007
 20
382.9420002297854
 30
0.0
 10
95.8131008332516
 20
382.9420002297854
 30
0.0
 10
95.6311997916304
 20
382.9420002297854
 30
0.0
 10
95.47599824001988
 20
382.8942856573146
 30
0.0
 10
95.34732392364581
 20
382.7986842575989
 30
0.0
 10
95.21882186204599
 20
382.7032551126574
 30
0.0
 10
95.1168470356826
 20
382.5506373826609
 30
0.0
 10
95.04139944455562
 20
382.3411755771578
 30
0.0
  0
SPLINE
  5
C8
330
BF
100
AcDbEntity
  8
Capa 1
370
     0
100
AcDbSpline
210
0.0
220
0.0
230
1.0
 70
     9
 71
     3
 72
    20
 73
    16
 74
     0
 42
0.000000001
 43
0.0000000001
 40
0.0
 40
0.0
 40
0.0
 40
0.0
 40
1.0
 40
1.0
 40
1.0
 40
2.0
 40
2.0
 40
2.0
 40
3.0
 40
3.0
 40
3.0
 40
4.0
 40
4.0
 40
4.0
 40
5.0
 40
5.0
 40
5.0
 40
5.0
 10
96.67024058998173
 20
381.5391573481916
 30
0.0
 10
96.67024058998173
 20
381.5391573481916
 30
0.0
 10
95.03588729177923
 20
381.5391573481916
 30
0.0
 10
95.03588729177923
 20
381.5391573481916
 30
0.0
 10
95.05793590288481
 20
381.2930052757705
 30
0.0
 10
95.12046438594211
 20
381.1083481577611
 30
0.0
 10
95.22330048617686
 20
380.9851859941634
 30
0.0
 10
95.38143036894977
 20
380.7941554495063
 30
0.0
 10
95.58624129554791
 20
380.6985540497906
 30
0.0
 10
95.83790552074541
 20
380.6985540497906
 30
0.0
 10
96.06579858709466
 20
380.6985540497906
 30
0.0
 10
96.25734589607457
 20
380.774862914789
 30
0.0
 10
96.41254744768508
 20
380.9273083900113
 30
0.0
 10
96.56792125406985
 20
381.0799261200078
 30
0.0
 10
96.65370413165256
 20
381.2838757727346
 30
0.0
 10
96.67024058998173
 20
381.5391573481916
 30
0.0
  0
HATCH
  5
C9
330
BF
100
AcDbEntity
  8
Capa 1
 62
   250
100
AcDbHatch
 10
0.0
 20
0.0
 30
0.0
210
0.0
220
0.0
230
1.0
  2
SOLID
 70
     1
 71
     0
 91
        2
 92
        1
 93
        1
 72
     4
 94
        3
 73
     0
 74
     0
 95
       50
 96
       46
 40
0.0
 40
0.0
 40
0.0
 40
0.0
 40
1.0
 40
1.0
 40
1.0
 40
2.0
 40
2.0
 40
2.0
 40
3.0
 40
3.0
 40
3.0
 40
4.0
 40
4.0
 40
4.0
 40
5.0
 40
5.0
 40
5.0
 40
6.0
 40
6.0
 40
6.0
 40
7.0
 40
7.0
 40
7.0
 40
8.0
 40
8.0
 40
8.0
 40
9.0
 40
9.0
 40
9.0
 40
10.0
 40
10.0
 40
10.0
 40
11.0
 40
11.0
 40
11.0
 40
12.0
 40
12.0
 40
12.0
 40
13.0
 40
13.0
 40
13.0
 40
14.0
 40
14.0
 40
14.0
 40
15.0
 40
15.0
 40
15.0
 40
15.0
 10
95.04139944455562
 20
382.3411755771578
 10
95.04139944455562
 20
382.3411755771578
 10
94.52876923635045
 20
382.4045653340864
 10
94.52876923635045
 20
382.4045653340864
 10
94.6097289802538
 20
382.7041163865288
 10
94.75941837908791
 20
382.936488077009
 10
94.97800968762705
 20
383.1018526603009
 10
95.1967732509404
 20
383.267217243593
 10
95.47599824001988
 20
383.3498995352389
 10
95.81585690963979
 20
383.3498995352389
 10
96.24408227845636
 20
383.3498995352389
 10
96.58342418375344
 20
383.2181246329282
 10
96.83422713507964
 20
382.9544025735323
 10
97.08503008640585
 20
382.6908527689106
 10
97.21043156206892
 20
382.321021768569
 10
97.21043156206892
 20
381.8450818272818
 10
97.21043156206892
 20
381.3527776824397
 10
97.08365204821173
 20
380.9705443383511
 10
96.83009302049734
 20
380.6985540497906
 10
96.57653399278295
 20
380.4267360160044
 10
96.24769962871587
 20
380.2906547443371
 10
95.84341767352178
 20
380.2906547443371
 10
95.4520548263974
 20
380.2906547443371
 10
95.13234996536622
 20
380.4239799396162
 10
94.88430309042824
 20
380.6902858206262
 10
94.63625621549022
 20
380.9567639564102
 10
94.51223277802126
 20
381.3315903452053
 10
94.51223277802126
 20
381.8147649870116
 10
94.51223277802126
 20
381.8442205534105
 10
94.51326630666681
 20
381.8883177756217
 10
94.51498885440946
 20
381.9470566536452
 10
94.51498885440946
 20
381.9470566536452
 10
96.69780135386377
 20
381.9470566536452
 10
96.69780135386377
 20
381.9470566536452
 10
96.67954234779193
 20
382.2686563171933
 10
96.58859182698131
 20
382.5148083896144
 10
96.42494979143195
 20
382.6856851256828
 10
96.26148001065686
 20
382.8565618617512
 10
96.05753035793007
 20
382.9420002297854
 10
95.8131008332516
 20
382.9420002297854
 10
95.6311997916304
 20
382.9420002297854
 10
95.47599824001988
 20
382.8942856573146
 10
95.34732392364581
 20
382.7986842575989
 10
95.21882186204599
 20
382.7032551126574
 10
95.1168470356826
 20
382.5506373826609
 10
95.04139944455562
 20
382.3411755771578
 97
        0
 97
        0
 92
        1
 93
        1
 72
     4
 94
        3
 73
     0
 74
     0
 95
       20
 96
       16
 40
0.0
 40
0.0
 40
0.0
 40
0.0
 40
1.0
 40
1.0
 40
1.0
 40
2.0
 40
2.0
 40
2.0
 40
3.0
 40
3.0
 40
3.0
 40
4.0
 40
4.0
 40
4.0
 40
5.0
 40
5.0
 40
5.0
 40
5.0
 10
96.67024058998173
 20
381.5391573481916
 10
96.67024058998173
 20
381.5391573481916
 10
95.03588729177923
 20
381.5391573481916
 10
95.03588729177923
 20
381.5391573481916
 10
95.05793590288481
 20
381.2930052757705
 10
95.12046438594211
 20
381.1083481577611
 10
95.22330048617686
 20
380.9851859941634
 10
95.38143036894977
 20
380.7941554495063
 10
95.58624129554791
 20
380.6985540497906
 10
95.83790552074541
 20
380.6985540497906
 10
96.06579858709466
 20
380.6985540497906
 10
96.25734589607457
 20
380.774862914789
 10
96.41254744768508
 20
380.9273083900113
 10
96.56792125406985
 20
381.0799261200078
 10
96.65370413165256
 20
381.2838757727346
 10
96.67024058998173
 20
381.5391573481916
 97
        0
 97
        0
 75
     2
 76
     1
 98
        0
450
        0
451
        0
460
0.0
461
0.0
452
        0
462
0.0
453
        0
470

  0
SPLINE
  5
CA
330
BF
100
AcDbEntity
  8
Capa 1
370
     0
100
AcDbSpline
210
0.0
220
0.0
230
1.0
 70
     9
 71
     3
 72
    62
 73
    58
 74
     0
 42
0.000000001
 43
0.0000000001
 40
0.0
 40
0.0
 40
0.0
 40
0.0
 40
1.0
 40
1.0
 40
1.0
 40
2.0
 40
2.0
 40
2.0
 40
3.0
 40
3.0
 40
3.0
 40
4.0
 40
4.0
 40
4.0
 40
5.0
 40
5.0
 40
5.0
 40
6.0
 40
6.0
 40
6.0
 40
7.0
 40
7.0
 40
7.0
 40
8.0
 40
8.0
 40
8.0
 40
9.0
 40
9.0
 40
9.0
 40
10.0
 40
10.0
 40
10.0
 40
11.0
 40
11.0
 40
11.0
 40
12.0
 40
12.0
 40
12.0
 40
13.0
 40
13.0
 40
13.0
 40
14.0
 40
14.0
 40
14.0
 40
15.0
 40
15.0
 40
15.0
 40
16.0
 40
16.0
 40
16.0
 40
17.0
 40
17.0
 40
17.0
 40
18.0
 40
18.0
 40
18.0
 40
19.0
 40
19.0
 40
19.0
 40
19.0
 10
91.99593503559476
 20
382.2118122416867
 30
0.0
 10
91.99593503559476
 20
382.2118122416867
 30
0.0
 10
91.5081095148834
 20
382.2752019986152
 30
0.0
 10
91.5081095148834
 20
382.2752019986152
 30
0.0
 10
91.56150849490478
 20
382.6114433179756
 30
0.0
 10
91.69793427612066
 20
382.8746486130487
 30
0.0
 10
91.91738685853108
 20
383.0648178838345
 30
0.0
 10
92.13701169571576
 20
383.2549871546202
 30
0.0
 10
92.40659041743656
 20
383.3500717900132
 30
0.0
 10
92.72629527846772
 20
383.3500717900132
 30
0.0
 10
93.12695988340228
 20
383.3500717900132
 30
0.0
 10
93.44890405649888
 20
383.2189859067994
 30
0.0
 10
93.69230005253179
 20
382.9571586499205
 30
0.0
 10
93.93586830333894
 20
382.6953313930414
 30
0.0
 10
94.05748017396827
 20
382.3201604946977
 30
0.0
 10
94.05748017396827
 20
381.8313014453408
 30
0.0
 10
94.05748017396827
 20
381.5153861893433
 30
0.0
 10
94.00511472259248
 20
381.2387450218778
 30
0.0
 10
93.90038381984087
 20
381.0017224524926
 30
0.0
 10
93.79565291708928
 20
380.7646998831074
 30
0.0
 10
93.6363172508965
 20
380.5869329560687
 30
0.0
 10
93.42220456648821
 20
380.4684216713759
 30
0.0
 10
93.2082641368542
 20
380.3500826414576
 30
0.0
 10
92.97537568205129
 20
380.2908269991113
 30
0.0
 10
92.72353920207955
 20
380.2908269991113
 30
0.0
 10
92.40572914356524
 20
380.2908269991113
 30
0.0
 10
92.14579668920315
 20
380.3712699786919
 30
0.0
 10
91.94356958421897
 20
380.5319836830788
 30
0.0
 10
91.74151473400907
 20
380.69286964224
 30
0.0
 10
91.61197914376369
 20
380.9211072181378
 30
0.0
 10
91.5549628134828
 20
381.2168686655465
 30
0.0
 10
91.5549628134828
 20
381.2168686655465
 30
0.0
 10
92.03727618141776
 20
381.2912827280279
 30
0.0
 10
92.03727618141776
 20
381.2912827280279
 30
0.0
 10
92.08326820614585
 20
381.0947400305944
 30
0.0
 10
92.16457245959777
 20
380.9467731795029
 30
0.0
 10
92.28118894177343
 20
380.8475544295277
 30
0.0
 10
92.39797767872344
 20
380.7483356795525
 30
0.0
 10
92.53888208407015
 20
380.6987263045649
 30
0.0
 10
92.70424666736214
 20
380.6987263045649
 30
0.0
 10
92.95418834481701
 20
380.6987263045649
 30
0.0
 10
93.1572767236725
 20
380.7882987871814
 30
0.0
 10
93.31333954915431
 20
380.9674437524144
 30
0.0
 10
93.46957462941039
 20
381.1464164628731
 30
0.0
 10
93.5476060421513
 20
381.4299478213092
 30
0.0
 10
93.5476060421513
 20
381.8175210633998
 30
0.0
 10
93.5476060421513
 20
382.2107787130412
 30
0.0
 10
93.47233070579857
 20
382.4965493835426
 30
0.0
 10
93.32160777831891
 20
382.6748330749042
 30
0.0
 10
93.17105710561348
 20
382.8531167662659
 30
0.0
 10
92.97434215340572
 20
382.9421724845596
 30
0.0
 10
92.73180743124415
 20
382.9421724845596
 30
0.0
 10
92.53715953632751
 20
382.9421724845596
 30
0.0
 10
92.37455102942371
 20
382.8825723326648
 30
0.0
 10
92.24398191053277
 20
382.7630275193266
 30
0.0
 10
92.11358504641605
 20
382.6436549607627
 30
0.0
 10
92.03090275477006
 20
382.4598591166246
 30
0.0
 10
91.99593503559476
 20
382.2118122416867
 30
0.0
  0
HATCH
  5
CB
330
BF
100
AcDbEntity
  8
Capa 1
 62
   250
100
AcDbHatch
 10
0.0
 20
0.0
 30
0.0
210
0.0
220
0.0
230
1.0
  2
SOLID
 70
     1
 71
     0
 91
        1
 92
        1
 93
        1
 72
     4
 94
        3
 73
     0
 74
     0
 95
       62
 96
       58
 40
0.0
 40
0.0
 40
0.0
 40
0.0
 40
1.0
 40
1.0
 40
1.0
 40
2.0
 40
2.0
 40
2.0
 40
3.0
 40
3.0
 40
3.0
 40
4.0
 40
4.0
 40
4.0
 40
5.0
 40
5.0
 40
5.0
 40
6.0
 40
6.0
 40
6.0
 40
7.0
 40
7.0
 40
7.0
 40
8.0
 40
8.0
 40
8.0
 40
9.0
 40
9.0
 40
9.0
 40
10.0
 40
10.0
 40
10.0
 40
11.0
 40
11.0
 40
11.0
 40
12.0
 40
12.0
 40
12.0
 40
13.0
 40
13.0
 40
13.0
 40
14.0
 40
14.0
 40
14.0
 40
15.0
 40
15.0
 40
15.0
 40
16.0
 40
16.0
 40
16.0
 40
17.0
 40
17.0
 40
17.0
 40
18.0
 40
18.0
 40
18.0
 40
19.0
 40
19.0
 40
19.0
 40
19.0
 10
91.99593503559476
 20
382.2118122416867
 10
91.99593503559476
 20
382.2118122416867
 10
91.5081095148834
 20
382.2752019986152
 10
91.5081095148834
 20
382.2752019986152
 10
91.56150849490478
 20
382.6114433179756
 10
91.69793427612066
 20
382.8746486130487
 10
91.91738685853108
 20
383.0648178838345
 10
92.13701169571576
 20
383.2549871546202
 10
92.40659041743656
 20
383.3500717900132
 10
92.72629527846772
 20
383.3500717900132
 10
93.12695988340228
 20
383.3500717900132
 10
93.44890405649888
 20
383.2189859067994
 10
93.69230005253179
 20
382.9571586499205
 10
93.93586830333894
 20
382.6953313930414
 10
94.05748017396827
 20
382.3201604946977
 10
94.05748017396827
 20
381.8313014453408
 10
94.05748017396827
 20
381.5153861893433
 10
94.00511472259248
 20
381.2387450218778
 10
93.90038381984087
 20
381.0017224524926
 10
93.79565291708928
 20
380.7646998831074
 10
93.6363172508965
 20
380.5869329560687
 10
93.42220456648821
 20
380.4684216713759
 10
93.2082641368542
 20
380.3500826414576
 10
92.97537568205129
 20
380.2908269991113
 10
92.72353920207955
 20
380.2908269991113
 10
92.40572914356524
 20
380.2908269991113
 10
92.14579668920315
 20
380.3712699786919
 10
91.94356958421897
 20
380.5319836830788
 10
91.74151473400907
 20
380.69286964224
 10
91.61197914376369
 20
380.9211072181378
 10
91.5549628134828
 20
381.2168686655465
 10
91.5549628134828
 20
381.2168686655465
 10
92.03727618141776
 20
381.2912827280279
 10
92.03727618141776
 20
381.2912827280279
 10
92.08326820614585
 20
381.0947400305944
 10
92.16457245959777
 20
380.9467731795029
 10
92.28118894177343
 20
380.8475544295277
 10
92.39797767872344
 20
380.7483356795525
 10
92.53888208407015
 20
380.6987263045649
 10
92.70424666736214
 20
380.6987263045649
 10
92.95418834481701
 20
380.6987263045649
 10
93.1572767236725
 20
380.7882987871814
 10
93.31333954915431
 20
380.9674437524144
 10
93.46957462941039
 20
381.1464164628731
 10
93.5476060421513
 20
381.4299478213092
 10
93.5476060421513
 20
381.8175210633998
 10
93.5476060421513
 20
382.2107787130412
 10
93.47233070579857
 20
382.4965493835426
 10
93.32160777831891
 20
382.6748330749042
 10
93.17105710561348
 20
382.8531167662659
 10
92.97434215340572
 20
382.9421724845596
 10
92.73180743124415
 20
382.9421724845596
 10
92.53715953632751
 20
382.9421724845596
 10
92.37455102942371
 20
382.8825723326648
 10
92.24398191053277
 20
382.7630275193266
 10
92.11358504641605
 20
382.6436549607627
 10
92.03090275477006
 20
382.4598591166246
 10
91.99593503559476
 20
382.2118122416867
 97
        0
 97
        0
 75
     2
 76
     1
 98
        0
450
        0
451
        0
460
0.0
461
0.0
452
        0
462
0.0
453
        0
470

  0
POLYLINE
  5
CC
330
BF
100
AcDbEntity
  8
Capa 1
370
     0
100
AcDb2dPolyline
 66
     1
 10
0.0
 20
0.0
 30
0.0
  0
VERTEX
  5
CD
330
CC
100
AcDbEntity
  8
Capa 1
370
     0
100
AcDbVertex
100
AcDb2dVertex
 10
91.0810899294867
 20
383.2839259566964
 30
0.0
  0
VERTEX
  5
CE
330
CC
100
AcDbEntity
  8
Capa 1
370
     0
100
AcDbVertex
100
AcDb2dVertex
 10
91.0810899294867
 20
379.2436902263697
 30
0.0
  0
VERTEX
  5
CF
330
CC
100
AcDbEntity
  8
Capa 1
370
     0
100
AcDbVertex
100
AcDb2dVertex
 10
90.58499617961071
 20
379.2436902263697
 30
0.0
  0
VERTEX
  5
D0
330
CC
100
AcDbEntity
  8
Capa 1
370
     0
100
AcDbVertex
100
AcDb2dVertex
 10
90.58499617961071
 20
381.5475978321305
 30
0.0
  0
VERTEX
  5
D1
330
CC
100
AcDbEntity
  8
Capa 1
370
     0
100
AcDbVertex
100
AcDb2dVertex
 10
89.41090763823757
 20
380.3569728324281
 30
0.0
  0
VERTEX
  5
D2
330
CC
100
AcDbEntity
  8
Capa 1
370
     0
100
AcDbVertex
100
AcDb2dVertex
 10
88.76874183978697
 20
380.3569728324281
 30
0.0
  0
VERTEX
  5
D3
330
CC
100
AcDbEntity
  8
Capa 1
370
     0
100
AcDbVertex
100
AcDb2dVertex
 10
89.88770885339613
 20
381.4428669293789
 30
0.0
  0
VERTEX
  5
D4
330
CC
100
AcDbEntity
  8
Capa 1
370
     0
100
AcDbVertex
100
AcDb2dVertex
 10
88.65574270787078
 20
383.2839259566964
 30
0.0
  0
VERTEX
  5
D5
330
CC
100
AcDbEntity
  8
Capa 1
370
     0
100
AcDbVertex
100
AcDb2dVertex
 10
89.26759166605116
 20
383.2839259566964
 30
0.0
  0
VERTEX
  5
D6
330
CC
100
AcDbEntity
  8
Capa 1
370
     0
100
AcDbVertex
100
AcDb2dVertex
 10
90.23497447830932
 20
381.7873764779039
 30
0.0
  0
VERTEX
  5
D7
330
CC
100
AcDbEntity
  8
Capa 1
370
     0
100
AcDbVertex
100
AcDb2dVertex
 10
90.58499617961071
 20
382.1236177972643
 30
0.0
  0
VERTEX
  5
D8
330
CC
100
AcDbEntity
  8
Capa 1
370
     0
100
AcDbVertex
100
AcDb2dVertex
 10
90.58499617961071
 20
383.2839259566964
 30
0.0
  0
VERTEX
  5
D9
330
CC
100
AcDbEntity
  8
Capa 1
370
     0
100
AcDbVertex
100
AcDb2dVertex
 10
91.0810899294867
 20
383.2839259566964
 30
0.0
  0
SEQEND
  5
DA
330
CC
100
AcDbEntity
  8
Capa 1
370
     0
  0
HATCH
  5
DB
330
BF
100
AcDbEntity
  8
Capa 1
 62
   250
100
AcDbHatch
 10
0.0
 20
0.0
 30
0.0
210
0.0
220
0.0
230
1.0
  2
SOLID
 70
     1
 71
     0
 91
        1
 92
        1
 93
       12
 72
     1
 10
91.0810899294867
 20
383.2839259566964
 11
91.0810899294867
 21
379.2436902263697
 72
     1
 10
91.0810899294867
 20
379.2436902263697
 11
90.58499617961071
 21
379.2436902263697
 72
     1
 10
90.58499617961071
 20
379.2436902263697
 11
90.58499617961071
 21
381.5475978321305
 72
     1
 10
90.58499617961071
 20
381.5475978321305
 11
89.41090763823757
 21
380.3569728324281
 72
     1
 10
89.41090763823757
 20
380.3569728324281
 11
88.76874183978697
 21
380.3569728324281
 72
     1
 10
88.76874183978697
 20
380.3569728324281
 11
89.88770885339613
 21
381.4428669293789
 72
     1
 10
89.88770885339613
 20
381.4428669293789
 11
88.65574270787078
 21
383.2839259566964
 72
     1
 10
88.65574270787078
 20
383.2839259566964
 11
89.26759166605116
 21
383.2839259566964
 72
     1
 10
89.26759166605116
 20
383.2839259566964
 11
90.23497447830932
 21
381.7873764779039
 72
     1
 10
90.23497447830932
 20
381.7873764779039
 11
90.58499617961071
 21
382.1236177972643
 72
     1
 10
90.58499617961071
 20
382.1236177972643
 11
90.58499617961071
 21
383.2839259566964
 72
     1
 10
90.58499617961071
 20
383.2839259566964
 11
91.0810899294867
 21
383.2839259566964
 97
        0
 75
     2
 76
     1
 98
        0
450
        0
451
        0
460
0.0
461
0.0
452
        0
462
0.0
453
        0
470

  0
SPLINE
  5
DC
330
BF
100
AcDbEntity
  8
Capa 1
370
     0
100
AcDbSpline
210
0.0
220
0.0
230
1.0
 70
     9
 71
     3
 72
   104
 73
   100
 74
     0
 42
0.000000001
 43
0.0000000001
 40
0.0
 40
0.0
 40
0.0
 40
0.0
 40
1.0
 40
1.0
 40
1.0
 40
2.0
 40
2.0
 40
2.0
 40
3.0
 40
3.0
 40
3.0
 40
4.0
 40
4.0
 40
4.0
 40
5.0
 40
5.0
 40
5.0
 40
6.0
 40
6.0
 40
6.0
 40
7.0
 40
7.0
 40
7.0
 40
8.0
 40
8.0
 40
8.0
 40
9.0
 40
9.0
 40
9.0
 40
10.0
 40
10.0
 40
10.0
 40
11.0
 40
11.0
 40
11.0
 40
12.0
 40
12.0
 40
12.0
 40
13.0
 40
13.0
 40
13.0
 40
14.0
 40
14.0
 40
14.0
 40
15.0
 40
15.0
 40
15.0
 40
16.0
 40
16.0
 40
16.0
 40
17.0
 40
17.0
 40
17.0
 40
18.0
 40
18.0
 40
18.0
 40
19.0
 40
19.0
 40
19.0
 40
20.0
 40
20.0
 40
20.0
 40
21.0
 40
21.0
 40
21.0
 40
22.0
 40
22.0
 40
22.0
 40
23.0
 40
23.0
 40
23.0
 40
24.0
 40
24.0
 40
24.0
 40
25.0
 40
25.0
 40
25.0
 40
26.0
 40
26.0
 40
26.0
 40
27.0
 40
27.0
 40
27.0
 40
28.0
 40
28.0
 40
28.0
 40
29.0
 40
29.0
 40
29.0
 40
30.0
 40
30.0
 40
30.0
 40
31.0
 40
31.0
 40
31.0
 40
32.0
 40
32.0
 40
32.0
 40
33.0
 40
33.0
 40
33.0
 40
33.0
 10
86.89185381942287
 20
382.4104219964113
 30
0.0
 10
86.89185381942287
 20
382.4104219964113
 30
0.0
 10
86.40127222232329
 20
382.3332518575417
 30
0.0
 10
86.40127222232329
 20
382.3332518575417
 30
0.0
 10
86.37371145844129
 20
382.5299668097495
 30
0.0
 10
86.29705808389449
 20
382.6805174824549
 30
0.0
 10
86.1711398439086
 20
382.7852483852065
 30
0.0
 10
86.04539385869697
 20
382.8899792879582
 30
0.0
 10
85.86934947940072
 20
382.9423447393338
 30
0.0
 10
85.64335121556833
 20
382.9423447393338
 30
0.0
 10
85.4156304039933
 20
382.9423447393338
 30
0.0
 10
85.24647621566755
 20
382.8960082050573
 30
0.0
 10
85.13623316013955
 20
382.8031628817298
 30
0.0
 10
85.02599010461157
 20
382.7104898131765
 30
0.0
 10
84.97086857684756
 20
382.6016247958427
 30
0.0
 10
84.97086857684756
 20
382.4765678297281
 30
0.0
 10
84.97086857684756
 20
382.3646022264575
 30
0.0
 10
85.01961667796384
 20
382.2764077820352
 30
0.0
 10
85.11694062542217
 20
382.2119844964609
 30
0.0
 10
85.18498126125583
 20
382.1678872742497
 30
0.0
 10
85.35396319480735
 20
382.1119044726144
 30
0.0
 10
85.62405868085093
 20
382.0438638367807
 30
0.0
 10
85.9878607640933
 20
381.9520520420988
 30
0.0
 10
86.24004175361362
 20
381.8726425911638
 30
0.0
 10
86.38060164941178
 20
381.8054632292015
 30
0.0
 10
86.52116154520998
 20
381.7384561220133
 30
0.0
 10
86.62778725047848
 20
381.6456107986858
 30
0.0
 10
86.70030651044298
 20
381.5270995139932
 30
0.0
 10
86.77299802518176
 20
381.4085882293007
 30
0.0
 10
86.80917152777686
 20
381.2776746008611
 30
0.0
 10
86.80917152777686
 20
381.1343586286749
 30
0.0
 10
86.80917152777686
 20
381.003961764558
 30
0.0
 10
86.77937145182944
 20
380.8832111678
 30
0.0
 10
86.71959904516036
 20
380.7719345836265
 30
0.0
 10
86.65999889326556
 20
380.6608302542272
 30
0.0
 10
86.57869463981365
 20
380.5685016952225
 30
0.0
 10
86.4756862848047
 20
380.4949489066124
 30
0.0
 10
86.39851614593508
 20
380.4381048311058
 30
0.0
 10
86.29344073363498
 20
380.3898734943123
 30
0.0
 10
86.16011553835582
 20
380.3502548962318
 30
0.0
 10
86.02696259785091
 20
380.3108085529258
 30
0.0
 10
85.8841633899873
 20
380.2909992538857
 30
0.0
 10
85.73154565999073
 20
380.2909992538857
 30
0.0
 10
85.50193004589884
 20
380.2909992538857
 30
0.0
 10
85.30021970523746
 20
380.324072170544
 30
0.0
 10
85.12658689278087
 20
380.3902180038607
 30
0.0
 10
84.95295408032427
 20
380.4563638371777
 30
0.0
 10
84.82479652827297
 20
380.5459363197942
 30
0.0
 10
84.74211423662698
 20
380.6589354517103
 30
0.0
 10
84.65943194498098
 20
380.7719345836265
 30
0.0
 10
84.60258786947436
 20
380.9231742754288
 30
0.0
 10
84.57123750055858
 20
381.1123100175692
 30
0.0
 10
84.57123750055858
 20
381.1123100175692
 30
0.0
 10
85.05630694488175
 20
381.1784558508858
 30
0.0
 10
85.05630694488175
 20
381.1784558508858
 30
0.0
 10
85.07835555598736
 20
381.0279051781806
 30
0.0
 10
85.14226207723872
 20
380.9102551673593
 30
0.0
 10
85.24785425386166
 20
380.8256780731964
 30
0.0
 10
85.3536186852588
 20
380.7412732338078
 30
0.0
 10
85.50279131977013
 20
380.6988985593392
 30
0.0
 10
85.69571666694413
 20
380.6988985593392
 30
0.0
 10
85.9236097332934
 20
380.6988985593392
 30
0.0
 10
86.08621824019719
 20
380.7366223549028
 30
0.0
 10
86.18354218765551
 20
380.8118976912553
 30
0.0
 10
86.28103838988808
 20
380.8873452823823
 30
0.0
 10
86.32961423623008
 20
380.9755397268048
 30
0.0
 10
86.32961423623008
 20
381.0764810245225
 30
0.0
 10
86.32961423623008
 20
381.1409043100967
 30
0.0
 10
86.30946042764136
 20
381.1987819142489
 30
0.0
 10
86.2689805556897
 20
381.2501138369792
 30
0.0
 10
86.22867293851228
 20
381.3035128170005
 30
0.0
 10
86.16528318158369
 20
381.3476100392117
 30
0.0
 10
86.0788112849039
 20
381.3824055036127
 30
0.0
 10
86.0292019099163
 20
381.4008367644589
 30
0.0
 10
85.8831298613417
 20
381.4430391841531
 30
0.0
 10
85.64059513918016
 20
381.5091850174699
 30
0.0
 10
85.28971216400744
 20
381.6028916146686
 30
0.0
 10
85.04493812978044
 20
381.6797172439898
 30
0.0
 10
84.90610078172487
 20
381.7393173958847
 30
0.0
 10
84.76743568844357
 20
381.7990898025538
 30
0.0
 10
84.65857067110967
 20
381.885906208782
 30
0.0
 10
84.57950572972318
 20
381.9997666145695
 30
0.0
 10
84.50061304311095
 20
382.1137992751313
 30
0.0
 10
84.4609944450306
 20
382.2552204448008
 30
0.0
 10
84.4609944450306
 20
382.4242023783522
 30
0.0
 10
84.4609944450306
 20
382.5895669616443
 30
0.0
 10
84.5092257818241
 20
382.7452852775776
 30
0.0
 10
84.60568845541109
 20
382.8913573261522
 30
0.0
 10
84.70215112899808
 20
383.0374293747268
 30
0.0
 10
84.84133298660216
 20
383.150428506643
 30
0.0
 10
85.02323402822336
 20
383.2303547219008
 30
0.0
 10
85.20513506984455
 20
383.3102809371587
 30
0.0
 10
85.41097952508824
 20
383.3502440447875
 30
0.0
 10
85.64059513918016
 20
383.3502440447875
 30
0.0
 10
86.02093368075172
 20
383.3502440447875
 30
0.0
 10
86.31083846583548
 20
383.2713513581753
 30
0.0
 10
86.51013723965721
 20
383.1132214754023
 30
0.0
 10
86.70960826825314
 20
382.9552638474036
 30
0.0
 10
86.83673229165888
 20
382.7209973544067
 30
0.0
 10
86.89185381942287
 20
382.4104219964113
 30
0.0
  0
HATCH
  5
DD
330
BF
100
AcDbEntity
  8
Capa 1
 62
   250
100
AcDbHatch
 10
0.0
 20
0.0
 30
0.0
210
0.0
220
0.0
230
1.0
  2
SOLID
 70
     1
 71
     0
 91
        1
 92
        1
 93
        1
 72
     4
 94
        3
 73
     0
 74
     0
 95
      104
 96
      100
 40
0.0
 40
0.0
 40
0.0
 40
0.0
 40
1.0
 40
1.0
 40
1.0
 40
2.0
 40
2.0
 40
2.0
 40
3.0
 40
3.0
 40
3.0
 40
4.0
 40
4.0
 40
4.0
 40
5.0
 40
5.0
 40
5.0
 40
6.0
 40
6.0
 40
6.0
 40
7.0
 40
7.0
 40
7.0
 40
8.0
 40
8.0
 40
8.0
 40
9.0
 40
9.0
 40
9.0
 40
10.0
 40
10.0
 40
10.0
 40
11.0
 40
11.0
 40
11.0
 40
12.0
 40
12.0
 40
12.0
 40
13.0
 40
13.0
 40
13.0
 40
14.0
 40
14.0
 40
14.0
 40
15.0
 40
15.0
 40
15.0
 40
16.0
 40
16.0
 40
16.0
 40
17.0
 40
17.0
 40
17.0
 40
18.0
 40
18.0
 40
18.0
 40
19.0
 40
19.0
 40
19.0
 40
20.0
 40
20.0
 40
20.0
 40
21.0
 40
21.0
 40
21.0
 40
22.0
 40
22.0
 40
22.0
 40
23.0
 40
23.0
 40
23.0
 40
24.0
 40
24.0
 40
24.0
 40
25.0
 40
25.0
 40
25.0
 40
26.0
 40
26.0
 40
26.0
 40
27.0
 40
27.0
 40
27.0
 40
28.0
 40
28.0
 40
28.0
 40
29.0
 40
29.0
 40
29.0
 40
30.0
 40
30.0
 40
30.0
 40
31.0
 40
31.0
 40
31.0
 40
32.0
 40
32.0
 40
32.0
 40
33.0
 40
33.0
 40
33.0
 40
33.0
 10
86.89185381942287
 20
382.4104219964113
 10
86.89185381942287
 20
382.4104219964113
 10
86.40127222232329
 20
382.3332518575417
 10
86.40127222232329
 20
382.3332518575417
 10
86.37371145844129
 20
382.5299668097495
 10
86.29705808389449
 20
382.6805174824549
 10
86.1711398439086
 20
382.7852483852065
 10
86.04539385869697
 20
382.8899792879582
 10
85.86934947940072
 20
382.9423447393338
 10
85.64335121556833
 20
382.9423447393338
 10
85.4156304039933
 20
382.9423447393338
 10
85.24647621566755
 20
382.8960082050573
 10
85.13623316013955
 20
382.8031628817298
 10
85.02599010461157
 20
382.7104898131765
 10
84.97086857684756
 20
382.6016247958427
 10
84.97086857684756
 20
382.4765678297281
 10
84.97086857684756
 20
382.3646022264575
 10
85.01961667796384
 20
382.2764077820352
 10
85.11694062542217
 20
382.2119844964609
 10
85.18498126125583
 20
382.1678872742497
 10
85.35396319480735
 20
382.1119044726144
 10
85.62405868085093
 20
382.0438638367807
 10
85.9878607640933
 20
381.9520520420988
 10
86.24004175361362
 20
381.8726425911638
 10
86.38060164941178
 20
381.8054632292015
 10
86.52116154520998
 20
381.7384561220133
 10
86.62778725047848
 20
381.6456107986858
 10
86.70030651044298
 20
381.5270995139932
 10
86.77299802518176
 20
381.4085882293007
 10
86.80917152777686
 20
381.2776746008611
 10
86.80917152777686
 20
381.1343586286749
 10
86.80917152777686
 20
381.003961764558
 10
86.77937145182944
 20
380.8832111678
 10
86.71959904516036
 20
380.7719345836265
 10
86.65999889326556
 20
380.6608302542272
 10
86.57869463981365
 20
380.5685016952225
 10
86.4756862848047
 20
380.4949489066124
 10
86.39851614593508
 20
380.4381048311058
 10
86.29344073363498
 20
380.3898734943123
 10
86.16011553835582
 20
380.3502548962318
 10
86.02696259785091
 20
380.3108085529258
 10
85.8841633899873
 20
380.2909992538857
 10
85.73154565999073
 20
380.2909992538857
 10
85.50193004589884
 20
380.2909992538857
 10
85.30021970523746
 20
380.324072170544
 10
85.12658689278087
 20
380.3902180038607
 10
84.95295408032427
 20
380.4563638371777
 10
84.82479652827297
 20
380.5459363197942
 10
84.74211423662698
 20
380.6589354517103
 10
84.65943194498098
 20
380.7719345836265
 10
84.60258786947436
 20
380.9231742754288
 10
84.57123750055858
 20
381.1123100175692
 10
84.57123750055858
 20
381.1123100175692
 10
85.05630694488175
 20
381.1784558508858
 10
85.05630694488175
 20
381.1784558508858
 10
85.07835555598736
 20
381.0279051781806
 10
85.14226207723872
 20
380.9102551673593
 10
85.24785425386166
 20
380.8256780731964
 10
85.3536186852588
 20
380.7412732338078
 10
85.50279131977013
 20
380.6988985593392
 10
85.69571666694413
 20
380.6988985593392
 10
85.9236097332934
 20
380.6988985593392
 10
86.08621824019719
 20
380.7366223549028
 10
86.18354218765551
 20
380.8118976912553
 10
86.28103838988808
 20
380.8873452823823
 10
86.32961423623008
 20
380.9755397268048
 10
86.32961423623008
 20
381.0764810245225
 10
86.32961423623008
 20
381.1409043100967
 10
86.30946042764136
 20
381.1987819142489
 10
86.2689805556897
 20
381.2501138369792
 10
86.22867293851228
 20
381.3035128170005
 10
86.16528318158369
 20
381.3476100392117
 10
86.0788112849039
 20
381.3824055036127
 10
86.0292019099163
 20
381.4008367644589
 10
85.8831298613417
 20
381.4430391841531
 10
85.64059513918016
 20
381.5091850174699
 10
85.28971216400744
 20
381.6028916146686
 10
85.04493812978044
 20
381.6797172439898
 10
84.90610078172487
 20
381.7393173958847
 10
84.76743568844357
 20
381.7990898025538
 10
84.65857067110967
 20
381.885906208782
 10
84.57950572972318
 20
381.9997666145695
 10
84.50061304311095
 20
382.1137992751313
 10
84.4609944450306
 20
382.2552204448008
 10
84.4609944450306
 20
382.4242023783522
 10
84.4609944450306
 20
382.5895669616443
 10
84.5092257818241
 20
382.7452852775776
 10
84.60568845541109
 20
382.8913573261522
 10
84.70215112899808
 20
383.0374293747268
 10
84.84133298660216
 20
383.150428506643
 10
85.02323402822336
 20
383.2303547219008
 10
85.20513506984455
 20
383.3102809371587
 10
85.41097952508824
 20
383.3502440447875
 10
85.64059513918016
 20
383.3502440447875
 10
86.02093368075172
 20
383.3502440447875
 10
86.31083846583548
 20
383.2713513581753
 10
86.51013723965721
 20
383.1132214754023
 10
86.70960826825314
 20
382.9552638474036
 10
86.83673229165888
 20
382.7209973544067
 10
86.89185381942287
 20
382.4104219964113
 97
        0
 97
        0
 75
     2
 76
     1
 98
        0
450
        0
451
        0
460
0.0
461
0.0
452
        0
462
0.0
453
        0
470

  0
SPLINE
  5
DE
330
BF
100
AcDbEntity
  8
Capa 1
370
     0
100
AcDbSpline
210
0.0
220
0.0
230
1.0
 70
     9
 71
     3
 72
    62
 73
    58
 74
     0
 42
0.000000001
 43
0.0000000001
 40
0.0
 40
0.0
 40
0.0
 40
0.0
 40
1.0
 40
1.0
 40
1.0
 40
2.0
 40
2.0
 40
2.0
 40
3.0
 40
3.0
 40
3.0
 40
4.0
 40
4.0
 40
4.0
 40
5.0
 40
5.0
 40
5.0
 40
6.0
 40
6.0
 40
6.0
 40
7.0
 40
7.0
 40
7.0
 40
8.0
 40
8.0
 40
8.0
 40
9.0
 40
9.0
 40
9.0
 40
10.0
 40
10.0
 40
10.0
 40
11.0
 40
11.0
 40
11.0
 40
12.0
 40
12.0
 40
12.0
 40
13.0
 40
13.0
 40
13.0
 40
14.0
 40
14.0
 40
14.0
 40
15.0
 40
15.0
 40
15.0
 40
16.0
 40
16.0
 40
16.0
 40
17.0
 40
17.0
 40
17.0
 40
18.0
 40
18.0
 40
18.0
 40
19.0
 40
19.0
 40
19.0
 40
19.0
 10
81.96140541570755
 20
382.2121567512352
 30
0.0
 10
81.96140541570755
 20
382.2121567512352
 30
0.0
 10
81.47357989499619
 20
382.2755465081638
 30
0.0
 10
81.47357989499619
 20
382.2755465081638
 30
0.0
 10
81.52697887501757
 20
382.6117878275242
 30
0.0
 10
81.66340465623346
 20
382.8749931225972
 30
0.0
 10
81.88285723864387
 20
383.065162393383
 30
0.0
 10
82.10248207582855
 20
383.2553316641687
 30
0.0
 10
82.37206079754933
 20
383.3504162995617
 30
0.0
 10
82.69176565858055
 20
383.3504162995617
 30
0.0
 10
83.09243026351508
 20
383.3504162995617
 30
0.0
 10
83.41437443661169
 20
383.2195026711222
 30
0.0
 10
83.65777043264458
 20
382.957503159469
 30
0.0
 10
83.90133868345175
 20
382.69567590259
 30
0.0
 10
84.02295055408108
 20
382.3205050042463
 30
0.0
 10
84.02295055408108
 20
381.8316459548893
 30
0.0
 10
84.02295055408108
 20
381.5157306988919
 30
0.0
 10
83.97058510270527
 20
381.2390895314264
 30
0.0
 10
83.86585419995368
 20
381.0020669620412
 30
0.0
 10
83.76112329720209
 20
380.765044392656
 30
0.0
 10
83.60178763100925
 20
380.5874497203914
 30
0.0
 10
83.387674946601
 20
380.4689384356988
 30
0.0
 10
83.17373451696699
 20
380.3504271510062
 30
0.0
 10
82.9408460621641
 20
380.2911715086599
 30
0.0
 10
82.68900958219234
 20
380.2911715086599
 30
0.0
 10
82.37119952367804
 20
380.2911715086599
 30
0.0
 10
82.11126706931594
 20
380.3716144882404
 30
0.0
 10
81.90903996433176
 20
380.5323281926273
 30
0.0
 10
81.70698511412187
 20
380.6932141517885
 30
0.0
 10
81.57744952387648
 20
380.9214517276863
 30
0.0
 10
81.5204331935956
 20
381.217213175095
 30
0.0
 10
81.5204331935956
 20
381.217213175095
 30
0.0
 10
82.00274656153055
 20
381.2916272375764
 30
0.0
 10
82.00274656153055
 20
381.2916272375764
 30
0.0
 10
82.04873858625866
 20
381.0950845401429
 30
0.0
 10
82.13004283971056
 20
380.9471176890514
 30
0.0
 10
82.24665932188626
 20
380.8478989390762
 30
0.0
 10
82.36344805883623
 20
380.748680189101
 30
0.0
 10
82.50435246418295
 20
380.6990708141134
 30
0.0
 10
82.66971704747493
 20
380.6990708141134
 30
0.0
 10
82.9196587249298
 20
380.6990708141134
 30
0.0
 10
83.12274710378529
 20
380.78864329673
 30
0.0
 10
83.27880992926711
 20
380.9677882619629
 30
0.0
 10
83.4350450095232
 20
381.1469332271959
 30
0.0
 10
83.51307642226409
 20
381.430464585632
 30
0.0
 10
83.51307642226409
 20
381.8180378277226
 30
0.0
 10
83.51307642226409
 20
382.2112954773639
 30
0.0
 10
83.43780108591138
 20
382.4970661478653
 30
0.0
 10
83.2870781584317
 20
382.6751775844527
 30
0.0
 10
83.1365274857263
 20
382.8534612758144
 30
0.0
 10
82.93981253351851
 20
382.9425169941081
 30
0.0
 10
82.69727781135694
 20
382.9425169941081
 30
0.0
 10
82.50262991644031
 20
382.9425169941081
 30
0.0
 10
82.34002140953654
 20
382.8829168422132
 30
0.0
 10
82.20945229064556
 20
382.7633720288752
 30
0.0
 10
82.07905542652884
 20
382.6439994703113
 30
0.0
 10
81.99637313488286
 20
382.4602036261731
 30
0.0
 10
81.96140541570755
 20
382.2121567512352
 30
0.0
  0
HATCH
  5
DF
330
BF
100
AcDbEntity
  8
Capa 1
 62
   250
100
AcDbHatch
 10
0.0
 20
0.0
 30
0.0
210
0.0
220
0.0
230
1.0
  2
SOLID
 70
     1
 71
     0
 91
        1
 92
        1
 93
        1
 72
     4
 94
        3
 73
     0
 74
     0
 95
       62
 96
       58
 40
0.0
 40
0.0
 40
0.0
 40
0.0
 40
1.0
 40
1.0
 40
1.0
 40
2.0
 40
2.0
 40
2.0
 40
3.0
 40
3.0
 40
3.0
 40
4.0
 40
4.0
 40
4.0
 40
5.0
 40
5.0
 40
5.0
 40
6.0
 40
6.0
 40
6.0
 40
7.0
 40
7.0
 40
7.0
 40
8.0
 40
8.0
 40
8.0
 40
9.0
 40
9.0
 40
9.0
 40
10.0
 40
10.0
 40
10.0
 40
11.0
 40
11.0
 40
11.0
 40
12.0
 40
12.0
 40
12.0
 40
13.0
 40
13.0
 40
13.0
 40
14.0
 40
14.0
 40
14.0
 40
15.0
 40
15.0
 40
15.0
 40
16.0
 40
16.0
 40
16.0
 40
17.0
 40
17.0
 40
17.0
 40
18.0
 40
18.0
 40
18.0
 40
19.0
 40
19.0
 40
19.0
 40
19.0
 10
81.96140541570755
 20
382.2121567512352
 10
81.96140541570755
 20
382.2121567512352
 10
81.47357989499619
 20
382.2755465081638
 10
81.47357989499619
 20
382.2755465081638
 10
81.52697887501757
 20
382.6117878275242
 10
81.66340465623346
 20
382.8749931225972
 10
81.88285723864387
 20
383.065162393383
 10
82.10248207582855
 20
383.2553316641687
 10
82.37206079754933
 20
383.3504162995617
 10
82.69176565858055
 20
383.3504162995617
 10
83.09243026351508
 20
383.3504162995617
 10
83.41437443661169
 20
383.2195026711222
 10
83.65777043264458
 20
382.957503159469
 10
83.90133868345175
 20
382.69567590259
 10
84.02295055408108
 20
382.3205050042463
 10
84.02295055408108
 20
381.8316459548893
 10
84.02295055408108
 20
381.5157306988919
 10
83.97058510270527
 20
381.2390895314264
 10
83.86585419995368
 20
381.0020669620412
 10
83.76112329720209
 20
380.765044392656
 10
83.60178763100925
 20
380.5874497203914
 10
83.387674946601
 20
380.4689384356988
 10
83.17373451696699
 20
380.3504271510062
 10
82.9408460621641
 20
380.2911715086599
 10
82.68900958219234
 20
380.2911715086599
 10
82.37119952367804
 20
380.2911715086599
 10
82.11126706931594
 20
380.3716144882404
 10
81.90903996433176
 20
380.5323281926273
 10
81.70698511412187
 20
380.6932141517885
 10
81.57744952387648
 20
380.9214517276863
 10
81.5204331935956
 20
381.217213175095
 10
81.5204331935956
 20
381.217213175095
 10
82.00274656153055
 20
381.2916272375764
 10
82.00274656153055
 20
381.2916272375764
 10
82.04873858625866
 20
381.0950845401429
 10
82.13004283971056
 20
380.9471176890514
 10
82.24665932188626
 20
380.8478989390762
 10
82.36344805883623
 20
380.748680189101
 10
82.50435246418295
 20
380.6990708141134
 10
82.66971704747493
 20
380.6990708141134
 10
82.9196587249298
 20
380.6990708141134
 10
83.12274710378529
 20
380.78864329673
 10
83.27880992926711
 20
380.9677882619629
 10
83.4350450095232
 20
381.1469332271959
 10
83.51307642226409
 20
381.430464585632
 10
83.51307642226409
 20
381.8180378277226
 10
83.51307642226409
 20
382.2112954773639
 10
83.43780108591138
 20
382.4970661478653
 10
83.2870781584317
 20
382.6751775844527
 10
83.1365274857263
 20
382.8534612758144
 10
82.93981253351851
 20
382.9425169941081
 10
82.69727781135694
 20
382.9425169941081
 10
82.50262991644031
 20
382.9425169941081
 10
82.34002140953654
 20
382.8829168422132
 10
82.20945229064556
 20
382.7633720288752
 10
82.07905542652884
 20
382.6439994703113
 10
81.99637313488286
 20
382.4602036261731
 10
81.96140541570755
 20
382.2121567512352
 97
        0
 97
        0
 75
     2
 76
     1
 98
        0
450
        0
451
        0
460
0.0
461
0.0
452
        0
462
0.0
453
        0
470

  0
SPLINE
  5
E0
330
BF
100
AcDbEntity
  8
Capa 1
370
     0
100
AcDbSpline
210
0.0
220
0.0
230
1.0
 70
     9
 71
     3
 72
    86
 73
    82
 74
     0
 42
0.000000001
 43
0.0000000001
 40
0.0
 40
0.0
 40
0.0
 40
0.0
 40
1.0
 40
1.0
 40
1.0
 40
2.0
 40
2.0
 40
2.0
 40
3.0
 40
3.0
 40
3.0
 40
4.0
 40
4.0
 40
4.0
 40
5.0
 40
5.0
 40
5.0
 40
6.0
 40
6.0
 40
6.0
 40
7.0
 40
7.0
 40
7.0
 40
8.0
 40
8.0
 40
8.0
 40
9.0
 40
9.0
 40
9.0
 40
10.0
 40
10.0
 40
10.0
 40
11.0
 40
11.0
 40
11.0
 40
12.0
 40
12.0
 40
12.0
 40
13.0
 40
13.0
 40
13.0
 40
14.0
 40
14.0
 40
14.0
 40
15.0
 40
15.0
 40
15.0
 40
16.0
 40
16.0
 40
16.0
 40
17.0
 40
17.0
 40
17.0
 40
18.0
 40
18.0
 40
18.0
 40
19.0
 40
19.0
 40
19.0
 40
20.0
 40
20.0
 40
20.0
 40
21.0
 40
21.0
 40
21.0
 40
22.0
 40
22.0
 40
22.0
 40
23.0
 40
23.0
 40
23.0
 40
24.0
 40
24.0
 40
24.0
 40
25.0
 40
25.0
 40
25.0
 40
26.0
 40
26.0
 40
26.0
 40
27.0
 40
27.0
 40
27.0
 40
27.0
 10
79.1391831941909
 20
382.9232244593907
 30
0.0
 10
79.32297903832898
 20
383.0794595396469
 30
0.0
 10
79.49988469149656
 20
383.1897025951747
 30
0.0
 10
79.66972789891937
 20
383.2539536259746
 30
0.0
 10
79.83974336111646
 20
383.3182046567746
 30
0.0
 10
80.02216116706044
 20
383.3504162995617
 30
0.0
 10
80.21680906197705
 20
383.3504162995617
 30
0.0
 10
80.53840872552511
 20
383.3504162995617
 30
0.0
 10
80.78559432659179
 20
383.271868122498
 30
0.0
 10
80.95819361040282
 20
383.1147717683706
 30
0.0
 10
81.1309651489881
 20
382.9576754142432
 30
0.0
 10
81.2172647908936
 20
382.7569986022274
 30
0.0
 10
81.2172647908936
 20
382.512569077549
 30
0.0
 10
81.2172647908936
 20
382.3692531053627
 30
0.0
 10
81.18470863855799
 20
382.238339476923
 30
0.0
 10
81.1194240791125
 20
382.1198281922306
 30
0.0
 10
81.05431177444129
 20
382.0013169075378
 30
0.0
 10
80.96887340640709
 20
381.906232272145
 30
0.0
 10
80.86310897500991
 20
381.8345742860518
 30
0.0
 10
80.75751679838701
 20
381.7629162999586
 30
0.0
 10
80.63848874937162
 20
381.7088283008402
 30
0.0
 10
80.50619708273805
 20
381.671965779148
 30
0.0
 10
80.40887313527973
 20
381.6462998177829
 30
0.0
 10
80.26193981283382
 20
381.6214951302892
 30
0.0
 10
80.06522486062605
 20
381.5975517166667
 30
0.0
 10
79.66473251046576
 20
381.5498371441959
 30
0.0
 10
79.36983233692838
 20
381.492820813915
 30
0.0
 10
79.1805243400139
 20
381.4266749805982
 30
0.0
 10
79.17880179227125
 20
381.3588065995388
 30
0.0
 10
79.17776826362571
 20
381.3155706511988
 30
0.0
 10
79.17776826362571
 20
381.2971393903528
 30
0.0
 10
79.17776826362571
 20
381.0950845401429
 30
0.0
 10
79.22462156222509
 20
380.9526298418278
 30
0.0
 10
79.3183281594239
 20
380.8699475501818
 30
0.0
 10
79.4451076732811
 20
380.7579819469112
 30
0.0
 10
79.63355439632426
 20
380.7018268905017
 30
0.0
 10
79.88332381900488
 20
380.7018268905017
 30
0.0
 10
80.11672903813055
 20
380.7018268905017
 30
0.0
 10
80.28898381239304
 20
380.7428235267762
 30
0.0
 10
80.40008814179234
 20
380.8244722897766
 30
0.0
 10
80.51136472596592
 20
380.9062933075512
 30
0.0
 10
80.59353025328913
 20
381.0509873179317
 30
0.0
 10
80.64675697853623
 20
381.258554320918
 30
0.0
 10
80.64675697853623
 20
381.258554320918
 30
0.0
 10
81.1318264228594
 20
381.1924084876011
 30
0.0
 10
81.1318264228594
 20
381.1924084876011
 30
0.0
 10
81.0877292006482
 20
380.9848414846149
 30
0.0
 10
81.01520994068371
 20
380.8172375892575
 30
0.0
 10
80.91409638819163
 20
380.6894245467548
 30
0.0
 10
80.8131550904738
 20
380.5617837590262
 30
0.0
 10
80.66708304189921
 20
380.4634262829223
 30
0.0
 10
80.47588024246783
 20
380.3945243732173
 30
0.0
 10
80.28484969781073
 20
380.3256224635124
 30
0.0
 10
80.06350231288342
 20
380.2911715086599
 30
0.0
 10
79.81166583291167
 20
380.2911715086599
 30
0.0
 10
79.56189641023107
 20
380.2911715086599
 30
0.0
 10
79.35880803137556
 20
380.3206270750587
 30
0.0
 10
79.20257295111948
 20
380.3793659530822
 30
0.0
 10
79.04651012563768
 20
380.43827708588
 30
0.0
 10
78.93161619120459
 20
380.5121743840386
 30
0.0
 10
78.85806340259453
 20
380.6012301023324
 30
0.0
 10
78.78468286875871
 20
380.6904580754003
 30
0.0
 10
78.73317869125421
 20
380.8031126977681
 30
0.0
 10
78.70372312485533
 20
380.9390217146611
 30
0.0
 10
78.68718666652613
 20
381.0235988088241
 30
0.0
 10
78.67891843736152
 20
381.1760442840463
 30
0.0
 10
78.67891843736152
 20
381.3965303951023
 30
0.0
 10
78.67891843736152
 20
381.3965303951023
 30
0.0
 10
78.67891843736152
 20
382.0579887282702
 30
0.0
 10
78.67891843736152
 20
382.0579887282702
 30
0.0
 10
78.67891843736152
 20
382.5192870137452
 30
0.0
 10
78.66841089613152
 20
382.8109143465717
 30
0.0
 10
78.64722355889722
 20
382.9330429815237
 30
0.0
 10
78.62620847643722
 20
383.05534387125
 30
0.0
 10
78.58435056629142
 20
383.1724771177485
 30
0.0
 10
78.52182208323412
 20
383.2844427210192
 30
0.0
 10
78.52182208323412
 20
383.2844427210192
 30
0.0
 10
79.03996444421571
 20
383.2842704662449
 30
0.0
 10
79.03996444421571
 20
383.2842704662449
 30
0.0
 10
79.09146862172019
 20
383.1814343660102
 30
0.0
 10
79.1245415383786
 20
383.0610282788007
 30
0.0
 10
79.1391831941909
 20
382.9232244593907
 30
0.0
  0
SPLINE
  5
E1
330
BF
100
AcDbEntity
  8
Capa 1
370
     0
100
AcDbSpline
210
0.0
220
0.0
230
1.0
 70
     9
 71
     3
 72
    35
 73
    31
 74
     0
 42
0.000000001
 43
0.0000000001
 40
0.0
 40
0.0
 40
0.0
 40
0.0
 40
1.0
 40
1.0
 40
1.0
 40
2.0
 40
2.0
 40
2.0
 40
3.0
 40
3.0
 40
3.0
 40
4.0
 40
4.0
 40
4.0
 40
5.0
 40
5.0
 40
5.0
 40
6.0
 40
6.0
 40
6.0
 40
7.0
 40
7.0
 40
7.0
 40
8.0
 40
8.0
 40
8.0
 40
9.0
 40
9.0
 40
9.0
 40
10.0
 40
10.0
 40
10.0
 40
10.0
 10
79.1805243400139
 20
381.8152817513344
 30
0.0
 10
79.36070283389245
 20
381.8888345399445
 30
0.0
 10
79.63079831993605
 20
381.9513630230018
 30
0.0
 10
79.99081079814465
 20
382.0026949457319
 30
0.0
 10
80.19476045087143
 20
382.0321505121309
 30
0.0
 10
80.33910995170343
 20
382.0652234287893
 30
0.0
 10
80.42351479109205
 20
382.1019136957072
 30
0.0
 10
80.50809188525494
 20
382.1387762173994
 30
0.0
 10
80.5733764447004
 20
382.1925197069692
 30
0.0
 10
80.61919621465424
 20
382.2631441644169
 30
0.0
 10
80.66518823938231
 20
382.3339408766387
 30
0.0
 10
80.68809812435922
 20
382.4124890537025
 30
0.0
 10
80.68809812435922
 20
382.498788695608
 30
0.0
 10
80.68809812435922
 20
382.6310803622416
 30
0.0
 10
80.63814423982309
 20
382.7413234177695
 30
0.0
 10
80.53789196120233
 20
382.8295178621918
 30
0.0
 10
80.43781193735581
 20
382.9177123066143
 30
0.0
 10
80.29122312445846
 20
382.9618095288255
 30
0.0
 10
80.09829777728445
 20
382.9618095288255
 30
0.0
 10
79.90726723262735
 20
382.9618095288255
 30
0.0
 10
79.73725177043028
 20
382.920123873454
 30
0.0
 10
79.58842364546748
 20
382.8364080531624
 30
0.0
 10
79.43959552050468
 20
382.7528644876451
 30
0.0
 10
79.33038599362226
 20
382.6384873175348
 30
0.0
 10
79.2604505552717
 20
382.4932765428317
 30
0.0
 10
79.20722383002459
 20
382.3813109395609
 30
0.0
 10
79.1805243400139
 20
382.2159463562688
 30
0.0
 10
79.1805243400139
 20
381.9971827929557
 30
0.0
 10
79.1805243400139
 20
381.9971827929557
 30
0.0
 10
79.1805243400139
 20
381.8152817513344
 30
0.0
 10
79.1805243400139
 20
381.8152817513344
 30
0.0
  0
HATCH
  5
E2
330
BF
100
AcDbEntity
  8
Capa 1
 62
   250
100
AcDbHatch
 10
0.0
 20
0.0
 30
0.0
210
0.0
220
0.0
230
1.0
  2
SOLID
 70
     1
 71
     0
 91
        2
 92
        1
 93
        1
 72
     4
 94
        3
 73
     0
 74
     0
 95
       86
 96
       82
 40
0.0
 40
0.0
 40
0.0
 40
0.0
 40
1.0
 40
1.0
 40
1.0
 40
2.0
 40
2.0
 40
2.0
 40
3.0
 40
3.0
 40
3.0
 40
4.0
 40
4.0
 40
4.0
 40
5.0
 40
5.0
 40
5.0
 40
6.0
 40
6.0
 40
6.0
 40
7.0
 40
7.0
 40
7.0
 40
8.0
 40
8.0
 40
8.0
 40
9.0
 40
9.0
 40
9.0
 40
10.0
 40
10.0
 40
10.0
 40
11.0
 40
11.0
 40
11.0
 40
12.0
 40
12.0
 40
12.0
 40
13.0
 40
13.0
 40
13.0
 40
14.0
 40
14.0
 40
14.0
 40
15.0
 40
15.0
 40
15.0
 40
16.0
 40
16.0
 40
16.0
 40
17.0
 40
17.0
 40
17.0
 40
18.0
 40
18.0
 40
18.0
 40
19.0
 40
19.0
 40
19.0
 40
20.0
 40
20.0
 40
20.0
 40
21.0
 40
21.0
 40
21.0
 40
22.0
 40
22.0
 40
22.0
 40
23.0
 40
23.0
 40
23.0
 40
24.0
 40
24.0
 40
24.0
 40
25.0
 40
25.0
 40
25.0
 40
26.0
 40
26.0
 40
26.0
 40
27.0
 40
27.0
 40
27.0
 40
27.0
 10
79.1391831941909
 20
382.9232244593907
 10
79.32297903832898
 20
383.0794595396469
 10
79.49988469149656
 20
383.1897025951747
 10
79.66972789891937
 20
383.2539536259746
 10
79.83974336111646
 20
383.3182046567746
 10
80.02216116706044
 20
383.3504162995617
 10
80.21680906197705
 20
383.3504162995617
 10
80.53840872552511
 20
383.3504162995617
 10
80.78559432659179
 20
383.271868122498
 10
80.95819361040282
 20
383.1147717683706
 10
81.1309651489881
 20
382.9576754142432
 10
81.2172647908936
 20
382.7569986022274
 10
81.2172647908936
 20
382.512569077549
 10
81.2172647908936
 20
382.3692531053627
 10
81.18470863855799
 20
382.238339476923
 10
81.1194240791125
 20
382.1198281922306
 10
81.05431177444129
 20
382.0013169075378
 10
80.96887340640709
 20
381.906232272145
 10
80.86310897500991
 20
381.8345742860518
 10
80.75751679838701
 20
381.7629162999586
 10
80.63848874937162
 20
381.7088283008402
 10
80.50619708273805
 20
381.671965779148
 10
80.40887313527973
 20
381.6462998177829
 10
80.26193981283382
 20
381.6214951302892
 10
80.06522486062605
 20
381.5975517166667
 10
79.66473251046576
 20
381.5498371441959
 10
79.36983233692838
 20
381.492820813915
 10
79.1805243400139
 20
381.4266749805982
 10
79.17880179227125
 20
381.3588065995388
 10
79.17776826362571
 20
381.3155706511988
 10
79.17776826362571
 20
381.2971393903528
 10
79.17776826362571
 20
381.0950845401429
 10
79.22462156222509
 20
380.9526298418278
 10
79.3183281594239
 20
380.8699475501818
 10
79.4451076732811
 20
380.7579819469112
 10
79.63355439632426
 20
380.7018268905017
 10
79.88332381900488
 20
380.7018268905017
 10
80.11672903813055
 20
380.7018268905017
 10
80.28898381239304
 20
380.7428235267762
 10
80.40008814179234
 20
380.8244722897766
 10
80.51136472596592
 20
380.9062933075512
 10
80.59353025328913
 20
381.0509873179317
 10
80.64675697853623
 20
381.258554320918
 10
80.64675697853623
 20
381.258554320918
 10
81.1318264228594
 20
381.1924084876011
 10
81.1318264228594
 20
381.1924084876011
 10
81.0877292006482
 20
380.9848414846149
 10
81.01520994068371
 20
380.8172375892575
 10
80.91409638819163
 20
380.6894245467548
 10
80.8131550904738
 20
380.5617837590262
 10
80.66708304189921
 20
380.4634262829223
 10
80.47588024246783
 20
380.3945243732173
 10
80.28484969781073
 20
380.3256224635124
 10
80.06350231288342
 20
380.2911715086599
 10
79.81166583291167
 20
380.2911715086599
 10
79.56189641023107
 20
380.2911715086599
 10
79.35880803137556
 20
380.3206270750587
 10
79.20257295111948
 20
380.3793659530822
 10
79.04651012563768
 20
380.43827708588
 10
78.93161619120459
 20
380.5121743840386
 10
78.85806340259453
 20
380.6012301023324
 10
78.78468286875871
 20
380.6904580754003
 10
78.73317869125421
 20
380.8031126977681
 10
78.70372312485533
 20
380.9390217146611
 10
78.68718666652613
 20
381.0235988088241
 10
78.67891843736152
 20
381.1760442840463
 10
78.67891843736152
 20
381.3965303951023
 10
78.67891843736152
 20
381.3965303951023
 10
78.67891843736152
 20
382.0579887282702
 10
78.67891843736152
 20
382.0579887282702
 10
78.67891843736152
 20
382.5192870137452
 10
78.66841089613152
 20
382.8109143465717
 10
78.64722355889722
 20
382.9330429815237
 10
78.62620847643722
 20
383.05534387125
 10
78.58435056629142
 20
383.1724771177485
 10
78.52182208323412
 20
383.2844427210192
 10
78.52182208323412
 20
383.2844427210192
 10
79.03996444421571
 20
383.2842704662449
 10
79.03996444421571
 20
383.2842704662449
 10
79.09146862172019
 20
383.1814343660102
 10
79.1245415383786
 20
383.0610282788007
 10
79.1391831941909
 20
382.9232244593907
 97
        0
 97
        0
 92
        1
 93
        1
 72
     4
 94
        3
 73
     0
 74
     0
 95
       35
 96
       31
 40
0.0
 40
0.0
 40
0.0
 40
0.0
 40
1.0
 40
1.0
 40
1.0
 40
2.0
 40
2.0
 40
2.0
 40
3.0
 40
3.0
 40
3.0
 40
4.0
 40
4.0
 40
4.0
 40
5.0
 40
5.0
 40
5.0
 40
6.0
 40
6.0
 40
6.0
 40
7.0
 40
7.0
 40
7.0
 40
8.0
 40
8.0
 40
8.0
 40
9.0
 40
9.0
 40
9.0
 40
10.0
 40
10.0
 40
10.0
 40
10.0
 10
79.1805243400139
 20
381.8152817513344
 10
79.36070283389245
 20
381.8888345399445
 10
79.63079831993605
 20
381.9513630230018
 10
79.99081079814465
 20
382.0026949457319
 10
80.19476045087143
 20
382.0321505121309
 10
80.33910995170343
 20
382.0652234287893
 10
80.42351479109205
 20
382.1019136957072
 10
80.50809188525494
 20
382.1387762173994
 10
80.5733764447004
 20
382.1925197069692
 10
80.61919621465424
 20
382.2631441644169
 10
80.66518823938231
 20
382.3339408766387
 10
80.68809812435922
 20
382.4124890537025
 10
80.68809812435922
 20
382.498788695608
 10
80.68809812435922
 20
382.6310803622416
 10
80.63814423982309
 20
382.7413234177695
 10
80.53789196120233
 20
382.8295178621918
 10
80.43781193735581
 20
382.9177123066143
 10
80.29122312445846
 20
382.9618095288255
 10
80.09829777728445
 20
382.9618095288255
 10
79.90726723262735
 20
382.9618095288255
 10
79.73725177043028
 20
382.920123873454
 10
79.58842364546748
 20
382.8364080531624
 10
79.43959552050468
 20
382.7528644876451
 10
79.33038599362226
 20
382.6384873175348
 10
79.2604505552717
 20
382.4932765428317
 10
79.20722383002459
 20
382.3813109395609
 10
79.1805243400139
 20
382.2159463562688
 10
79.1805243400139
 20
381.9971827929557
 10
79.1805243400139
 20
381.9971827929557
 10
79.1805243400139
 20
381.8152817513344
 10
79.1805243400139
 20
381.8152817513344
 97
        0
 97
        0
 75
     2
 76
     1
 98
        0
450
        0
451
        0
460
0.0
461
0.0
452
        0
462
0.0
453
        0
470

  0
POLYLINE
  5
E3
330
BF
100
AcDbEntity
  8
Capa 1
370
     0
100
AcDb2dPolyline
 66
     1
 10
0.0
 20
0.0
 30
0.0
  0
VERTEX
  5
E4
330
E3
100
AcDbEntity
  8
Capa 1
370
     0
100
AcDbVertex
100
AcDb2dVertex
 10
77.92116968538081
 20
383.2844427210192
 30
0.0
  0
VERTEX
  5
E5
330
E3
100
AcDbEntity
  8
Capa 1
370
     0
100
AcDbVertex
100
AcDb2dVertex
 10
77.92116968538081
 20
379.2442069906924
 30
0.0
  0
VERTEX
  5
E6
330
E3
100
AcDbEntity
  8
Capa 1
370
     0
100
AcDbVertex
100
AcDb2dVertex
 10
77.42507593550485
 20
379.2442069906924
 30
0.0
  0
VERTEX
  5
E7
330
E3
100
AcDbEntity
  8
Capa 1
370
     0
100
AcDbVertex
100
AcDb2dVertex
 10
77.42507593550485
 20
383.2844427210192
 30
0.0
  0
VERTEX
  5
E8
330
E3
100
AcDbEntity
  8
Capa 1
370
     0
100
AcDbVertex
100
AcDb2dVertex
 10
77.92116968538081
 20
383.2844427210192
 30
0.0
  0
SEQEND
  5
E9
330
E3
100
AcDbEntity
  8
Capa 1
370
     0
  0
HATCH
  5
EA
330
BF
100
AcDbEntity
  8
Capa 1
 62
   250
100
AcDbHatch
 10
0.0
 20
0.0
 30
0.0
210
0.0
220
0.0
230
1.0
  2
SOLID
 70
     1
 71
     0
 91
        1
 92
        1
 93
        4
 72
     1
 10
77.92116968538081
 20
383.2844427210192
 11
77.92116968538081
 21
379.2442069906924
 72
     1
 10
77.92116968538081
 20
379.2442069906924
 11
77.42507593550485
 21
379.2442069906924
 72
     1
 10
77.42507593550485
 20
379.2442069906924
 11
77.42507593550485
 21
383.2844427210192
 72
     1
 10
77.42507593550485
 20
383.2844427210192
 11
77.92116968538081
 21
383.2844427210192
 97
        0
 75
     2
 76
     1
 98
        0
450
        0
451
        0
460
0.0
461
0.0
452
        0
462
0.0
453
        0
470

  0
SPLINE
  5
EB
330
BF
100
AcDbEntity
  8
Capa 1
370
     0
100
AcDbSpline
210
0.0
220
0.0
230
1.0
 70
     9
 71
     3
 72
    50
 73
    46
 74
     0
 42
0.000000001
 43
0.0000000001
 40
0.0
 40
0.0
 40
0.0
 40
0.0
 40
1.0
 40
1.0
 40
1.0
 40
2.0
 40
2.0
 40
2.0
 40
3.0
 40
3.0
 40
3.0
 40
4.0
 40
4.0
 40
4.0
 40
5.0
 40
5.0
 40
5.0
 40
6.0
 40
6.0
 40
6.0
 40
7.0
 40
7.0
 40
7.0
 40
8.0
 40
8.0
 40
8.0
 40
9.0
 40
9.0
 40
9.0
 40
10.0
 40
10.0
 40
10.0
 40
11.0
 40
11.0
 40
11.0
 40
12.0
 40
12.0
 40
12.0
 40
13.0
 40
13.0
 40
13.0
 40
14.0
 40
14.0
 40
14.0
 40
15.0
 40
15.0
 40
15.0
 40
15.0
 10
74.65246308897578
 20
382.3418645962548
 30
0.0
 10
74.65246308897578
 20
382.3418645962548
 30
0.0
 10
74.13983288077059
 20
382.4052543531834
 30
0.0
 10
74.13983288077059
 20
382.4052543531834
 30
0.0
 10
74.22079262467399
 20
382.7048054056259
 30
0.0
 10
74.37048202350806
 20
382.937177096106
 30
0.0
 10
74.58907333204719
 20
383.102541679398
 30
0.0
 10
74.80783689536055
 20
383.26790626269
 30
0.0
 10
75.08706188444005
 20
383.350588554336
 30
0.0
 10
75.42692055405993
 20
383.350588554336
 30
0.0
 10
75.85514592287649
 20
383.350588554336
 30
0.0
 10
76.19448782817359
 20
383.2188136520252
 30
0.0
 10
76.4452907794998
 20
382.9550915926294
 30
0.0
 10
76.69609373082599
 20
382.6915417880077
 30
0.0
 10
76.82149520648907
 20
382.3217107876661
 30
0.0
 10
76.82149520648907
 20
381.8457708463789
 30
0.0
 10
76.82149520648907
 20
381.3534667015367
 30
0.0
 10
76.69471569263187
 20
380.9712333574482
 30
0.0
 10
76.44115666491749
 20
380.6992430688877
 30
0.0
 10
76.18759763720309
 20
380.4274250351014
 30
0.0
 10
75.85876327313599
 20
380.2913437634341
 30
0.0
 10
75.45448131794194
 20
380.2913437634341
 30
0.0
 10
75.06311847081757
 20
380.2913437634341
 30
0.0
 10
74.74341360978637
 20
380.4246689587133
 30
0.0
 10
74.49536673484839
 20
380.6909748397231
 30
0.0
 10
74.24731985991039
 20
380.9574529755072
 30
0.0
 10
74.12329642244142
 20
381.3322793643023
 30
0.0
 10
74.12329642244142
 20
381.8154540061087
 30
0.0
 10
74.12329642244142
 20
381.8449095725076
 30
0.0
 10
74.12432995108699
 20
381.8890067947187
 30
0.0
 10
74.12605249882961
 20
381.9477456727423
 30
0.0
 10
74.12605249882961
 20
381.9477456727423
 30
0.0
 10
76.30886499828391
 20
381.9477456727423
 30
0.0
 10
76.30886499828391
 20
381.9477456727423
 30
0.0
 10
76.29060599221208
 20
382.2693453362902
 30
0.0
 10
76.19965547140148
 20
382.5154974087114
 30
0.0
 10
76.03601343585211
 20
382.6863741447798
 30
0.0
 10
75.87254365507702
 20
382.8572508808481
 30
0.0
 10
75.66859400235022
 20
382.9426892488823
 30
0.0
 10
75.42416447767173
 20
382.9426892488823
 30
0.0
 10
75.24226343605055
 20
382.9426892488823
 30
0.0
 10
75.08706188444005
 20
382.8949746764117
 30
0.0
 10
74.95838756806595
 20
382.799373276696
 30
0.0
 10
74.82988550646614
 20
382.7039441317546
 30
0.0
 10
74.72791068010275
 20
382.551326401758
 30
0.0
 10
74.65246308897578
 20
382.3418645962548
 30
0.0
  0
SPLINE
  5
EC
330
BF
100
AcDbEntity
  8
Capa 1
370
     0
100
AcDbSpline
210
0.0
220
0.0
230
1.0
 70
     9
 71
     3
 72
    20
 73
    16
 74
     0
 42
0.000000001
 43
0.0000000001
 40
0.0
 40
0.0
 40
0.0
 40
0.0
 40
1.0
 40
1.0
 40
1.0
 40
2.0
 40
2.0
 40
2.0
 40
3.0
 40
3.0
 40
3.0
 40
4.0
 40
4.0
 40
4.0
 40
5.0
 40
5.0
 40
5.0
 40
5.0
 10
76.2813042344019
 20
381.5398463672886
 30
0.0
 10
76.2813042344019
 20
381.5398463672886
 30
0.0
 10
74.64695093619937
 20
381.5398463672886
 30
0.0
 10
74.64695093619937
 20
381.5398463672886
 30
0.0
 10
74.66899954730497
 20
381.2936942948677
 30
0.0
 10
74.73152803036225
 20
381.1090371768582
 30
0.0
 10
74.83436413059696
 20
380.9858750132605
 30
0.0
 10
74.99249401336993
 20
380.7948444686033
 30
0.0
 10
75.19730493996803
 20
380.6992430688877
 30
0.0
 10
75.44896916516555
 20
380.6992430688877
 30
0.0
 10
75.67686223151482
 20
380.6992430688877
 30
0.0
 10
75.8684095404947
 20
380.7755519338861
 30
0.0
 10
76.02361109210521
 20
380.9279974091083
 30
0.0
 10
76.17898489848998
 20
381.0806151391048
 30
0.0
 10
76.2647677760727
 20
381.2845647918317
 30
0.0
 10
76.2813042344019
 20
381.5398463672886
 30
0.0
  0
HATCH
  5
ED
330
BF
100
AcDbEntity
  8
Capa 1
 62
   250
100
AcDbHatch
 10
0.0
 20
0.0
 30
0.0
210
0.0
220
0.0
230
1.0
  2
SOLID
 70
     1
 71
     0
 91
        2
 92
        1
 93
        1
 72
     4
 94
        3
 73
     0
 74
     0
 95
       50
 96
       46
 40
0.0
 40
0.0
 40
0.0
 40
0.0
 40
1.0
 40
1.0
 40
1.0
 40
2.0
 40
2.0
 40
2.0
 40
3.0
 40
3.0
 40
3.0
 40
4.0
 40
4.0
 40
4.0
 40
5.0
 40
5.0
 40
5.0
 40
6.0
 40
6.0
 40
6.0
 40
7.0
 40
7.0
 40
7.0
 40
8.0
 40
8.0
 40
8.0
 40
9.0
 40
9.0
 40
9.0
 40
10.0
 40
10.0
 40
10.0
 40
11.0
 40
11.0
 40
11.0
 40
12.0
 40
12.0
 40
12.0
 40
13.0
 40
13.0
 40
13.0
 40
14.0
 40
14.0
 40
14.0
 40
15.0
 40
15.0
 40
15.0
 40
15.0
 10
74.65246308897578
 20
382.3418645962548
 10
74.65246308897578
 20
382.3418645962548
 10
74.13983288077059
 20
382.4052543531834
 10
74.13983288077059
 20
382.4052543531834
 10
74.22079262467399
 20
382.7048054056259
 10
74.37048202350806
 20
382.937177096106
 10
74.58907333204719
 20
383.102541679398
 10
74.80783689536055
 20
383.26790626269
 10
75.08706188444005
 20
383.350588554336
 10
75.42692055405993
 20
383.350588554336
 10
75.85514592287649
 20
383.350588554336
 10
76.19448782817359
 20
383.2188136520252
 10
76.4452907794998
 20
382.9550915926294
 10
76.69609373082599
 20
382.6915417880077
 10
76.82149520648907
 20
382.3217107876661
 10
76.82149520648907
 20
381.8457708463789
 10
76.82149520648907
 20
381.3534667015367
 10
76.69471569263187
 20
380.9712333574482
 10
76.44115666491749
 20
380.6992430688877
 10
76.18759763720309
 20
380.4274250351014
 10
75.85876327313599
 20
380.2913437634341
 10
75.45448131794194
 20
380.2913437634341
 10
75.06311847081757
 20
380.2913437634341
 10
74.74341360978637
 20
380.4246689587133
 10
74.49536673484839
 20
380.6909748397231
 10
74.24731985991039
 20
380.9574529755072
 10
74.12329642244142
 20
381.3322793643023
 10
74.12329642244142
 20
381.8154540061087
 10
74.12329642244142
 20
381.8449095725076
 10
74.12432995108699
 20
381.8890067947187
 10
74.12605249882961
 20
381.9477456727423
 10
74.12605249882961
 20
381.9477456727423
 10
76.30886499828391
 20
381.9477456727423
 10
76.30886499828391
 20
381.9477456727423
 10
76.29060599221208
 20
382.2693453362902
 10
76.19965547140148
 20
382.5154974087114
 10
76.03601343585211
 20
382.6863741447798
 10
75.87254365507702
 20
382.8572508808481
 10
75.66859400235022
 20
382.9426892488823
 10
75.42416447767173
 20
382.9426892488823
 10
75.24226343605055
 20
382.9426892488823
 10
75.08706188444005
 20
382.8949746764117
 10
74.95838756806595
 20
382.799373276696
 10
74.82988550646614
 20
382.7039441317546
 10
74.72791068010275
 20
382.551326401758
 10
74.65246308897578
 20
382.3418645962548
 97
        0
 97
        0
 92
        1
 93
        1
 72
     4
 94
        3
 73
     0
 74
     0
 95
       20
 96
       16
 40
0.0
 40
0.0
 40
0.0
 40
0.0
 40
1.0
 40
1.0
 40
1.0
 40
2.0
 40
2.0
 40
2.0
 40
3.0
 40
3.0
 40
3.0
 40
4.0
 40
4.0
 40
4.0
 40
5.0
 40
5.0
 40
5.0
 40
5.0
 10
76.2813042344019
 20
381.5398463672886
 10
76.2813042344019
 20
381.5398463672886
 10
74.64695093619937
 20
381.5398463672886
 10
74.64695093619937
 20
381.5398463672886
 10
74.66899954730497
 20
381.2936942948677
 10
74.73152803036225
 20
381.1090371768582
 10
74.83436413059696
 20
380.9858750132605
 10
74.99249401336993
 20
380.7948444686033
 10
75.19730493996803
 20
380.6992430688877
 10
75.44896916516555
 20
380.6992430688877
 10
75.67686223151482
 20
380.6992430688877
 10
75.8684095404947
 20
380.7755519338861
 10
76.02361109210521
 20
380.9279974091083
 10
76.17898489848998
 20
381.0806151391048
 10
76.2647677760727
 20
381.2845647918317
 10
76.2813042344019
 20
381.5398463672886
 97
        0
 97
        0
 75
     2
 76
     1
 98
        0
450
        0
451
        0
460
0.0
461
0.0
452
        0
462
0.0
453
        0
470

  0
ENDBLK
  5
C2
330
BF
100
AcDbEntity
  8
0
100
AcDbBlockEnd
  0
ENDSEC
  0
SECTION
  2
ENTITIES
  0
SPLINE
  5
41
330
1F
100
AcDbEntity
  8
Capa 1
 62
     7
370
    35
100
AcDbSpline
210
0.0
220
0.0
230
1.0
 70
     8
 71
     3
 72
   248
 73
   244
 74
     0
 42
0.000000001
 43
0.0000000001
 40
0.0
 40
0.0
 40
0.0
 40
0.0
 40
1.0
 40
1.0
 40
1.0
 40
2.0
 40
2.0
 40
2.0
 40
3.0
 40
3.0
 40
3.0
 40
4.0
 40
4.0
 40
4.0
 40
5.0
 40
5.0
 40
5.0
 40
6.0
 40
6.0
 40
6.0
 40
7.0
 40
7.0
 40
7.0
 40
8.0
 40
8.0
 40
8.0
 40
9.0
 40
9.0
 40
9.0
 40
10.0
 40
10.0
 40
10.0
 40
11.0
 40
11.0
 40
11.0
 40
12.0
 40
12.0
 40
12.0
 40
13.0
 40
13.0
 40
13.0
 40
14.0
 40
14.0
 40
14.0
 40
15.0
 40
15.0
 40
15.0
 40
16.0
 40
16.0
 40
16.0
 40
17.0
 40
17.0
 40
17.0
 40
18.0
 40
18.0
 40
18.0
 40
19.0
 40
19.0
 40
19.0
 40
20.0
 40
20.0
 40
20.0
 40
21.0
 40
21.0
 40
21.0
 40
22.0
 40
22.0
 40
22.0
 40
23.0
 40
23.0
 40
23.0
 40
24.0
 40
24.0
 40
24.0
 40
25.0
 40
25.0
 40
25.0
 40
26.0
 40
26.0
 40
26.0
 40
27.0
 40
27.0
 40
27.0
 40
28.0
 40
28.0
 40
28.0
 40
29.0
 40
29.0
 40
29.0
 40
30.0
 40
30.0
 40
30.0
 40
31.0
 40
31.0
 40
31.0
 40
32.0
 40
32.0
 40
32.0
 40
33.0
 40
33.0
 40
33.0
 40
34.0
 40
34.0
 40
34.0
 40
35.0
 40
35.0
 40
35.0
 40
36.0
 40
36.0
 40
36.0
 40
37.0
 40
37.0
 40
37.0
 40
38.0
 40
38.0
 40
38.0
 40
39.0
 40
39.0
 40
39.0
 40
40.0
 40
40.0
 40
40.0
 40
41.0
 40
41.0
 40
41.0
 40
42.0
 40
42.0
 40
42.0
 40
43.0
 40
43.0
 40
43.0
 40
44.0
 40
44.0
 40
44.0
 40
45.0
 40
45.0
 40
45.0
 40
46.0
 40
46.0
 40
46.0
 40
47.0
 40
47.0
 40
47.0
 40
48.0
 40
48.0
 40
48.0
 40
49.0
 40
49.0
 40
49.0
 40
50.0
 40
50.0
 40
50.0
 40
51.0
 40
51.0
 40
51.0
 40
52.0
 40
52.0
 40
52.0
 40
53.0
 40
53.0
 40
53.0
 40
54.0
 40
54.0
 40
54.0
 40
55.0
 40
55.0
 40
55.0
 40
56.0
 40
56.0
 40
56.0
 40
57.0
 40
57.0
 40
57.0
 40
58.0
 40
58.0
 40
58.0
 40
59.0
 40
59.0
 40
59.0
 40
60.0
 40
60.0
 40
60.0
 40
61.0
 40
61.0
 40
61.0
 40
62.0
 40
62.0
 40
62.0
 40
63.0
 40
63.0
 40
63.0
 40
64.0
 40
64.0
 40
64.0
 40
65.0
 40
65.0
 40
65.0
 40
66.0
 40
66.0
 40
66.0
 40
67.0
 40
67.0
 40
67.0
 40
68.0
 40
68.0
 40
68.0
 40
69.0
 40
69.0
 40
69.0
 40
70.0
 40
70.0
 40
70.0
 40
71.0
 40
71.0
 40
71.0
 40
72.0
 40
72.0
 40
72.0
 40
73.0
 40
73.0
 40
73.0
 40
74.0
 40
74.0
 40
74.0
 40
75.0
 40
75.0
 40
75.0
 40
76.0
 40
76.0
 40
76.0
 40
77.0
 40
77.0
 40
77.0
 40
78.0
 40
78.0
 40
78.0
 40
79.0
 40
79.0
 40
79.0
 40
80.0
 40
80.0
 40
80.0
 40
81.0
 40
81.0
 40
81.0
 40
81.0
 10
70.84065160999741
 20
289.2484224295561
 30
0.0
 10
55.09212961585639
 20
305.5055554791792
 30
0.0
 10
46.55003266538628
 20
298.4873388558017
 30
0.0
 10
44.36720016229979
 20
294.6486133961267
 30
0.0
 10
43.03682857283157
 20
292.3090242228397
 30
0.0
 10
42.4368719179464
 20
287.5111050558673
 30
0.0
 10
43.01819222635822
 20
284.8876631215293
 30
0.0
 10
43.71952264858387
 20
281.7227474023986
 30
0.0
 10
44.52413826092388
 20
278.5803638060984
 30
0.0
 10
45.20113588315662
 20
275.4105282289552
 30
0.0
 10
46.43237142808264
 20
269.6454882218653
 30
0.0
 10
47.41573078616499
 20
263.8365209110919
 30
0.0
 10
48.18832302791109
 20
257.9905513068628
 30
0.0
 10
48.81692380665749
 20
253.2342682373961
 30
0.0
 10
49.30169851101929
 20
248.4646312676096
 30
0.0
 10
49.63311662205274
 20
243.6802140521131
 30
0.0
 10
49.99602059068113
 20
238.4413094489533
 30
0.0
 10
50.07699899133724
 20
233.1952524471703
 30
0.0
 10
50.01863748379264
 20
227.9430973020523
 30
0.0
 10
49.94578379885209
 20
221.3858361249083
 30
0.0
 10
48.85628629704536
 20
214.9757985980389
 30
0.0
 10
47.37620290716207
 20
208.6189079407084
 30
0.0
 10
44.65609770217686
 20
196.9363743431566
 30
0.0
 10
40.60486222876032
 20
185.7012894288425
 30
0.0
 10
35.86304659309803
 20
174.7046005755778
 30
0.0
 10
32.11780073114717
 20
166.0191183820689
 30
0.0
 10
28.85706081705859
 20
157.1643041847374
 30
0.0
 10
26.38807755048795
 20
148.0267531892268
 30
0.0
 10
24.90809752848907
 20
142.5493905100008
 30
0.0
 10
23.71851924098506
 20
137.0110877407707
 30
0.0
 10
22.96790301146705
 20
131.3857158877219
 30
0.0
 10
22.71068236787162
 20
129.4580411003853
 30
0.0
 10
22.5796945847322
 20
127.5136119226321
 30
0.0
 10
22.38381244375271
 20
125.5775754438414
 30
0.0
 10
22.35594446211257
 20
125.3021874251727
 30
0.0
 10
22.28697740962629
 20
125.0309544126406
 30
0.0
 10
22.23705072145051
 20
124.7577989345826
 30
0.0
 10
22.23705072145051
 20
122.7821348599513
 30
0.0
 10
22.23705072145051
 20
120.8064811211562
 30
0.0
 10
22.23705072145051
 20
118.830817046525
 30
0.0
 10
22.29210445669361
 20
118.2728679388919
 30
0.0
 10
22.3676870537829
 20
117.7160661090727
 30
0.0
 10
22.39909021707027
 20
117.1567888464929
 30
0.0
 10
22.74946599810672
 20
110.9092978470066
 30
0.0
 10
23.65622975383243
 20
104.758844845316
 30
0.0
 10
25.63537328970463
 20
98.80062806038052
 30
0.0
 10
27.36947291876627
 20
93.58005923056998
 30
0.0
 10
29.85110841439015
 20
88.76884119190854
 30
0.0
 10
33.5624909574044
 20
84.65695099580591
 30
0.0
 10
38.43120100798304
 20
79.26285898060955
 30
0.0
 10
44.49755204105057
 20
76.04585064722832
 30
0.0
 10
51.63055627346762
 20
74.79037730044648
 30
0.0
 10
53.80465163935949
 20
74.4077162222237
 30
0.0
 10
55.99532721391264
 20
74.23451861567691
 30
0.0
 10
58.20239693493509
 20
74.30701158654982
 30
0.0
 10
58.82072294596998
 20
74.32732150460584
 30
0.0
 10
59.4376431537767
 20
74.39018406013591
 30
0.0
 10
60.14625067506565
 20
74.43991493582366
 30
0.0
 10
60.16094958823043
 20
74.77674174859133
 30
0.0
 10
60.18497228457009
 20
75.07373941671329
 30
0.0
 10
60.18522036749271
 20
75.37075517254855
 30
0.0
 10
60.18796995321832
 20
78.55948982611188
 30
0.0
 10
60.18679155933591
 20
81.74822447967519
 30
0.0
 10
60.18737041948868
 20
84.93695913323852
 30
0.0
 10
60.18743244021933
 20
85.21911195667453
 30
0.0
 10
60.18052746553995
 20
85.50194694529714
 30
0.0
 10
60.19675622339418
 20
85.78331424518493
 30
0.0
 10
60.30264628419597
 20
87.61737736441299
 30
0.0
 10
61.26998362019292
 20
88.95706710423315
 30
0.0
 10
63.02576983140628
 20
89.49000348835708
 30
0.0
 10
63.82161984714731
 20
89.73157265110762
 30
0.0
 10
64.68612681172135
 20
89.84405238812771
 30
0.0
 10
65.52018159754472
 20
89.84750455740542
 30
0.0
 10
72.23679931793348
 20
89.87527178125143
 30
0.0
 10
78.95355141657202
 20
89.86309099833592
 30
0.0
 10
85.67027250484525
 20
89.86308583041783
 30
0.0
 10
100.2043449043506
 20
89.86307549458167
 30
0.0
 10
114.7384069670675
 20
89.86527185976584
 30
0.0
 10
129.2724793665729
 20
89.85649156694723
 30
0.0
 10
130.0028251539558
 20
89.8560522939104
 30
0.0
 10
130.7418848539954
 20
89.81519473356669
 30
0.0
 10
131.4618525057824
 20
89.69955223068144
 30
0.0
 10
134.0934231177602
 20
89.2768940504753
 30
0.0
 10
135.7212915720015
 20
87.40049017841446
 30
0.0
 10
135.7452729211873
 20
84.73417519568144
 30
0.0
 10
135.7668457986662
 20
82.33593562753336
 30
0.0
 10
135.7233589296899
 20
79.93713275631454
 30
0.0
 10
135.7117300426924
 20
77.53856244140933
 30
0.0
 10
135.7070888246819
 20
76.58139166206476
 30
0.0
 10
135.7109651203477
 20
75.62416920353941
 30
0.0
 10
135.7109651203477
 20
74.57319554311736
 30
0.0
 10
136.0414219100561
 20
74.54425778582612
 30
0.0
 10
136.3382014430198
 20
74.50447256848409
 30
0.0
 10
136.6360043180392
 20
74.49422200297163
 30
0.0
 10
143.4045540635616
 20
74.26123416819358
 30
0.0
 10
150.1751711667723
 20
74.07727178828531
 30
0.0
 10
156.9413951348952
 20
73.78988127987483
 30
0.0
 10
166.0287294425289
 20
73.40390498220344
 30
0.0
 10
174.5451009037699
 20
70.92019063296449
 30
0.0
 10
182.5356089265915
 20
66.59974135084988
 30
0.0
 10
186.6207180557331
 20
64.3909292359801
 30
0.0
 10
190.4520538602247
 20
61.79679456507614
 30
0.0
 10
193.9676214513843
 20
58.76982608326571
 30
0.0
 10
198.4394556781193
 20
54.91951006080287
 30
0.0
 10
203.0864674585841
 20
51.29014320794978
 30
0.0
 10
207.7125989263956
 20
47.63308535804234
 30
0.0
 10
212.4717519404726
 20
43.87087329499381
 30
0.0
 10
217.2340370014476
 20
40.11254363040318
 30
0.0
 10
222.009237879581
 20
36.37074225981323
 30
0.0
 10
224.3939427257854
 20
34.50211416649443
 30
0.0
 10
227.0384834230611
 20
33.15380611578743
 30
0.0
 10
230.0288736801338
 20
32.53703616830672
 30
0.0
 10
230.6006867273765
 20
32.41909975578381
 30
0.0
 10
231.1650340291663
 20
32.26497033366375
 30
0.0
 10
231.7328247736055
 20
32.12753906047715
 30
0.0
 10
232.240898599116
 20
32.12753914122599
 30
0.0
 10
232.7489724246265
 20
32.12753914122599
 30
0.0
 10
233.257046250137
 20
32.12753902010273
 30
0.0
 10
233.7960567913567
 20
32.26135301306677
 30
0.0
 10
234.3311445213619
 20
32.41433360295974
 30
0.0
 10
234.8747652702261
 20
32.52563077497536
 30
0.0
 10
237.1096461205524
 20
32.98318390891663
 30
0.0
 10
238.9931213872939
 20
34.12920478819167
 30
0.0
 10
240.7727661983301
 20
35.49152694075257
 30
0.0
 10
243.8784087393118
 20
37.86890233163051
 30
0.0
 10
245.6855220312665
 20
40.98667824000137
 30
0.0
 10
246.1632013783026
 20
44.8728563839931
 30
0.0
 10
246.2517629842451
 20
45.59335331098877
 30
0.0
 10
246.3650761714364
 20
46.31080633423507
 30
0.0
 10
246.4669657134095
 20
47.02966503119926
 30
0.0
 10
246.4669657134095
 20
47.76348226704717
 30
0.0
 10
246.4669657134095
 20
48.49729821091557
 30
0.0
 10
246.4669656730312
 20
49.23111544676349
 30
0.0
 10
246.3834746454112
 20
49.98442348565165
 30
0.0
 10
246.291569431621
 20
50.73690982556504
 30
0.0
 10
246.2178395827258
 20
51.49117263731858
 30
0.0
 10
245.6836220003412
 20
56.95625375922643
 30
0.0
 10
244.306709853631
 20
62.25120443396825
 30
0.0
 10
243.0462921013214
 20
67.57561999364553
 30
0.0
 10
240.7384390160124
 20
77.32473983083247
 30
0.0
 10
237.2041689443147
 20
86.6549921557253
 30
0.0
 10
233.4933710758965
 20
95.92397364385686
 30
0.0
 10
226.6770537388846
 20
112.9500621856967
 30
0.0
 10
219.0162001125683
 20
129.6004689226814
 30
0.0
 10
211.1705983585236
 20
146.1728659362423
 30
0.0
 10
207.4264456119505
 20
154.0817134006275
 30
0.0
 10
204.2974635717403
 20
162.2475097519707
 30
0.0
 10
202.5264771131227
 20
170.8698606582093
 30
0.0
 10
201.5769087164579
 20
175.4929871504162
 30
0.0
 10
200.9666970843501
 20
180.1544389231074
 30
0.0
 10
200.7021114789897
 20
184.8676628991282
 30
0.0
 10
200.519806709629
 20
188.1151722850201
 30
0.0
 10
200.5303295602631
 20
191.3571416627296
 30
0.0
 10
200.7831157216169
 20
194.5958759237209
 30
0.0
 10
201.1481128899049
 20
199.2723146588453
 30
0.0
 10
201.9286127748092
 20
203.885456733321
 30
0.0
 10
203.0204360540154
 20
208.4461341034443
 30
0.0
 10
205.142162665462
 20
217.3088862229473
 30
0.0
 10
208.3169961150047
 20
225.8040753368994
 30
0.0
 10
211.9944920813083
 20
234.1232865043775
 30
0.0
 10
213.7730476532627
 20
238.1467174466978
 30
0.0
 10
215.6430553767622
 20
242.1324225870312
 30
0.0
 10
217.3168062507013
 20
246.1989539661421
 30
0.0
 10
220.417607621421
 20
253.7326002420536
 30
0.0
 10
222.6796742253501
 20
261.523195404923
 30
0.0
 10
224.051608966157
 20
269.559990185143
 30
0.0
 10
225.2190833236756
 20
276.3990682710478
 30
0.0
 10
225.6991250710298
 20
283.2853397848629
 30
0.0
 10
225.2560127924842
 20
290.2173370378534
 30
0.0
 10
224.9584786739642
 20
294.8719154794977
 30
0.0
 10
224.3274539183281
 20
299.481698407221
 30
0.0
 10
222.9386495387836
 20
303.95147209831
 30
0.0
 10
222.0256191050648
 20
306.8900330055189
 30
0.0
 10
220.8727157429537
 20
309.7408633353947
 30
0.0
 10
219.4942300624716
 20
312.4948882237885
 30
0.0
 10
219.1539223133778
 20
313.1747795264469
 30
0.0
 10
218.7710011539311
 20
313.8367278175301
 30
0.0
 10
218.3635120325545
 20
314.4789346615461
 30
0.0
 10
217.3325698530756
 20
316.1036454193369
 30
0.0
 10
216.1443443473283
 20
317.7371526149783
 30
0.0
 10
214.1195988225755
 20
317.9774084852586
 30
0.0
 10
213.5590060297507
 20
318.0439283059802
 30
0.0
 10
212.9812859861541
 20
318.0792327892778
 30
0.0
 10
212.4260194042073
 20
317.9774084852586
 30
0.0
 10
211.2336000235087
 20
317.7587436538311
 30
0.0
 10
210.6500325241807
 20
316.660891690111
 30
0.0
 10
210.1908000240596
 20
315.5946054884168
 30
0.0
 10
209.602706535021
 20
314.2291175015392
 30
0.0
 10
209.4192466295519
 20
312.7782348363011
 30
0.0
 10
209.2196690867044
 20
311.322349626361
 30
0.0
 10
207.9854772202839
 20
302.3191748367772
 30
0.0
 10
206.0291934920516
 20
293.5045670421112
 30
0.0
 10
202.2377912855092
 20
285.1855625913564
 30
0.0
 10
199.7085652158975
 20
279.6360040965471
 30
0.0
 10
196.3841093378513
 20
274.6370149223521
 30
0.0
 10
191.8992300841023
 20
270.4552182983758
 30
0.0
 10
188.2496460307896
 20
267.0522682724615
 30
0.0
 10
184.0781885393962
 20
264.4468313647157
 30
0.0
 10
179.5472382195603
 20
262.4003978198913
 30
0.0
 10
175.998272464944
 20
260.7974956764
 30
0.0
 10
172.3991629495946
 20
259.3038433211282
 30
0.0
 10
168.6328197024332
 20
258.2937633964765
 30
0.0
 10
164.0348456463382
 20
257.060615455802
 30
0.0
 10
159.3508281632504
 20
256.7914082671574
 30
0.0
 10
154.6141085642901
 20
257.2796938390666
 30
0.0
 10
148.7283618988845
 20
257.8864694367234
 30
0.0
 10
143.1222667079938
 20
259.5630660920416
 30
0.0
 10
137.6303826926009
 20
261.6716386838646
 30
0.0
 10
133.7071063233103
 20
263.1779627742694
 30
0.0
 10
129.8178689983597
 20
264.7692060945715
 30
0.0
 10
126.072860882543
 20
266.6893977365276
 30
0.0
 10
125.9766047085694
 20
266.7387410183593
 30
0.0
 10
125.8689884040977
 20
266.765965610807
 30
0.0
 10
125.6813343467182
 20
266.8348436229826
 30
0.0
 10
125.6451762607474
 20
266.4874561696176
 30
0.0
 10
125.6164089785128
 20
266.1862285605469
 30
0.0
 10
125.5821321880385
 20
265.8856417733181
 30
0.0
 10
125.2453699573804
 20
262.9314117384894
 30
0.0
 10
123.5001582807434
 20
261.0061968801591
 30
0.0
 10
120.9378131409629
 20
259.7854932862222
 30
0.0
 10
120.1492092139199
 20
259.4098063134489
 30
0.0
 10
119.1867094949139
 20
259.3827677660522
 30
0.0
 10
118.2969807665409
 20
259.2381487464901
 30
0.0
 10
111.145184252736
 20
258.075594566794
 30
0.0
 10
103.9423860247573
 20
257.6967241564832
 30
0.0
 10
96.70416362278714
 20
257.8095914873594
 30
0.0
 10
91.76177294419259
 20
257.8866761534466
 30
0.0
 10
86.83747164537193
 20
258.2222187385713
 30
0.0
 10
81.92491293822151
 20
258.7400441302281
 30
0.0
 10
79.79354985574966
 20
258.9647038650196
 30
0.0
 10
77.66668327625012
 20
259.2408567355643
 30
0.0
 10
75.54450959870337
 20
259.5412574777421
 30
0.0
 10
73.48467709225146
 20
259.8328520875111
 30
0.0
 10
72.02539132071385
 20
260.9687811532569
 30
0.0
 10
71.16452290567145
 20
262.8613140976467
 30
0.0
 10
70.70250980945935
 20
263.8769960454977
 30
0.0
 10
70.48649160459449
 20
264.9429928437795
 30
0.0
 10
70.50431222786881
 20
266.0647411423126
 30
0.0
 10
70.6218621860334
 20
273.4577580314201
 30
0.0
 10
70.72975758379297
 20
280.8509196222339
 30
0.0
 10
70.83974101281788
 20
288.244039869703
 30
0.0
 10
70.84515748996157
 20
288.6092463046092
 30
0.0
 10
70.84040256727816
 20
288.9745767695493
 30
0.0
 10
70.84040256727816
 20
289.384992151823
 30
0.0
  0
SPLINE
  5
42
330
1F
100
AcDbEntity
  8
Capa 1
 62
     7
370
    35
100
AcDbSpline
210
0.0
220
0.0
230
1.0
 70
     9
 71
     3
 72
    38
 73
    34
 74
     0
 42
0.000000001
 43
0.0000000001
 40
0.0
 40
0.0
 40
0.0
 40
0.0
 40
1.0
 40
1.0
 40
1.0
 40
2.0
 40
2.0
 40
2.0
 40
3.0
 40
3.0
 40
3.0
 40
4.0
 40
4.0
 40
4.0
 40
5.0
 40
5.0
 40
5.0
 40
6.0
 40
6.0
 40
6.0
 40
7.0
 40
7.0
 40
7.0
 40
8.0
 40
8.0
 40
8.0
 40
9.0
 40
9.0
 40
9.0
 40
10.0
 40
10.0
 40
10.0
 40
11.0
 40
11.0
 40
11.0
 40
11.0
 10
124.3199999824588
 20
104.7392687716275
 30
0.0
 10
129.1207766593953
 20
104.7524211231421
 30
0.0
 10
133.09127147829
 20
108.3934778066931
 30
0.0
 10
133.4598296701962
 20
113.2281943688661
 30
0.0
 10
133.8104018502131
 20
117.8270471498494
 30
0.0
 10
130.6649067904665
 20
122.0487866126692
 30
0.0
 10
125.9929471710965
 20
122.8865681485202
 30
0.0
 10
118.24894571065
 20
124.2752497517426
 30
0.0
 10
110.4968918920072
 20
125.6190531543547
 30
0.0
 10
102.74917952451
 20
126.9871457719448
 30
0.0
 10
93.64079434721377
 20
128.595494901093
 30
0.0
 10
84.53415608716422
 20
130.2138801271534
 30
0.0
 10
75.42449948488955
 20
131.814994170989
 30
0.0
 10
74.42690636912232
 20
131.9903416314572
 30
0.0
 10
73.4156686926114
 20
132.1802522850761
 30
0.0
 10
72.40853472111202
 20
132.1934718195257
 30
0.0
 10
67.67860639215822
 20
132.2555591873437
 30
0.0
 10
63.66605118109236
 20
128.6179443372343
 30
0.0
 10
63.24143658546411
 20
123.9475934096086
 30
0.0
 10
62.8108059789625
 20
119.21137219813
 30
0.0
 10
65.99858884022609
 20
114.9314471456429
 30
0.0
 10
70.65374084158911
 20
114.0881307695278
 30
0.0
 10
77.03563267864294
 20
112.9320003120057
 30
0.0
 10
83.42642449054546
 20
111.8249702441655
 30
0.0
 10
89.81346404824346
 20
110.6972633360855
 30
0.0
 10
95.7283707938445
 20
109.6529201145607
 30
0.0
 10
101.6432258555033
 20
108.6082978254594
 30
0.0
 10
107.5583600104501
 20
107.5652104080281
 30
0.0
 10
112.7237358893196
 20
106.6543338388478
 30
0.0
 10
117.8889670531508
 20
105.7426304027747
 30
0.0
 10
123.0559554710173
 20
104.8409578956956
 30
0.0
 10
123.4705847290103
 20
104.7686018746518
 30
0.0
 10
123.898341708325
 20
104.7713977183333
 30
0.0
 10
124.3199999824588
 20
104.7392687716275
 30
0.0
  0
SPLINE
  5
43
330
1F
100
AcDbEntity
  8
Capa 1
 62
     7
370
    35
100
AcDbSpline
210
0.0
220
0.0
230
1.0
 70
     9
 71
     3
 72
    35
 73
    31
 74
     0
 42
0.000000001
 43
0.0000000001
 40
0.0
 40
0.0
 40
0.0
 40
0.0
 40
1.0
 40
1.0
 40
1.0
 40
2.0
 40
2.0
 40
2.0
 40
3.0
 40
3.0
 40
3.0
 40
4.0
 40
4.0
 40
4.0
 40
5.0
 40
5.0
 40
5.0
 40
6.0
 40
6.0
 40
6.0
 40
7.0
 40
7.0
 40
7.0
 40
8.0
 40
8.0
 40
8.0
 40
9.0
 40
9.0
 40
9.0
 40
10.0
 40
10.0
 40
10.0
 40
10.0
 10
98.15095221709817
 20
184.9222567857296
 30
0.0
 10
89.51517534416723
 20
184.9221534273681
 30
0.0
 10
80.87938813444784
 20
184.9173679352256
 30
0.0
 10
72.24362159830533
 20
184.9270836212168
 30
0.0
 10
70.87310816590923
 20
184.9286236608046
 30
0.0
 10
69.54815929696632
 20
184.7556534426535
 30
0.0
 10
68.27683768646149
 20
184.2177351855001
 30
0.0
 10
64.53661550369353
 20
182.6352153109177
 30
0.0
 10
62.30924433017062
 20
178.8393691450224
 30
0.0
 10
62.73193628314861
 20
174.7481867966679
 30
0.0
 10
63.13494699093268
 20
170.8472045053448
 30
0.0
 10
66.18888911544681
 20
167.5406051441216
 30
0.0
 10
70.10037120912497
 20
166.8055308122007
 30
0.0
 10
70.73453318005326
 20
166.6863482854303
 30
0.0
 10
71.39023701809509
 20
166.6320024588967
 30
0.0
 10
72.03601753923243
 20
166.6316613763034
 30
0.0
 10
89.47690855335425
 20
166.6225141613011
 30
0.0
 10
106.9177892306876
 20
166.6181627742774
 30
0.0
 10
124.3586802448095
 20
166.6286226404721
 30
0.0
 10
128.7156675835575
 20
166.6312272711847
 30
0.0
 10
132.2593150605204
 20
169.2705243781933
 30
0.0
 10
133.4092310907717
 20
173.3021206310807
 30
0.0
 10
135.0270211762818
 20
178.9739727393446
 30
0.0
 10
130.8831163944811
 20
184.6878400216024
 30
0.0
 10
124.9893690548212
 20
184.9080036676639
 30
0.0
 10
124.5101762162182
 20
184.9259156717305
 30
0.0
 10
124.0300220562901
 20
184.9217813372663
 30
0.0
 10
123.5503123782649
 20
184.9218226806109
 30
0.0
 10
115.0838624368055
 20
184.9225668608145
 30
0.0
 10
106.6174021585575
 20
184.9223601440913
 30
0.0
 10
98.15095221709817
 20
184.9222567857296
 30
0.0
  0
SPLINE
  5
44
330
1F
100
AcDbEntity
  8
Capa 1
 62
     7
370
    35
100
AcDbSpline
210
0.0
220
0.0
230
1.0
 70
     9
 71
     3
 72
    32
 73
    28
 74
     0
 42
0.000000001
 43
0.0000000001
 40
0.0
 40
0.0
 40
0.0
 40
0.0
 40
1.0
 40
1.0
 40
1.0
 40
2.0
 40
2.0
 40
2.0
 40
3.0
 40
3.0
 40
3.0
 40
4.0
 40
4.0
 40
4.0
 40
5.0
 40
5.0
 40
5.0
 40
6.0
 40
6.0
 40
6.0
 40
7.0
 40
7.0
 40
7.0
 40
8.0
 40
8.0
 40
8.0
 40
9.0
 40
9.0
 40
9.0
 40
9.0
 10
186.4266241791541
 20
142.0428311797593
 30
0.0
 10
185.6999789620335
 20
142.0247641381502
 30
0.0
 10
185.2775144184012
 20
141.3492448941878
 30
0.0
 10
185.5820000271485
 20
140.7093532774718
 30
0.0
 10
185.6998549205722
 20
140.4616963072225
 30
0.0
 10
185.9042390700454
 20
140.2483646488633
 30
0.0
 10
186.0947667546118
 20
140.043125950218
 30
0.0
 10
191.4129617138105
 20
134.3144680864142
 30
0.0
 10
196.73407164735
 20
128.5885182116845
 30
0.0
 10
202.0570473712033
 20
122.8642944215936
 30
0.0
 10
202.2288706370836
 20
122.6795103427106
 30
0.0
 10
202.4063946417898
 20
122.4890932331199
 30
0.0
 10
202.6143811620351
 20
122.3512441862431
 30
0.0
 10
202.9926042511348
 20
122.1005898235072
 30
0.0
 10
203.492116631618
 20
122.1552560609617
 30
0.0
 10
203.7886403290678
 20
122.4389747635761
 30
0.0
 10
204.0980359123251
 20
122.7350137828942
 30
0.0
 10
204.1710704910634
 20
123.1961781207174
 30
0.0
 10
203.9391026216323
 20
123.6036167821767
 30
0.0
 10
203.8292561550543
 20
123.7965558357906
 30
0.0
 10
203.6713772167825
 20
123.9656707870539
 30
0.0
 10
203.5186408307607
 20
124.1301759553894
 30
0.0
 10
198.1615252788799
 20
129.8997017153731
 30
0.0
 10
192.8023552902963
 20
135.6673360173394
 30
0.0
 10
187.4438261825961
 20
141.4355491261306
 30
0.0
 10
187.1531556916018
 20
141.748445894227
 30
0.0
 10
186.8674106803001
 20
142.0675028206751
 30
0.0
 10
186.4266241791541
 20
142.0428311797593
 30
0.0
  0
SPLINE
  5
45
330
1F
100
AcDbEntity
  8
Capa 1
 62
     7
370
    35
100
AcDbSpline
210
0.0
220
0.0
230
1.0
 70
     9
 71
     3
 72
    17
 73
    13
 74
     0
 42
0.000000001
 43
0.0000000001
 40
0.0
 40
0.0
 40
0.0
 40
0.0
 40
1.0
 40
1.0
 40
1.0
 40
2.0
 40
2.0
 40
2.0
 40
3.0
 40
3.0
 40
3.0
 40
4.0
 40
4.0
 40
4.0
 40
4.0
 10
152.3808247477782
 20
104.0652740634988
 30
0.0
 10
155.1244254728925
 20
104.0704523174154
 30
0.0
 10
157.3350923962929
 20
106.2925640694651
 30
0.0
 10
157.3076482229788
 20
109.0176021053458
 30
0.0
 10
157.2800489978382
 20
111.7581232237954
 30
0.0
 10
155.0557065033288
 20
113.9420957404117
 30
0.0
 10
152.3166126179754
 20
113.9180649213378
 30
0.0
 10
149.6305567941187
 20
113.8944940469731
 30
0.0
 10
147.4307124882174
 20
111.6815191740895
 30
0.0
 10
147.4231666326546
 20
108.9954317367808
 30
0.0
 10
147.4155380827842
 20
106.2739647322937
 30
0.0
 10
149.6417411992132
 20
104.0601009775003
 30
0.0
 10
152.3808247477782
 20
104.0652740634988
 30
0.0
  0
SPLINE
  5
46
330
1F
100
AcDbEntity
  8
Capa 1
 62
     7
370
    35
100
AcDbSpline
210
0.0
220
0.0
230
1.0
 70
     9
 71
     3
 72
    17
 73
    13
 74
     0
 42
0.000000001
 43
0.0000000001
 40
0.0
 40
0.0
 40
0.0
 40
0.0
 40
1.0
 40
1.0
 40
1.0
 40
2.0
 40
2.0
 40
2.0
 40
3.0
 40
3.0
 40
3.0
 40
4.0
 40
4.0
 40
4.0
 40
4.0
 10
186.3269620333887
 20
88.11247942027028
 30
0.0
 10
186.3286004143568
 20
85.3709402219588
 30
0.0
 10
188.5479760820197
 20
83.15804803576456
 30
0.0
 10
191.275006935261
 20
83.17889541730092
 30
0.0
 10
194.016891753494
 20
83.19986166095311
 30
0.0
 10
196.196088324482
 20
85.41470732018181
 30
0.0
 10
196.1774045793728
 20
88.16149712326291
 30
0.0
 10
196.1590929586475
 20
90.85262328069999
 30
0.0
 10
193.9573570204612
 20
93.05039413859095
 30
0.0
 10
191.2681898232835
 20
93.06185658089331
 30
0.0
 10
188.5489218981621
 20
93.07344822114769
 30
0.0
 10
186.3253288208148
 20
90.84618922268987
 30
0.0
 10
186.3269620333887
 20
88.11247942027028
 30
0.0
  0
SPLINE
  5
47
330
1F
100
AcDbEntity
  8
Capa 1
 62
     7
370
    35
100
AcDbSpline
210
0.0
220
0.0
230
1.0
 70
     9
 71
     3
 72
    17
 73
    13
 74
     0
 42
0.000000001
 43
0.0000000001
 40
0.0
 40
0.0
 40
0.0
 40
0.0
 40
1.0
 40
1.0
 40
1.0
 40
2.0
 40
2.0
 40
2.0
 40
3.0
 40
3.0
 40
3.0
 40
4.0
 40
4.0
 40
4.0
 40
4.0
 10
219.8443603447825
 20
59.55561577926876
 30
0.0
 10
219.857860190488
 20
56.81269157891177
 30
0.0
 10
222.0721036426893
 20
54.63151232201792
 30
0.0
 10
224.8189992191195
 20
54.65525632163836
 30
0.0
 10
227.5413410467036
 20
54.6787884366175
 30
0.0
 10
229.7268960346825
 20
56.92326177020112
 30
0.0
 10
229.6973870878772
 20
59.66515238694203
 30
0.0
 10
229.6683768911142
 20
62.36071520205113
 30
0.0
 10
227.4690274589598
 20
64.51518665830542
 30
0.0
 10
224.7522339025714
 20
64.50940634193249
 30
0.0
 10
221.9929548535875
 20
64.50353558699314
 30
0.0
 10
219.8307493786012
 20
62.32110052600575
 30
0.0
 10
219.8443603447825
 20
59.55561577926876
 30
0.0
  0
SPLINE
  5
48
330
1F
100
AcDbEntity
  8
Capa 1
370
     0
100
AcDbSpline
210
0.0
220
0.0
230
1.0
 70
     9
 71
     3
 72
    17
 73
    13
 74
     0
 42
0.000000001
 43
0.0000000001
 40
0.0
 40
0.0
 40
0.0
 40
0.0
 40
1.0
 40
1.0
 40
1.0
 40
2.0
 40
2.0
 40
2.0
 40
3.0
 40
3.0
 40
3.0
 40
4.0
 40
4.0
 40
4.0
 40
4.0
 10
138.6772202685068
 20
175.7474140933509
 30
0.0
 10
138.7009742083469
 20
176.7136080576638
 30
0.0
 10
137.8936400206466
 20
177.5420046542808
 30
0.0
 10
136.9298585398738
 20
177.5403612563312
 30
0.0
 10
135.99780066283
 20
177.5387695375624
 30
0.0
 10
135.2153884720638
 20
176.765421604338
 30
0.0
 10
135.1954591439473
 20
175.8260181273538
 30
0.0
 10
135.1754057743695
 20
174.8808575896282
 30
0.0
 10
135.9134938162955
 20
174.0864762298164
 30
0.0
 10
136.8515160202704
 20
174.0436858681107
 30
0.0
 10
137.8259960770809
 20
173.9992107651107
 30
0.0
 10
138.653218245744
 20
174.7711736962896
 30
0.0
 10
138.6772202685068
 20
175.7474140933509
 30
0.0
  0
HATCH
  5
4A
330
1F
100
AcDbEntity
  8
Capa 1
 62
     7
100
AcDbHatch
 10
0.0
 20
0.0
 30
0.0
210
0.0
220
0.0
230
1.0
  2
SOLID
 70
     1
 71
     0
 91
        2
 92
        1
 93
        1
 72
     4
 94
        3
 73
     0
 74
     0
 95
       17
 96
       13
 40
0.0
 40
0.0
 40
0.0
 40
0.0
 40
1.0
 40
1.0
 40
1.0
 40
2.0
 40
2.0
 40
2.0
 40
3.0
 40
3.0
 40
3.0
 40
4.0
 40
4.0
 40
4.0
 40
4.0
 10
138.6772202685068
 20
175.7474140933509
 10
138.7009742083469
 20
176.7136080576638
 10
137.8936400206466
 20
177.5420046542808
 10
136.9298585398738
 20
177.5403612563312
 10
135.99780066283
 20
177.5387695375624
 10
135.2153884720638
 20
176.765421604338
 10
135.1954591439473
 20
175.8260181273538
 10
135.1754057743695
 20
174.8808575896282
 10
135.9134938162955
 20
174.0864762298164
 10
136.8515160202704
 20
174.0436858681107
 10
137.8259960770809
 20
173.9992107651107
 10
138.653218245744
 20
174.7711736962896
 10
138.6772202685068
 20
175.7474140933509
 97
        0
 97
        0
 92
        1
 93
        1
 72
     4
 94
        3
 73
     0
 74
     0
 95
       17
 96
       13
 40
0.0
 40
0.0
 40
0.0
 40
0.0
 40
1.0
 40
1.0
 40
1.0
 40
2.0
 40
2.0
 40
2.0
 40
3.0
 40
3.0
 40
3.0
 40
4.0
 40
4.0
 40
4.0
 40
4.0
 10
135.5414107795305
 20
175.7705973738596
 10
135.5325418150471
 20
176.5318317071035
 10
136.1565323861483
 20
177.1725708623848
 10
136.916493072418
 20
177.1825862876246
 10
137.6805574636993
 20
177.1926533920453
 10
138.3105020249432
 20
176.5718934080629
 10
138.3185233727744
 20
175.8010054038446
 10
138.3265033734517
 20
175.0326186719774
 10
137.7103584247781
 20
174.3988975494494
 10
136.9468832304381
 20
174.3902567904189
 10
136.1901579589507
 20
174.3816883822416
 10
135.5502694072254
 20
175.0101382283276
 10
135.5414107795305
 20
175.7705973738596
 97
        0
 97
        0
 75
     2
 76
     1
 98
        0
450
        0
451
        0
460
0.0
461
0.0
452
        0
462
0.0
453
        0
470

  0
SPLINE
  5
4B
330
1F
100
AcDbEntity
  8
Capa 1
 62
     7
370
    35
100
AcDbSpline
210
0.0
220
0.0
230
1.0
 70
     9
 71
     3
 72
    17
 73
    13
 74
     0
 42
0.000000001
 43
0.0000000001
 40
0.0
 40
0.0
 40
0.0
 40
0.0
 40
1.0
 40
1.0
 40
1.0
 40
2.0
 40
2.0
 40
2.0
 40
3.0
 40
3.0
 40
3.0
 40
4.0
 40
4.0
 40
4.0
 40
4.0
 10
208.4406111837877
 20
246.2819714021857
 30
0.0
 10
207.5156365910239
 20
246.2688655619338
 30
0.0
 10
206.7184298717999
 20
245.4746599113368
 30
0.0
 10
206.7046044172585
 20
244.5524759373966
 30
0.0
 10
206.6902336971267
 20
243.594013178532
 30
0.0
 10
207.5109927888163
 20
242.7800040658508
 30
0.0
 10
208.4816818284656
 20
242.7900298269268
 30
0.0
 10
209.4526861401624
 20
242.8000555880028
 30
0.0
 10
210.245112094732
 20
243.6278940494671
 30
0.0
 10
210.2079565086765
 20
244.5934265202658
 30
0.0
 10
210.1719999900804
 20
245.5277034225141
 30
0.0
 10
209.3687695073916
 20
246.2951185857823
 30
0.0
 10
208.4406111837877
 20
246.2819714021857
 30
0.0
  0
SPLINE
  5
4C
330
1F
100
AcDbEntity
  8
Capa 1
 62
     7
370
    35
100
AcDbSpline
210
0.0
220
0.0
230
1.0
 70
     9
 71
     3
 72
    17
 73
    13
 74
     0
 42
0.000000001
 43
0.0000000001
 40
0.0
 40
0.0
 40
0.0
 40
0.0
 40
1.0
 40
1.0
 40
1.0
 40
2.0
 40
2.0
 40
2.0
 40
3.0
 40
3.0
 40
3.0
 40
4.0
 40
4.0
 40
4.0
 40
4.0
 10
60.21962119942831
 20
126.9496990375342
 30
0.0
 10
59.28046194872478
 20
126.9537713569815
 30
0.0
 10
58.49866996526512
 20
126.1925060162291
 30
0.0
 10
58.47650789084507
 20
125.2523480232052
 30
0.0
 10
58.45351887334963
 20
124.2764900520819
 30
0.0
 10
59.24428318917711
 20
123.4539435387319
 30
0.0
 10
60.20893296017908
 20
123.450284652731
 30
0.0
 10
61.13585345336707
 20
123.4467704684363
 30
0.0
 10
61.93308859875935
 20
124.2237049368086
 30
0.0
 10
61.96046041455427
 20
125.1571549721641
 30
0.0
 10
61.9888659091934
 20
126.1259122238449
 30
0.0
 10
61.19295387272171
 20
126.9454820163806
 30
0.0
 10
60.21962119942831
 20
126.9496990375342
 30
0.0
  0
SPLINE
  5
4D
330
1F
100
AcDbEntity
  8
Capa 1
 62
     7
370
    35
100
AcDbSpline
210
0.0
220
0.0
230
1.0
 70
     9
 71
     3
 72
    17
 73
    13
 74
     0
 42
0.000000001
 43
0.0000000001
 40
0.0
 40
0.0
 40
0.0
 40
0.0
 40
1.0
 40
1.0
 40
1.0
 40
2.0
 40
2.0
 40
2.0
 40
3.0
 40
3.0
 40
3.0
 40
4.0
 40
4.0
 40
4.0
 40
4.0
 10
136.4964576740697
 20
113.1416007335108
 30
0.0
 10
137.2612146301766
 20
113.1283967028154
 30
0.0
 10
137.8931335180129
 20
112.4826705065866
 30
0.0
 10
137.8753955890461
 20
111.7325110217889
 30
0.0
 10
137.857605976137
 20
110.9794161595215
 30
0.0
 10
137.2027187443823
 20
110.3527285735009
 30
0.0
 10
136.447771400507
 20
110.3663512055609
 30
0.0
 10
135.6917697042106
 20
110.3799945092932
 30
0.0
 10
135.0510128622562
 20
111.0364854788835
 30
0.0
 10
135.0671175786491
 20
111.7809395821204
 30
0.0
 10
135.0835427354837
 20
112.5406803870391
 30
0.0
 10
135.728713386103
 20
113.1548564433871
 30
0.0
 10
136.4964576740697
 20
113.1416007335108
 30
0.0
  0
SPLINE
  5
4E
330
1F
100
AcDbEntity
  8
Capa 1
 62
     7
370
    35
100
AcDbSpline
210
0.0
220
0.0
230
1.0
 70
     9
 71
     3
 72
    17
 73
    13
 74
     0
 42
0.000000001
 43
0.0000000001
 40
0.0
 40
0.0
 40
0.0
 40
0.0
 40
1.0
 40
1.0
 40
1.0
 40
2.0
 40
2.0
 40
2.0
 40
3.0
 40
3.0
 40
3.0
 40
4.0
 40
4.0
 40
4.0
 40
4.0
 10
232.2074125729575
 20
44.55277620976499
 30
0.0
 10
232.2159223340426
 20
43.60227979662127
 30
0.0
 10
232.9718658859037
 20
42.83425223506057
 30
0.0
 10
233.9126286309146
 20
42.82030273218204
 30
0.0
 10
234.8812761548466
 20
42.80593979585707
 30
0.0
 10
235.6719500237752
 20
43.60586503978956
 30
0.0
 10
235.6630242069554
 20
44.59117642506146
 30
0.0
 10
235.6544123700841
 20
45.54161340714724
 30
0.0
 10
234.8988461110012
 20
46.31008024174478
 30
0.0
 10
233.9584115590239
 20
46.32488503506563
 30
0.0
 10
232.9923559847938
 20
46.34009421797627
 30
0.0
 10
232.1986030450077
 20
45.5367710679059
 30
0.0
 10
232.2074125729575
 20
44.55277620976499
 30
0.0
  0
SPLINE
  5
4F
330
1F
100
AcDbEntity
  8
Capa 1
 62
     7
370
    35
100
AcDbSpline
210
0.0
220
0.0
230
1.0
 70
     9
 71
     3
 72
    17
 73
    13
 74
     0
 42
0.000000001
 43
0.0000000001
 40
0.0
 40
0.0
 40
0.0
 40
0.0
 40
1.0
 40
1.0
 40
1.0
 40
2.0
 40
2.0
 40
2.0
 40
3.0
 40
3.0
 40
3.0
 40
4.0
 40
4.0
 40
4.0
 40
4.0
 10
213.3378533546639
 20
304.0389959589198
 30
0.0
 10
213.3491798905994
 20
303.0688123618487
 30
0.0
 10
214.1782032446485
 20
302.277583432066
 30
0.0
 10
215.1460264097022
 20
302.3132834101655
 30
0.0
 10
216.0946567428159
 20
302.3482598797337
 30
0.0
 10
216.836062893832
 20
303.1223519931618
 30
0.0
 10
216.8289589359751
 20
304.0703548858317
 30
0.0
 10
216.821640489758
 20
305.0467606562715
 30
0.0
 10
216.0129160040122
 20
305.8199845594621
 30
0.0
 10
215.0301820216306
 20
305.7901966796466
 30
0.0
 10
214.0897720195256
 20
305.7616697718426
 30
0.0
 10
213.3269557954487
 20
304.9723219642413
 30
0.0
 10
213.3378533546639
 20
304.0389959589198
 30
0.0
  0
SPLINE
  5
50
330
1F
100
AcDbEntity
  8
Capa 1
 62
     7
370
    35
100
AcDbSpline
210
0.0
220
0.0
230
1.0
 70
     9
 71
     3
 72
    17
 73
    13
 74
     0
 42
0.000000001
 43
0.0000000001
 40
0.0
 40
0.0
 40
0.0
 40
0.0
 40
1.0
 40
1.0
 40
1.0
 40
2.0
 40
2.0
 40
2.0
 40
3.0
 40
3.0
 40
3.0
 40
4.0
 40
4.0
 40
4.0
 40
4.0
 10
210.0868506952878
 20
117.2897955541283
 30
0.0
 10
210.0930243421849
 20
118.2935241074593
 30
0.0
 10
209.3362551393467
 20
119.0431357929404
 30
0.0
 10
208.3303124827153
 20
119.0297302134399
 30
0.0
 10
207.3656239487567
 20
119.016882769092
 30
0.0
 10
206.6382629090365
 20
118.2825319457023
 30
0.0
 10
206.6323089188938
 20
117.3154387636433
 30
0.0
 10
206.626119766814
 20
116.3102218499052
 30
0.0
 10
207.3815529397461
 20
115.5619228156165
 30
0.0
 10
208.388862636649
 20
115.5754834326595
 30
0.0
 10
209.3539284633858
 20
115.5884755787136
 30
0.0
 10
210.0809018735393
 20
116.3224439761654
 30
0.0
 10
210.0868506952878
 20
117.2897955541283
 30
0.0
  0
SPLINE
  5
51
330
1F
100
AcDbEntity
  8
Capa 1
 62
     7
370
    35
100
AcDbSpline
210
0.0
220
0.0
230
1.0
 70
     9
 71
     3
 72
    17
 73
    13
 74
     0
 42
0.000000001
 43
0.0000000001
 40
0.0
 40
0.0
 40
0.0
 40
0.0
 40
1.0
 40
1.0
 40
1.0
 40
2.0
 40
2.0
 40
2.0
 40
3.0
 40
3.0
 40
3.0
 40
4.0
 40
4.0
 40
4.0
 40
4.0
 10
52.2181406756754
 20
288.8413685131088
 30
0.0
 10
51.24803308037597
 20
288.8203247506853
 30
0.0
 10
50.4764538438972
 20
287.9907498687461
 30
0.0
 10
50.51947555739359
 20
287.0150469351652
 30
0.0
 10
50.56069866970104
 20
286.0801292110748
 30
0.0
 10
51.3713302929144
 20
285.3171377856835
 30
0.0
 10
52.29709306579686
 20
285.3418817774525
 30
0.0
 10
53.22674247113358
 20
285.3667704709277
 30
0.0
 10
54.0052680294455
 20
286.1648623959212
 30
0.0
 10
54.00611564609775
 20
287.0938886933999
 30
0.0
 10
54.00700460990379
 20
288.0656640092396
 30
0.0
 10
53.19172143189144
 20
288.8624742905492
 30
0.0
 10
52.2181406756754
 20
288.8413685131088
 30
0.0
  0
SPLINE
  5
52
330
1F
100
AcDbEntity
  8
Capa 1
 62
     7
370
    35
100
AcDbSpline
210
0.0
220
0.0
230
1.0
 70
     9
 71
     3
 72
    17
 73
    13
 74
     0
 42
0.000000001
 43
0.0000000001
 40
0.0
 40
0.0
 40
0.0
 40
0.0
 40
1.0
 40
1.0
 40
1.0
 40
2.0
 40
2.0
 40
2.0
 40
3.0
 40
3.0
 40
3.0
 40
4.0
 40
4.0
 40
4.0
 40
4.0
 10
135.1941567086036
 20
235.6299206698671
 30
0.0
 10
135.1874791432699
 20
234.6558507983996
 30
0.0
 10
136.0001781241717
 20
233.8412422072212
 30
0.0
 10
136.9590186200692
 20
233.8608802959267
 30
0.0
 10
137.8899704607496
 20
233.8799395778073
 30
0.0
 10
138.668599386946
 20
234.6695147738042
 30
0.0
 10
138.67673443945
 20
235.6027167490919
 30
0.0
 10
138.685220942761
 20
236.5748228116888
 30
0.0
 10
137.8761708481793
 20
237.3764702643216
 30
0.0
 10
136.9020629157527
 20
237.3610905401143
 30
0.0
 10
135.9620663851854
 20
237.3462689510597
 30
0.0
 10
135.2006275381684
 20
236.574450721587
 30
0.0
 10
135.1941567086036
 20
235.6299206698671
 30
0.0
  0
SPLINE
  5
53
330
1F
100
AcDbEntity
  8
Capa 1
 62
     7
370
    35
100
AcDbSpline
210
0.0
220
0.0
230
1.0
 70
     9
 71
     3
 72
    17
 73
    13
 74
     0
 42
0.000000001
 43
0.0000000001
 40
0.0
 40
0.0
 40
0.0
 40
0.0
 40
1.0
 40
1.0
 40
1.0
 40
2.0
 40
2.0
 40
2.0
 40
3.0
 40
3.0
 40
3.0
 40
4.0
 40
4.0
 40
4.0
 40
4.0
 10
221.8972000138533
 20
100.6627891502118
 30
0.0
 10
221.8774619163229
 20
99.68127747670848
 30
0.0
 10
222.6620215748879
 20
98.86928901999681
 30
0.0
 10
223.6294855365433
 20
98.86994017767491
 30
0.0
 10
224.5691202795152
 20
98.87056549576264
 30
0.0
 10
225.3416181980671
 20
99.63219775869886
 30
0.0
 10
225.3627465936429
 20
100.5788208172413
 30
0.0
 10
225.3846179458877
 20
101.5587304361397
 30
0.0
 10
224.5970321925062
 20
102.3743364355076
 30
0.0
 10
223.6292064432554
 20
102.374036696259
 30
0.0
 10
222.6964379120062
 20
102.3737421249284
 30
0.0
 10
221.9161034157169
 20
101.6027610981847
 30
0.0
 10
221.8972000138533
 20
100.6627891502118
 30
0.0
  0
SPLINE
  5
54
330
1F
100
AcDbEntity
  8
Capa 1
 62
     7
370
    35
100
AcDbSpline
210
0.0
220
0.0
230
1.0
 70
     9
 71
     3
 72
    17
 73
    13
 74
     0
 42
0.000000001
 43
0.0000000001
 40
0.0
 40
0.0
 40
0.0
 40
0.0
 40
1.0
 40
1.0
 40
1.0
 40
2.0
 40
2.0
 40
2.0
 40
3.0
 40
3.0
 40
3.0
 40
4.0
 40
4.0
 40
4.0
 40
4.0
 10
132.8543212768297
 20
257.3590317174371
 30
0.0
 10
131.8719232400724
 20
257.3528302157405
 30
0.0
 10
131.1015327342645
 20
256.5535600054247
 30
0.0
 10
131.1292043169243
 20
255.5692369844857
 30
0.0
 10
131.1557905367976
 20
254.6234459607542
 30
0.0
 10
131.9317629083643
 20
253.8732709722023
 30
0.0
 10
132.8770725481909
 20
253.8794931455711
 30
0.0
 10
133.8524105584421
 20
253.8858806923185
 30
0.0
 10
134.6406733714666
 20
254.703962124447
 30
0.0
 10
134.6088360630646
 20
255.6767296805582
 30
0.0
 10
134.5778773816803
 20
256.623182197804
 30
0.0
 10
133.8041687667824
 20
257.3650265024103
 30
0.0
 10
132.8543212768297
 20
257.3590317174371
 30
0.0
  0
SPLINE
  5
55
330
1F
100
AcDbEntity
  8
Capa 1
 62
     7
370
    35
100
AcDbSpline
210
0.0
220
0.0
230
1.0
 70
     9
 71
     3
 72
    17
 73
    13
 74
     0
 42
0.000000001
 43
0.0000000001
 40
0.0
 40
0.0
 40
0.0
 40
0.0
 40
1.0
 40
1.0
 40
1.0
 40
2.0
 40
2.0
 40
2.0
 40
3.0
 40
3.0
 40
3.0
 40
4.0
 40
4.0
 40
4.0
 40
4.0
 10
201.2222121578526
 20
152.0433728155171
 30
0.0
 10
200.23716273486
 20
152.050370176598
 30
0.0
 10
199.4428580689911
 20
151.259761396985
 30
0.0
 10
199.4591488475759
 20
150.2885235446255
 30
0.0
 10
199.4749848074694
 20
149.3439934929056
 30
0.0
 10
200.2390491987507
 20
148.5916376429238
 30
0.0
 10
201.1900647457974
 20
148.5841441617072
 30
0.0
 10
202.1825566564684
 20
148.5763302695696
 30
0.0
 10
202.958198250805
 20
149.3528823120039
 30
0.0
 10
202.9440265138507
 20
150.340161382085
 30
0.0
 10
202.9303664479244
 20
151.2925673409594
 30
0.0
 10
202.1782152053227
 20
152.0365821711595
 30
0.0
 10
201.2222121578526
 20
152.0433728155171
 30
0.0
  0
SPLINE
  5
56
330
1F
100
AcDbEntity
  8
Capa 1
 62
     7
370
    35
100
AcDbSpline
210
0.0
220
0.0
230
1.0
 70
     9
 71
     3
 72
    17
 73
    13
 74
     0
 42
0.000000001
 43
0.0000000001
 40
0.0
 40
0.0
 40
0.0
 40
0.0
 40
1.0
 40
1.0
 40
1.0
 40
2.0
 40
2.0
 40
2.0
 40
3.0
 40
3.0
 40
3.0
 40
4.0
 40
4.0
 40
4.0
 40
4.0
 10
180.2738937734694
 20
145.9093641291585
 30
0.0
 10
181.2541779369901
 20
145.8907699599052
 30
0.0
 10
182.0699986280015
 20
146.6783089961784
 30
0.0
 10
182.0687478766
 20
147.6419810164681
 30
0.0
 10
182.067533303958
 20
148.5745938490946
 30
0.0
 10
181.2976493007838
 20
149.3511252198566
 30
0.0
 10
180.3540245574732
 20
149.3714764812572
 30
0.0
 10
179.3657190461213
 20
149.3928096470932
 30
0.0
 10
178.5662459860313
 20
148.6170534640432
 30
0.0
 10
178.5676104421056
 20
147.6380844062355
 30
0.0
 10
178.5689232142378
 20
146.6960659627027
 30
0.0
 10
179.3277003382309
 20
145.9273071407336
 30
0.0
 10
180.2738937734694
 20
145.9093641291585
 30
0.0
  0
SPLINE
  5
57
330
1F
100
AcDbEntity
  8
Capa 1
 62
     7
370
    35
100
AcDbSpline
210
0.0
220
0.0
230
1.0
 70
     9
 71
     3
 72
    17
 73
    13
 74
     0
 42
0.000000001
 43
0.0000000001
 40
0.0
 40
0.0
 40
0.0
 40
0.0
 40
1.0
 40
1.0
 40
1.0
 40
2.0
 40
2.0
 40
2.0
 40
3.0
 40
3.0
 40
3.0
 40
4.0
 40
4.0
 40
4.0
 40
4.0
 10
57.77257259793199
 20
175.8261421573878
 30
0.0
 10
57.7542971559662
 20
174.8313799419263
 30
0.0
 10
58.52031520026306
 20
174.0417944100932
 30
0.0
 10
59.50233077584792
 20
174.0431897479749
 30
0.0
 10
60.45283982026098
 20
174.0445334066758
 30
0.0
 10
61.20901724196088
 20
174.7913079051309
 30
0.0
 10
61.22723066319601
 20
175.7466078981303
 30
0.0
 10
61.24604361816079
 20
176.7337215948328
 30
0.0
 10
60.46687717896547
 20
177.5417462583768
 30
0.0
 10
59.49759652674139
 20
177.5403095771504
 30
0.0
 10
58.56265468572227
 20
177.5389245751049
 30
0.0
 10
57.78993840251485
 20
176.7710649708818
 30
0.0
 10
57.77257259793199
 20
175.8261421573878
 30
0.0
  0
SPLINE
  5
58
330
1F
100
AcDbEntity
  8
Capa 1
 62
     7
370
    35
100
AcDbSpline
210
0.0
220
0.0
230
1.0
 70
     9
 71
     3
 72
    17
 73
    13
 74
     0
 42
0.000000001
 43
0.0000000001
 40
0.0
 40
0.0
 40
0.0
 40
0.0
 40
1.0
 40
1.0
 40
1.0
 40
2.0
 40
2.0
 40
2.0
 40
3.0
 40
3.0
 40
3.0
 40
4.0
 40
4.0
 40
4.0
 40
4.0
 10
57.77021581016717
 20
235.6300033565564
 30
0.0
 10
57.76378632775613
 20
234.647520114454
 30
0.0
 10
58.56331624018257
 20
233.8424411642158
 30
0.0
 10
59.52614673641871
 20
233.8619138795428
 30
0.0
 10
60.46272179001171
 20
233.8808284597171
 30
0.0
 10
61.21956076617192
 20
234.6560161717782
 30
0.0
 10
61.22601092215984
 20
235.6029648091597
 30
0.0
 10
61.23277118180103
 20
236.5940474669479
 30
0.0
 10
60.45019360241978
 20
237.3771937728528
 30
0.0
 10
59.46925305283291
 20
237.3609871817527
 30
0.0
 10
58.52128685837663
 20
237.3453180541329
 30
0.0
 10
57.77647990396314
 20
236.5865023065505
 30
0.0
 10
57.77021581016717
 20
235.6300033565564
 30
0.0
  0
SPLINE
  5
59
330
1F
100
AcDbEntity
  8
Capa 1
 62
     7
370
    35
100
AcDbSpline
210
0.0
220
0.0
230
1.0
 70
     9
 71
     3
 72
    17
 73
    13
 74
     0
 42
0.000000001
 43
0.0000000001
 40
0.0
 40
0.0
 40
0.0
 40
0.0
 40
1.0
 40
1.0
 40
1.0
 40
2.0
 40
2.0
 40
2.0
 40
3.0
 40
3.0
 40
3.0
 40
4.0
 40
4.0
 40
4.0
 40
4.0
 10
46.09442046675371
 20
83.69449860418317
 30
0.0
 10
46.11639647898181
 20
82.72635116683581
 30
0.0
 10
46.88160825378019
 20
82.0181913522776
 30
0.0
 10
47.86064683429369
 20
82.05997913787577
 30
0.0
 10
48.77125587531991
 20
82.09883671392235
 30
0.0
 10
49.50169469379876
 20
82.8792336874085
 30
0.0
 10
49.47388873288927
 20
83.78352116103625
 30
0.0
 10
49.44631018132552
 20
84.68009810088805
 30
0.0
 10
48.66515907874928
 20
85.4402626750894
 30
0.0
 10
47.77183314799841
 20
85.43988541706953
 30
0.0
 10
46.83008970018431
 20
85.43948748737733
 30
0.0
 10
46.07269253744823
 20
84.65140065178756
 30
0.0
 10
46.09442046675371
 20
83.69449860418317
 30
0.0
  0
SPLINE
  5
5A
330
1F
100
AcDbEntity
  8
Capa 1
 62
     7
370
    35
100
AcDbSpline
210
0.0
220
0.0
230
1.0
 70
     9
 71
     3
 72
    17
 73
    13
 74
     0
 42
0.000000001
 43
0.0000000001
 40
0.0
 40
0.0
 40
0.0
 40
0.0
 40
1.0
 40
1.0
 40
1.0
 40
2.0
 40
2.0
 40
2.0
 40
3.0
 40
3.0
 40
3.0
 40
4.0
 40
4.0
 40
4.0
 40
4.0
 10
143.0749759008708
 20
82.43995031473772
 30
0.0
 10
143.0789245540557
 20
83.42170488039078
 30
0.0
 10
142.2847284244654
 20
84.20119746821287
 30
0.0
 10
141.2986711645997
 20
84.18337331875354
 30
0.0
 10
140.3448956950389
 20
84.16612280820114
 30
0.0
 10
139.6007089479319
 20
83.41197885856345
 30
0.0
 10
139.5960884034983
 20
82.45799668467451
 30
0.0
 10
139.591312807238
 20
81.47212328831137
 30
0.0
 10
140.3747276664831
 20
80.70100272777954
 30
0.0
 10
141.3654985018784
 20
80.71635661239644
 30
0.0
 10
142.3146741005825
 20
80.73106450725328
 30
0.0
 10
143.0711719627241
 20
81.49380787257674
 30
0.0
 10
143.0749759008708
 20
82.43995031473772
 30
0.0
  0
SPLINE
  5
5B
330
1F
100
AcDbEntity
  8
Capa 1
 62
     7
370
    35
100
AcDbSpline
210
0.0
220
0.0
230
1.0
 70
     9
 71
     3
 72
    17
 73
    13
 74
     0
 42
0.000000001
 43
0.0000000001
 40
0.0
 40
0.0
 40
0.0
 40
0.0
 40
1.0
 40
1.0
 40
1.0
 40
2.0
 40
2.0
 40
2.0
 40
3.0
 40
3.0
 40
3.0
 40
4.0
 40
4.0
 40
4.0
 40
4.0
 10
31.11347836610406
 20
136.9970206677559
 30
0.0
 10
30.18287797623066
 20
136.9584059838591
 30
0.0
 10
29.48981698475876
 20
136.2181017188407
 30
0.0
 10
29.5084232039547
 20
135.2825741804169
 30
0.0
 10
29.5272154853426
 20
134.3388399880814
 30
0.0
 10
30.3446693889278
 20
133.569481687615
 30
0.0
 10
31.27338848330473
 20
133.6214192643231
 30
0.0
 10
32.17965607318522
 20
133.6720958690196
 30
0.0
 10
32.91007421808719
 20
134.4571543046142
 30
0.0
 10
32.88892514893447
 20
135.3578810826846
 30
0.0
 10
32.86657701232246
 20
136.310090660672
 30
0.0
 10
32.07912046879649
 20
137.0370927045513
 30
0.0
 10
31.11347836610406
 20
136.9970206677559
 30
0.0
  0
SPLINE
  5
5C
330
1F
100
AcDbEntity
  8
Capa 1
 62
     7
370
    35
100
AcDbSpline
210
0.0
220
0.0
230
1.0
 70
     9
 71
     3
 72
    38
 73
    34
 74
     0
 42
0.000000001
 43
0.0000000001
 40
0.0
 40
0.0
 40
0.0
 40
0.0
 40
1.0
 40
1.0
 40
1.0
 40
2.0
 40
2.0
 40
2.0
 40
3.0
 40
3.0
 40
3.0
 40
4.0
 40
4.0
 40
4.0
 40
5.0
 40
5.0
 40
5.0
 40
6.0
 40
6.0
 40
6.0
 40
7.0
 40
7.0
 40
7.0
 40
8.0
 40
8.0
 40
8.0
 40
9.0
 40
9.0
 40
9.0
 40
10.0
 40
10.0
 40
10.0
 40
11.0
 40
11.0
 40
11.0
 40
11.0
 10
98.41733125525342
 20
226.8328631250022
 30
0.0
 10
107.1099087806742
 20
226.8329044683469
 30
0.0
 10
115.8025173164603
 20
226.8452454567229
 30
0.0
 10
124.4950431579388
 20
226.8243257243334
 30
0.0
 10
126.700913811502
 20
226.8190131045467
 30
0.0
 10
128.6647072165375
 20
227.4301090817188
 30
0.0
 10
130.3727891490902
 20
228.8257570385136
 30
0.0
 10
133.1093815316407
 20
231.0617911618719
 30
0.0
 10
134.2269020669142
 20
234.7540205702551
 30
0.0
 10
133.2053276019611
 20
238.1436993825389
 30
0.0
 10
132.1763623332718
 20
241.5579361415408
 30
0.0
 10
129.2380681978489
 20
243.9946301881251
 30
0.0
 10
125.710246343991
 20
244.3483431732205
 30
0.0
 10
125.2338754486327
 20
244.3961154079558
 30
0.0
 10
124.7531527653403
 20
244.4218929833409
 30
0.0
 10
124.2744457557941
 20
244.4219963417025
 30
0.0
 10
107.0021994451066
 20
244.4256345560311
 30
0.0
 10
89.7299427976306
 20
244.4195984277132
 30
0.0
 10
72.45769648694308
 20
244.4303270256481
 30
0.0
 10
69.58448277155217
 20
244.4321254611401
 30
0.0
 10
67.11376292452325
 20
243.5126701479464
 30
0.0
 10
65.28034743210904
 20
241.2679125788683
 30
0.0
 10
62.98770977636214
 20
238.4608855226419
 30
0.0
 10
62.51294108321239
 20
235.2871016560852
 30
0.0
 10
64.01479374955494
 20
231.9928846265827
 30
0.0
 10
65.51395885090251
 20
228.7046417103811
 30
0.0
 10
68.19387462242447
 20
226.9902985814038
 30
0.0
 10
71.83172125246098
 20
226.8387545516139
 30
0.0
 10
72.1980156876984
 20
226.8234988574405
 30
0.0
 10
72.56540582251068
 20
226.8329871550362
 30
0.0
 10
72.93227911790086
 20
226.8329871550362
 30
0.0
 10
81.42729994261451
 20
226.8327597666406
 30
0.0
 10
89.92231043053974
 20
226.8328011099853
 30
0.0
 10
98.41733125525342
 20
226.8328631250022
 30
0.0
  0
SPLINE
  5
5D
330
1F
100
AcDbEntity
  8
Capa 1
370
     0
100
AcDbSpline
210
0.0
220
0.0
230
1.0
 70
     9
 71
     3
 72
    17
 73
    13
 74
     0
 42
0.000000001
 43
0.0000000001
 40
0.0
 40
0.0
 40
0.0
 40
0.0
 40
1.0
 40
1.0
 40
1.0
 40
2.0
 40
2.0
 40
2.0
 40
3.0
 40
3.0
 40
3.0
 40
4.0
 40
4.0
 40
4.0
 40
4.0
 10
135.5414107795305
 20
175.7705973738596
 30
0.0
 10
135.5502694072254
 20
175.0101382283276
 30
0.0
 10
136.1901579589507
 20
174.3816883822416
 30
0.0
 10
136.9468832304381
 20
174.3902567904189
 30
0.0
 10
137.7103584247781
 20
174.3988975494494
 30
0.0
 10
138.3265033734517
 20
175.0326186719774
 30
0.0
 10
138.3185233727744
 20
175.8010054038446
 30
0.0
 10
138.3105020249432
 20
176.5718934080629
 30
0.0
 10
137.6805574636993
 20
177.1926533920453
 30
0.0
 10
136.916493072418
 20
177.1825862876246
 30
0.0
 10
136.1565323861483
 20
177.1725708623848
 30
0.0
 10
135.5325418150471
 20
176.5318317071035
 30
0.0
 10
135.5414107795305
 20
175.7705973738596
 30
0.0
  0
HATCH
  5
5E
330
1F
100
AcDbEntity
  8
Capa 1
 62
     7
100
AcDbHatch
 10
0.0
 20
0.0
 30
0.0
210
0.0
220
0.0
230
1.0
  2
SOLID
 70
     1
 71
     0
 91
        1
 92
        1
 93
        1
 72
     4
 94
        3
 73
     0
 74
     0
 95
       17
 96
       13
 40
0.0
 40
0.0
 40
0.0
 40
0.0
 40
1.0
 40
1.0
 40
1.0
 40
2.0
 40
2.0
 40
2.0
 40
3.0
 40
3.0
 40
3.0
 40
4.0
 40
4.0
 40
4.0
 40
4.0
 10
135.5414107795305
 20
175.7705973738596
 10
135.5502694072254
 20
175.0101382283276
 10
136.1901579589507
 20
174.3816883822416
 10
136.9468832304381
 20
174.3902567904189
 10
137.7103584247781
 20
174.3988975494494
 10
138.3265033734517
 20
175.0326186719774
 10
138.3185233727744
 20
175.8010054038446
 10
138.3105020249432
 20
176.5718934080629
 10
137.6805574636993
 20
177.1926533920453
 10
136.916493072418
 20
177.1825862876246
 10
136.1565323861483
 20
177.1725708623848
 10
135.5325418150471
 20
176.5318317071035
 10
135.5414107795305
 20
175.7705973738596
 97
        0
 97
        0
 75
     2
 76
     1
 98
        0
450
        0
451
        0
460
0.0
461
0.0
452
        0
462
0.0
453
        0
470

  0
ENDSEC
  0
SECTION
  2
OBJECTS
  0
DICTIONARY
  5
C
330
0
100
AcDbDictionary
281
     1
  3
ACAD_CIP_PREVIOUS_PRODUCT_INFO
350
137
  3
ACAD_COLOR
350
11C
  3
ACAD_DETAILVIEWSTYLE
350
133
  3
ACAD_GROUP
350
D
  3
ACAD_LAYOUT
350
1A
  3
ACAD_MATERIAL
350
3B
  3
ACAD_MLEADERSTYLE
350
10F
  3
ACAD_MLINESTYLE
350
17
  3
ACAD_PLOTSETTINGS
350
19
  3
ACAD_PLOTSTYLENAME
350
E
  3
ACAD_RENDER_ACTIVE_RAPIDRT_SETTINGS
350
13F
  3
ACAD_RENDER_RAPIDRT_SETTINGS
350
138
  3
ACAD_SCALELIST
350
11E
  3
ACAD_SECTIONVIEWSTYLE
350
131
  3
ACAD_TABLESTYLE
350
10E
  3
ACAD_VISUALSTYLE
350
2A
  3
ACDB_RECOMPOSE_DATA
350
151
  3
AcDbVariableDictionary
350
146
  0
SUN
  5
3F
330
29
100
AcDbSun
 90
        1
290
     1
 63
     7
421
 16777215
 40
1.0
291
     1
 91
  2455826
 92
 54000000
292
     0
 70
     0
 71
   256
280
     1
  0
DICTIONARY
  5
142
330
10
100
AcDbDictionary
280
     1
281
     1
  3
ADSK_XREC_LAYER_RECONCILED
360
143
  0
DICTIONARY
  5
144
330
40
100
AcDbDictionary
280
     1
281
     1
  3
ADSK_XREC_LAYER_RECONCILED
360
145
  0
XRECORD
  5
137
102
{ACAD_REACTORS
330
C
102
}
330
C
100
AcDbXrecord
280
     1
300
ACD
300
2019
300
ACD_F_S
  0
DICTIONARY
  5
11C
102
{ACAD_REACTORS
330
C
102
}
330
C
100
AcDbDictionary
281
     1
  0
DICTIONARY
  5
133
102
{ACAD_REACTORS
330
C
102
}
330
C
100
AcDbDictionary
281
     1
  3
Imperial24
350
134
  0
DICTIONARY
  5
D
102
{ACAD_REACTORS
330
C
102
}
330
C
100
AcDbDictionary
281
     1
  0
DICTIONARY
  5
1A
102
{ACAD_REACTORS
330
C
102
}
330
C
100
AcDbDictionary
281
     1
  3
Layout1
350
1E
  3
Layout2
350
26
  3
Model
350
22
  0
DICTIONARY
  5
3B
102
{ACAD_REACTORS
330
C
102
}
330
C
100
AcDbDictionary
281
     1
  3
ByBlock
350
3D
  3
ByLayer
350
3C
  3
Global
350
3E
  0
DICTIONARY
  5
10F
102
{ACAD_REACTORS
330
C
102
}
330
C
100
AcDbDictionary
281
     1
  3
Standard
350
130
  0
DICTIONARY
  5
17
102
{ACAD_REACTORS
330
C
102
}
330
C
100
AcDbDictionary
281
     1
  3
Standard
350
18
  0
DICTIONARY
  5
19
102
{ACAD_REACTORS
330
C
102
}
330
C
100
AcDbDictionary
281
     1
  0
ACDBDICTIONARYWDFLT
  5
E
102
{ACAD_REACTORS
330
C
102
}
330
C
100
AcDbDictionary
281
     1
  3
Normal
350
F
100
AcDbDictionaryWithDefault
340
F
  0
RAPIDRTRENDERSETTINGS
  5
13F
102
{ACAD_REACTORS
330
C
102
}
330
C
100
AcDbRenderSettings
 90
        2
  1
Medio
290
     1
290
     0
290
     1
290
     1
  1

  1
Aplica 5 niveles de renderización
 90
        0
100
AcDbRapidRTRenderSettings
 90
        3
 70
     0
 90
        5
 90
        1
 70
     1
 70
     2
 40
3.0
 40
3.0
290
     1
  0
DICTIONARY
  5
138
102
{ACAD_REACTORS
330
C
102
}
330
C
100
AcDbDictionary
281
     1
  3
Alto
350
13B
  3
Bajo
350
139
  3
Calidad un almuerzo
350
13D
  3
Calidad una noche
350
13E
  3
Calidad una pausa café
350
13C
  3
Medio
350
13A
  0
DICTIONARY
  5
11E
102
{ACAD_REACTORS
330
C
102
}
330
C
100
AcDbDictionary
281
     1
  3
A0
350
11F
  3
A1
350
120
  3
A2
350
121
  3
A3
350
122
  3
A4
350
123
  3
A5
350
124
  3
A6
350
125
  3
A7
350
126
  3
A8
350
127
  3
A9
350
128
  3
B0
350
129
  3
B1
350
12A
  3
B2
350
12B
  3
B3
350
12C
  3
B4
350
12D
  3
B5
350
12E
  3
B6
350
12F
  0
DICTIONARY
  5
131
102
{ACAD_REACTORS
330
C
102
}
330
C
100
AcDbDictionary
281
     1
  3
Imperial24
350
132
  0
DICTIONARY
  5
10E
102
{ACAD_REACTORS
330
C
102
}
330
C
100
AcDbDictionary
281
     1
  3
Standard
350
11D
  0
DICTIONARY
  5
2A
102
{ACAD_REACTORS
330
C
102
}
330
C
100
AcDbDictionary
281
     1
  3
2dWireframe
350
2F
  3
3D Hidden
350
31
  3
3dWireframe
350
30
  3
Basic
350
32
  3
Brighten
350
36
  3
ColorChange
350
3A
  3
Conceptual
350
34
  3
Dim
350
35
  3
EdgeColorOff
350
11B
  3
Facepattern
350
39
  3
Flat
350
2B
  3
FlatWithEdges
350
2C
  3
Gouraud
350
2D
  3
GouraudWithEdges
350
2E
  3
Hidden
350
113
  3
JitterOff
350
119
  3
Linepattern
350
38
  3
OverhangOff
350
11A
  3
Realistic
350
33
  3
Shaded
350
118
  3
Shaded with edges
350
117
  3
Shades of Gray
350
114
  3
Sketchy
350
115
  3
Thicken
350
37
  3
Wireframe
350
112
  3
X-Ray
350
116
  0
XRECORD
  5
151
102
{ACAD_REACTORS
330
C
102
}
330
C
100
AcDbXrecord
280
     1
 90
        1
330
11D
  0
DICTIONARY
  5
146
102
{ACAD_REACTORS
330
C
102
}
330
C
100
AcDbDictionary
281
     1
  3
CANNOSCALE
350
14B
  3
CMLEADERSTYLE
350
148
  3
CTABLESTYLE
350
147
  3
CVIEWDETAILSTYLE
350
149
  3
CVIEWSECTIONSTYLE
350
14A
  3
LAYEREVAL
350
14C
  3
LAYERNOTIFY
350
14D
  0
XRECORD
  5
143
102
{ACAD_REACTORS
330
142
102
}
330
142
100
AcDbXrecord
280
     1
290
     1
  0
XRECORD
  5
145
102
{ACAD_REACTORS
330
144
102
}
330
144
100
AcDbXrecord
280
     1
290
     1
  0
ACDBDETAILVIEWSTYLE
  5
134
102
{ACAD_REACTORS
330
133
102
}
330
133
100
AcDbModelDocViewStyle
 70
     0
  3
Imperial24
290
     0
300
Imperial24
 90
        0
100
AcDbDetailViewStyle
 70
     0
 71
     0
 90
        3
 71
     1
340
11
 62
   256
 40
0.24
340
0
 62
   256
 40
0.24
300

 40
0.36
280
     3
 71
     2
340
16
 90
       25
 62
   256
 71
     3
340
11
 62
   256
 40
0.24
 90
        1
 40
0.75
 90
        1
300
%<\AcVar ViewType \f "%tc1">% %<\AcVar ViewDetailId>%\PESCALA %<\AcVar ViewScale \f "%sn">%
 71
     4
340
16
 90
       25
 62
   256
340
16
 90
       25
 62
   256
280
     0
  0
LAYOUT
  5
1E
102
{ACAD_REACTORS
330
1A
102
}
330
1A
100
AcDbPlotSettings
  1

  2
none_device
  4

  6

 40
0.0
 41
0.0
 42
0.0
 43
0.0
 44
0.0
 45
0.0
 46
0.0
 47
0.0
 48
0.0
 49
0.0
140
0.0
141
0.0
142
1.0
143
1.0
 70
   688
 72
     0
 73
     0
 74
     5
  7

 75
    16
147
1.0
 76
     0
 77
     2
 78
   300
148
0.0
149
0.0
100
AcDbLayout
  1
Layout1
 70
     1
 71
     1
 10
0.0
 20
0.0
 11
12.0
 21
9.0
 12
0.0
 22
0.0
 32
0.0
 14
1.000000000000000E+20
 24
1.000000000000000E+20
 34
1.000000000000000E+20
 15
-1.000000000000000E+20
 25
-1.000000000000000E+20
 35
-1.000000000000000E+20
146
0.0
 13
0.0
 23
0.0
 33
0.0
 16
1.0
 26
0.0
 36
0.0
 17
0.0
 27
1.0
 37
0.0
 76
     0
330
1B
  0
LAYOUT
  5
26
102
{ACAD_REACTORS
330
1A
102
}
330
1A
100
AcDbPlotSettings
  1

  2
none_device
  4

  6

 40
0.0
 41
0.0
 42
0.0
 43
0.0
 44
0.0
 45
0.0
 46
0.0
 47
0.0
 48
0.0
 49
0.0
140
0.0
141
0.0
142
1.0
143
1.0
 70
   688
 72
     0
 73
     0
 74
     5
  7

 75
    16
147
1.0
 76
     0
 77
     2
 78
   300
148
0.0
149
0.0
100
AcDbLayout
  1
Layout2
 70
     1
 71
     2
 10
0.0
 20
0.0
 11
0.0
 21
0.0
 12
0.0
 22
0.0
 32
0.0
 14
0.0
 24
0.0
 34
0.0
 15
0.0
 25
0.0
 35
0.0
146
0.0
 13
0.0
 23
0.0
 33
0.0
 16
1.0
 26
0.0
 36
0.0
 17
0.0
 27
1.0
 37
0.0
 76
     0
330
23
  0
LAYOUT
  5
22
102
{ACAD_REACTORS
330
1A
102
}
330
1A
100
AcDbPlotSettings
  1

  2
none_device
  4

  6

 40
0.0
 41
0.0
 42
0.0
 43
0.0
 44
0.0
 45
0.0
 46
0.0
 47
0.0
 48
0.0
 49
0.0
140
0.0
141
0.0
142
1.0
143
1.0
 70
  1712
 72
     0
 73
     0
 74
     0
  7

 75
     0
147
1.0
 76
     0
 77
     2
 78
   300
148
0.0
149
0.0
100
AcDbLayout
  1
Model
 70
     1
 71
     0
 10
0.0
 20
0.0
 11
12.0
 21
9.0
 12
0.0
 22
0.0
 32
0.0
 14
1.000000000000000E+20
 24
1.000000000000000E+20
 34
1.000000000000000E+20
 15
-1.000000000000000E+20
 25
-1.000000000000000E+20
 35
-1.000000000000000E+20
146
0.0
 13
0.0
 23
0.0
 33
0.0
 16
1.0
 26
0.0
 36
0.0
 17
0.0
 27
1.0
 37
0.0
 76
     0
330
1F
331
29
  0
MATERIAL
  5
3D
102
{ACAD_REACTORS
330
3B
102
}
330
3B
100
AcDbMaterial
  1
ByBlock
  0
MATERIAL
  5
3C
102
{ACAD_REACTORS
330
3B
102
}
330
3B
100
AcDbMaterial
  1
ByLayer
  0
MATERIAL
  5
3E
102
{ACAD_REACTORS
330
3B
102
}
330
3B
100
AcDbMaterial
  1
Global
  0
MLEADERSTYLE
  5
130
102
{ACAD_REACTORS
330
10F
102
}
330
10F
100
AcDbMLeaderStyle
179
     2
170
     2
171
     1
172
     0
 90
        2
 40
0.0
 41
0.0
173
     1
 91
-1056964608
340
14
 92
       -2
290
     1
 42
0.09
291
     1
 43
0.36
  3
Standard
 44
0.18
300

342
11
174
     1
178
     6
175
     1
176
     0
 93
-1056964608
 45
0.18
292
     0
297
     0
 46
0.18
 94
-1056964608
 47
1.0
 49
1.0
140
1.0
293
     1
141
0.0
294
     1
177
     0
142
1.0
295
     0
296
     0
143
0.125
271
     0
272
     9
273
     9
298
     0
  0
MLINESTYLE
  5
18
102
{ACAD_REACTORS
330
17
102
}
330
17
100
AcDbMlineStyle
  2
STANDARD
 70
     0
  3

 62
   256
 51
90.0
 52
90.0
 71
     2
 49
0.5
 62
   256
  6
BYLAYER
 49
-0.5
 62
   256
  6
BYLAYER
  0
ACDBPLACEHOLDER
  5
F
102
{ACAD_REACTORS
330
E
102
}
330
E
  0
RAPIDRTRENDERSETTINGS
  5
13B
102
{ACAD_REACTORS
330
138
102
}
330
138
100
AcDbRenderSettings
 90
        2
  1
Alto
290
     1
290
     0
290
     1
290
     1
  1

  1
Aplica 10 niveles de renderización
 90
        2
100
AcDbRapidRTRenderSettings
 90
        3
 70
     0
 90
       10
 90
        1
 70
     2
 70
     2
 40
3.0
 40
3.0
290
     1
  0
RAPIDRTRENDERSETTINGS
  5
139
102
{ACAD_REACTORS
330
138
102
}
330
138
100
AcDbRenderSettings
 90
        2
  1
Bajo
290
     1
290
     0
290
     1
290
     1
  1

  1
Aplica 1 nivel de renderización
 90
        0
100
AcDbRapidRTRenderSettings
 90
        3
 70
     0
 90
        1
 90
        1
 70
     0
 70
     2
 40
3.0
 40
3.0
290
     1
  0
RAPIDRTRENDERSETTINGS
  5
13D
102
{ACAD_REACTORS
330
138
102
}
330
138
100
AcDbRenderSettings
 90
        2
  1
Calidad un almuerzo
290
     1
290
     0
290
     1
290
     1
  1

  1
Renderiza durante 60 minutos
 90
        4
100
AcDbRapidRTRenderSettings
 90
        3
 70
     1
 90
        1
 90
       60
 70
     2
 70
     2
 40
3.0
 40
3.0
290
     1
  0
RAPIDRTRENDERSETTINGS
  5
13E
102
{ACAD_REACTORS
330
138
102
}
330
138
100
AcDbRenderSettings
 90
        2
  1
Calidad una noche
290
     1
290
     0
290
     1
290
     1
  1

  1
Renderiza durante 12 horas
 90
        5
100
AcDbRapidRTRenderSettings
 90
        3
 70
     1
 90
        1
 90
      720
 70
     2
 70
     2
 40
3.0
 40
3.0
290
     1
  0
RAPIDRTRENDERSETTINGS
  5
13C
102
{ACAD_REACTORS
330
138
102
}
330
138
100
AcDbRenderSettings
 90
        2
  1
Calidad una pausa café
290
     1
290
     0
290
     1
290
     1
  1

  1
Renderiza durante 10 minutos
 90
        3
100
AcDbRapidRTRenderSettings
 90
        3
 70
     1
 90
        1
 90
       10
 70
     1
 70
     2
 40
3.0
 40
3.0
290
     1
  0
RAPIDRTRENDERSETTINGS
  5
13A
102
{ACAD_REACTORS
330
138
102
}
330
138
100
AcDbRenderSettings
 90
        2
  1
Medio
290
     1
290
     0
290
     1
290
     1
  1

  1
Aplica 5 niveles de renderización
 90
        1
100
AcDbRapidRTRenderSettings
 90
        3
 70
     0
 90
        5
 90
        1
 70
     1
 70
     2
 40
3.0
 40
3.0
290
     1
  0
SCALE
  5
11F
102
{ACAD_REACTORS
330
11E
102
}
330
11E
100
AcDbScale
 70
     0
300
1:1
140
1.0
141
1.0
290
     1
  0
SCALE
  5
120
102
{ACAD_REACTORS
330
11E
102
}
330
11E
100
AcDbScale
 70
     0
300
1/128" = 1'-0"
140
0.0078125
141
12.0
290
     0
  0
SCALE
  5
121
102
{ACAD_REACTORS
330
11E
102
}
330
11E
100
AcDbScale
 70
     0
300
1/64" = 1'-0"
140
0.015625
141
12.0
290
     0
  0
SCALE
  5
122
102
{ACAD_REACTORS
330
11E
102
}
330
11E
100
AcDbScale
 70
     0
300
1/32" = 1'-0"
140
0.03125
141
12.0
290
     0
  0
SCALE
  5
123
102
{ACAD_REACTORS
330
11E
102
}
330
11E
100
AcDbScale
 70
     0
300
1/16" = 1'-0"
140
0.0625
141
12.0
290
     0
  0
SCALE
  5
124
102
{ACAD_REACTORS
330
11E
102
}
330
11E
100
AcDbScale
 70
     0
300
3/32" = 1'-0"
140
0.09375
141
12.0
290
     0
  0
SCALE
  5
125
102
{ACAD_REACTORS
330
11E
102
}
330
11E
100
AcDbScale
 70
     0
300
1/8" = 1'-0"
140
0.125
141
12.0
290
     0
  0
SCALE
  5
126
102
{ACAD_REACTORS
330
11E
102
}
330
11E
100
AcDbScale
 70
     0
300
3/16" = 1'-0"
140
0.1875
141
12.0
290
     0
  0
SCALE
  5
127
102
{ACAD_REACTORS
330
11E
102
}
330
11E
100
AcDbScale
 70
     0
300
1/4" = 1'-0"
140
0.25
141
12.0
290
     0
  0
SCALE
  5
128
102
{ACAD_REACTORS
330
11E
102
}
330
11E
100
AcDbScale
 70
     0
300
3/8" = 1'-0"
140
0.375
141
12.0
290
     0
  0
SCALE
  5
129
102
{ACAD_REACTORS
330
11E
102
}
330
11E
100
AcDbScale
 70
     0
300
1/2" = 1'-0"
140
0.5
141
12.0
290
     0
  0
SCALE
  5
12A
102
{ACAD_REACTORS
330
11E
102
}
330
11E
100
AcDbScale
 70
     0
300
3/4" = 1'-0"
140
0.75
141
12.0
290
     0
  0
SCALE
  5
12B
102
{ACAD_REACTORS
330
11E
102
}
330
11E
100
AcDbScale
 70
     0
300
1" = 1'-0"
140
1.0
141
12.0
290
     0
  0
SCALE
  5
12C
102
{ACAD_REACTORS
330
11E
102
}
330
11E
100
AcDbScale
 70
     0
300
1-1/2" = 1'-0"
140
1.5
141
12.0
290
     0
  0
SCALE
  5
12D
102
{ACAD_REACTORS
330
11E
102
}
330
11E
100
AcDbScale
 70
     0
300
3" = 1'-0"
140
3.0
141
12.0
290
     0
  0
SCALE
  5
12E
102
{ACAD_REACTORS
330
11E
102
}
330
11E
100
AcDbScale
 70
     0
300
6" = 1'-0"
140
6.0
141
12.0
290
     0
  0
SCALE
  5
12F
102
{ACAD_REACTORS
330
11E
102
}
330
11E
100
AcDbScale
 70
     0
300
1'-0" = 1'-0"
140
12.0
141
12.0
290
     0
  0
ACDBSECTIONVIEWSTYLE
  5
132
102
{ACAD_REACTORS
330
131
102
}
330
131
100
AcDbModelDocViewStyle
 70
     0
  3
Imperial24
290
     0
300
Imperial24
 90
        0
100
AcDbSectionViewStyle
 70
     0
 71
     0
 90
       78
 71
     1
340
11
 62
   256
 40
0.24
340
0
340
0
 62
   256
 40
0.24
300
I, O, Q, S, X, Z
 40
0.48
 90
        3
 40
0.18
 90
        1
 71
     2
340
16
 90
       25
 62
   256
340
16
 90
       50
 62
   256
 40
0.24
 40
0.0
 40
0.24
 71
     3
340
11
 62
   256
 40
0.24
 90
        1
 40
0.75
 90
        1
300
%<\AcVar ViewType \f "%tc1">% %<\AcVar ViewSectionStartId>%-%<\AcVar ViewSectionEndId>%\PESCALA %<\AcVar ViewScale \f "%sn">%
 71
     4
 62
   256
 62
   257
300
ANSI31
 40
1.0
 90
        0
290
     0
290
     0
 90
        6
 40
0.0
 40
1.570796326794896
 40
0.2617993877991494
 40
1.308996938995747
 40
-0.2617993877991494
 40
1.832595714594046
  0
TABLESTYLE
  5
11D
102
{ACAD_XDICTIONARY
360
14F
102
}
102
{ACAD_REACTORS
330
10E
102
}
330
10E
100
AcDbTableStyle
280
     0
  3
Standard
 70
     0
 71
     0
 40
0.06
 41
0.06
280
     0
281
     0
  7
Standard
140
0.18
170
     2
 62
     0
 63
     7
283
     0
 90
      512
 91
        0
  1

274
    -2
284
     1
 64
     0
275
    -2
285
     1
 65
     0
276
    -2
286
     1
 66
     0
277
    -2
287
     1
 67
     0
278
    -2
288
     1
 68
     0
279
    -2
289
     1
 69
     0
  7
Standard
140
0.25
170
     5
 62
     0
 63
     7
283
     0
 90
      512
 91
        0
  1

274
    -2
284
     1
 64
     0
275
    -2
285
     1
 65
     0
276
    -2
286
     1
 66
     0
277
    -2
287
     1
 67
     0
278
    -2
288
     1
 68
     0
279
    -2
289
     1
 69
     0
  7
Standard
140
0.18
170
     5
 62
     0
 63
     7
283
     0
 90
      512
 91
        0
  1

274
    -2
284
     1
 64
     0
275
    -2
285
     1
 65
     0
276
    -2
286
     1
 66
     0
277
    -2
287
     1
 67
     0
278
    -2
288
     1
 68
     0
279
    -2
289
     1
 69
     0
  0
VISUALSTYLE
  5
2F
102
{ACAD_REACTORS
330
2A
102
}
330
2A
100
AcDbVisualStyle
  2

 70
     4
177
     3
291
     0
 70
    58
 90
        0
176
     1
 90
        2
176
     1
 90
        0
176
     1
 90
        0
176
     1
 40
0.6
176
     1
 40
30.0
176
     1
 62
     7
420
 16777215
176
     1
 90
        1
176
     1
 90
        4
176
     1
 62
     7
176
     1
 62
   257
176
     1
 90
        1
176
     1
 90
        1
176
     1
 40
1.0
176
     1
 90
        0
176
     1
 62
   257
176
     1
 40
1.0
176
     1
 90
        1
176
     1
 90
        6
176
     1
 90
        2
176
     1
 62
     7
176
     1
 90
        5
176
     1
 90
        0
176
     1
 90
        0
176
     1
290
     0
176
     1
 90
        1
176
     1
 40
0.0
176
     1
 90
        0
176
     1
290
     1
176
     1
290
     1
176
     1
290
     0
176
     1
290
     0
176
     1
290
     0
176
     1
290
     0
176
     1
290
     0
176
     1
290
     0
176
     1
290
     0
176
     1
 90
       50
176
     1
 40
0.0
176
     1
 40
1.0
176
     1
 90
        0
176
     1
 62
    18
420
        0
176
     1
 90
       50
176
     1
 90
        3
176
     1
 62
     5
420
      255
176
     1
290
     0
176
     1
 90
       50
176
     1
 90
       50
176
     1
 90
       50
176
     1
290
     0
176
     1
 90
       50
176
     1
 62
   256
176
     0
 40
1.0
176
     0
 90
        2
176
     1
  1
strokes_ogs.tif
176
     1
290
     0
176
     1
 40
1.0
176
     1
 40
1.0
176
     1
  0
VISUALSTYLE
  5
31
102
{ACAD_REACTORS
330
2A
102
}
330
2A
100
AcDbVisualStyle
  2

 70
     6
177
     3
291
     0
 70
    58
 90
        1
176
     1
 90
        2
176
     1
 90
        2
176
     1
 90
        0
176
     1
 40
0.6
176
     1
 40
30.0
176
     1
 62
     7
420
 16777215
176
     1
 90
        2
176
     1
 90
        2
176
     1
 62
     7
176
     1
 62
   257
176
     1
 90
        2
176
     1
 90
        1
176
     1
 40
40.0
176
     1
 90
        0
176
     1
 62
   257
176
     1
 40
1.0
176
     1
 90
        1
176
     1
 90
        6
176
     1
 90
        2
176
     1
 62
     7
176
     1
 90
        3
176
     1
 90
        0
176
     1
 90
        0
176
     1
290
     0
176
     1
 90
        1
176
     1
 40
0.0
176
     1
 90
        0
176
     1
290
     0
176
     1
290
     1
176
     1
290
     1
176
     1
290
     0
176
     1
290
     0
176
     1
290
     0
176
     1
290
     0
176
     1
290
     0
176
     1
290
     0
176
     1
 90
       50
176
     1
 40
0.0
176
     1
 40
1.0
176
     1
 90
        0
176
     1
 62
    18
420
        0
176
     1
 90
       50
176
     1
 90
        3
176
     1
 62
     5
420
      255
176
     1
290
     0
176
     1
 90
       50
176
     1
 90
       50
176
     1
 90
       50
176
     1
290
     0
176
     1
 90
       50
176
     1
 62
   256
176
     0
 40
1.0
176
     0
 90
        2
176
     1
  1
strokes_ogs.tif
176
     1
290
     0
176
     1
 40
1.0
176
     1
 40
1.0
176
     1
  0
VISUALSTYLE
  5
30
102
{ACAD_REACTORS
330
2A
102
}
330
2A
100
AcDbVisualStyle
  2

 70
     5
177
     3
291
     0
 70
    58
 90
        0
176
     1
 90
        2
176
     1
 90
        0
176
     1
 90
        0
176
     1
 40
0.6
176
     1
 40
30.0
176
     1
 62
     7
420
 16777215
176
     1
 90
        1
176
     1
 90
        4
176
     1
 62
     7
176
     1
 62
   257
176
     1
 90
        1
176
     1
 90
        1
176
     1
 40
1.0
176
     1
 90
        0
176
     1
 62
   257
176
     1
 40
1.0
176
     1
 90
        1
176
     1
 90
        6
176
     1
 90
        2
176
     1
 62
     7
176
     1
 90
        5
176
     1
 90
        0
176
     1
 90
        0
176
     1
290
     0
176
     1
 90
        1
176
     1
 40
0.0
176
     1
 90
        0
176
     1
290
     0
176
     1
290
     1
176
     1
290
     1
176
     1
290
     0
176
     1
290
     0
176
     1
290
     0
176
     1
290
     0
176
     1
290
     0
176
     1
290
     0
176
     1
 90
       50
176
     1
 40
0.0
176
     1
 40
1.0
176
     1
 90
        0
176
     1
 62
    18
420
        0
176
     1
 90
       50
176
     1
 90
        3
176
     1
 62
     5
420
      255
176
     1
290
     0
176
     1
 90
       50
176
     1
 90
       50
176
     1
 90
       50
176
     1
290
     0
176
     1
 90
       50
176
     1
 62
   256
176
     0
 40
1.0
176
     0
 90
        2
176
     1
  1
strokes_ogs.tif
176
     1
290
     0
176
     1
 40
1.0
176
     1
 40
1.0
176
     1
  0
VISUALSTYLE
  5
32
102
{ACAD_REACTORS
330
2A
102
}
330
2A
100
AcDbVisualStyle
  2

 70
     7
177
     3
291
     1
 70
    58
 90
        1
176
     1
 90
        0
176
     1
 90
        1
176
     1
 90
        0
176
     1
 40
0.6
176
     1
 40
30.0
176
     1
 62
     7
420
 16777215
176
     1
 90
        0
176
     1
 90
        4
176
     1
 62
     7
176
     1
 62
   257
176
     1
 90
        1
176
     1
 90
        1
176
     1
 40
1.0
176
     1
 90
        8
176
     1
 62
     7
176
     1
 40
1.0
176
     1
 90
        1
176
     1
 90
        6
176
     1
 90
        2
176
     1
 62
     7
176
     1
 90
        5
176
     1
 90
        0
176
     1
 90
        0
176
     1
290
     0
176
     1
 90
        1
176
     1
 40
0.0
176
     1
 90
        0
176
     1
290
     0
176
     1
290
     1
176
     1
290
     1
176
     1
290
     0
176
     1
290
     0
176
     1
290
     0
176
     1
290
     0
176
     1
290
     0
176
     1
290
     0
176
     1
 90
       50
176
     1
 40
0.0
176
     1
 40
1.0
176
     1
 90
        0
176
     1
 62
    18
420
        0
176
     1
 90
       50
176
     1
 90
        3
176
     1
 62
     5
420
      255
176
     1
290
     0
176
     1
 90
       50
176
     1
 90
       50
176
     1
 90
       50
176
     1
290
     0
176
     1
 90
       50
176
     1
 62
   256
176
     0
 40
1.0
176
     0
 90
        2
176
     1
  1
strokes_ogs.tif
176
     1
290
     0
176
     1
 40
1.0
176
     1
 40
1.0
176
     1
  0
VISUALSTYLE
  5
36
102
{ACAD_REACTORS
330
2A
102
}
330
2A
100
AcDbVisualStyle
  2

 70
    12
177
     3
291
     1
 70
    58
 90
        2
176
     1
 90
        2
176
     1
 90
        0
176
     1
 90
        0
176
     1
 40
0.6
176
     1
 40
30.0
176
     1
 62
     7
420
 16777215
176
     1
 90
        1
176
     1
 90
        4
176
     1
 62
     7
176
     1
 62
   257
176
     1
 90
        1
176
     1
 90
        1
176
     1
 40
1.0
176
     1
 90
        8
176
     1
 62
     7
176
     1
 40
1.0
176
     1
 90
        1
176
     1
 90
        6
176
     1
 90
        2
176
     1
 62
     7
176
     1
 90
        5
176
     1
 90
        0
176
     1
 90
        0
176
     1
290
     0
176
     1
 90
        1
176
     1
 40
50.0
176
     1
 90
        0
176
     1
290
     0
176
     1
290
     1
176
     1
290
     1
176
     1
290
     0
176
     1
290
     0
176
     1
290
     0
176
     1
290
     0
176
     1
290
     0
176
     1
290
     0
176
     1
 90
       50
176
     1
 40
0.0
176
     1
 40
1.0
176
     1
 90
        0
176
     1
 62
    18
420
        0
176
     1
 90
       50
176
     1
 90
        3
176
     1
 62
     5
420
      255
176
     1
290
     0
176
     1
 90
       50
176
     1
 90
       50
176
     1
 90
       50
176
     1
290
     0
176
     1
 90
       50
176
     1
 62
   256
176
     0
 40
1.0
176
     0
 90
        2
176
     1
  1
strokes_ogs.tif
176
     1
290
     0
176
     1
 40
1.0
176
     1
 40
1.0
176
     1
  0
VISUALSTYLE
  5
3A
102
{ACAD_REACTORS
330
2A
102
}
330
2A
100
AcDbVisualStyle
  2

 70
    16
177
     3
291
     1
 70
    58
 90
        2
176
     1
 90
        2
176
     1
 90
        3
176
     1
 90
        0
176
     1
 40
0.6
176
     1
 40
30.0
176
     1
 62
     8
420
  8421504
176
     1
 90
        1
176
     1
 90
        4
176
     1
 62
     7
176
     1
 62
   257
176
     1
 90
        1
176
     1
 90
        1
176
     1
 40
1.0
176
     1
 90
        8
176
     1
 62
     8
420
  8421504
176
     1
 40
1.0
176
     1
 90
        1
176
     1
 90
        6
176
     1
 90
        2
176
     1
 62
     7
176
     1
 90
        5
176
     1
 90
        0
176
     1
 90
        0
176
     1
290
     0
176
     1
 90
        1
176
     1
 40
0.0
176
     1
 90
        0
176
     1
290
     0
176
     1
290
     1
176
     1
290
     1
176
     1
290
     0
176
     1
290
     0
176
     1
290
     0
176
     1
290
     0
176
     1
290
     0
176
     1
290
     0
176
     1
 90
       50
176
     1
 40
0.0
176
     1
 40
1.0
176
     1
 90
        0
176
     1
 62
    18
420
        0
176
     1
 90
       50
176
     1
 90
        3
176
     1
 62
     5
420
      255
176
     1
290
     0
176
     1
 90
       50
176
     1
 90
       50
176
     1
 90
       50
176
     1
290
     0
176
     1
 90
       50
176
     1
 62
   256
176
     0
 40
1.0
176
     0
 90
        2
176
     1
  1
strokes_ogs.tif
176
     1
290
     0
176
     1
 40
1.0
176
     1
 40
1.0
176
     1
  0
VISUALSTYLE
  5
34
102
{ACAD_REACTORS
330
2A
102
}
330
2A
100
AcDbVisualStyle
  2

 70
     9
177
     3
291
     0
 70
    58
 90
        3
176
     1
 90
        2
176
     1
 90
        0
176
     1
 90
        0
176
     1
 40
0.6
176
     1
 40
30.0
176
     1
 62
     7
420
 16777215
176
     1
 90
        2
176
     1
 90
        2
176
     1
 62
     7
176
     1
 62
   257
176
     1
 90
        1
176
     1
 90
        1
176
     1
 40
40.0
176
     1
 90
        8
176
     1
 62
     7
176
     1
 40
1.0
176
     1
 90
        1
176
     1
 90
        6
176
     1
 90
        2
176
     1
 62
     7
176
     1
 90
        3
176
     1
 90
        0
176
     1
 90
        0
176
     1
290
     0
176
     1
 90
        1
176
     1
 40
0.0
176
     1
 90
        0
176
     1
290
     0
176
     1
290
     1
176
     1
290
     1
176
     1
290
     0
176
     1
290
     0
176
     1
290
     0
176
     1
290
     0
176
     1
290
     0
176
     1
290
     0
176
     1
 90
       50
176
     1
 40
0.0
176
     1
 40
1.0
176
     1
 90
        0
176
     1
 62
    18
420
        0
176
     1
 90
       50
176
     1
 90
        3
176
     1
 62
     5
420
      255
176
     1
290
     0
176
     1
 90
       50
176
     1
 90
       50
176
     1
 90
       50
176
     1
290
     0
176
     1
 90
       50
176
     1
 62
   256
176
     0
 40
1.0
176
     0
 90
        2
176
     1
  1
strokes_ogs.tif
176
     1
290
     0
176
     1
 40
1.0
176
     1
 40
1.0
176
     1
  0
VISUALSTYLE
  5
35
102
{ACAD_REACTORS
330
2A
102
}
330
2A
100
AcDbVisualStyle
  2

 70
    11
177
     3
291
     1
 70
    58
 90
        2
176
     1
 90
        2
176
     1
 90
        0
176
     1
 90
        0
176
     1
 40
0.6
176
     1
 40
30.0
176
     1
 62
     7
420
 16777215
176
     1
 90
        1
176
     1
 90
        4
176
     1
 62
     7
176
     1
 62
   257
176
     1
 90
        1
176
     1
 90
        1
176
     1
 40
1.0
176
     1
 90
        8
176
     1
 62
     7
176
     1
 40
1.0
176
     1
 90
        1
176
     1
 90
        6
176
     1
 90
        2
176
     1
 62
     7
176
     1
 90
        5
176
     1
 90
        0
176
     1
 90
        0
176
     1
290
     0
176
     1
 90
        1
176
     1
 40
-50.0
176
     1
 90
        0
176
     1
290
     0
176
     1
290
     1
176
     1
290
     1
176
     1
290
     0
176
     1
290
     0
176
     1
290
     0
176
     1
290
     0
176
     1
290
     0
176
     1
290
     0
176
     1
 90
       50
176
     1
 40
0.0
176
     1
 40
1.0
176
     1
 90
        0
176
     1
 62
    18
420
        0
176
     1
 90
       50
176
     1
 90
        3
176
     1
 62
     5
420
      255
176
     1
290
     0
176
     1
 90
       50
176
     1
 90
       50
176
     1
 90
       50
176
     1
290
     0
176
     1
 90
       50
176
     1
 62
   256
176
     0
 40
1.0
176
     0
 90
        2
176
     1
  1
strokes_ogs.tif
176
     1
290
     0
176
     1
 40
1.0
176
     1
 40
1.0
176
     1
  0
VISUALSTYLE
  5
11B
102
{ACAD_REACTORS
330
2A
102
}
330
2A
100
AcDbVisualStyle
  2
EdgeColorOff
 70
    22
177
     3
291
     1
 70
    58
 90
        2
176
     0
 90
        2
176
     0
 90
        0
176
     0
 90
        0
176
     0
 40
0.6
176
     0
 40
30.0
176
     0
 62
     7
420
 16777215
176
     0
 90
        1
176
     0
 90
        4
176
     0
 62
     7
176
     0
 62
   257
176
     0
 90
        1
176
     0
 90
        1
176
     0
 40
1.0
176
     0
 90
        8
176
     2
 62
     7
176
     0
 40
1.0
176
     0
 90
        1
176
     0
 90
        6
176
     0
 90
        2
176
     0
 62
     7
176
     0
 90
        5
176
     0
 90
        0
176
     0
 90
        0
176
     0
290
     0
176
     0
 90
        1
176
     0
 40
0.0
176
     0
 90
        0
176
     0
290
     0
176
     1
290
     1
176
     1
290
     1
176
     1
290
     0
176
     1
290
     0
176
     1
290
     0
176
     1
290
     0
176
     1
290
     0
176
     1
290
     0
176
     1
 90
       50
176
     0
 40
0.0
176
     0
 40
1.0
176
     0
 90
        0
176
     0
 62
    18
420
        0
176
     0
 90
       50
176
     0
 90
        3
176
     0
 62
     5
420
      255
176
     0
290
     0
176
     1
 90
       50
176
     0
 90
       50
176
     0
 90
       50
176
     0
290
     0
176
     1
 90
       50
176
     0
 62
   256
176
     0
 40
1.0
176
     0
 90
        2
176
     0
  1
strokes_ogs.tif
176
     0
290
     0
176
     1
 40
1.0
176
     0
 40
1.0
176
     0
  0
VISUALSTYLE
  5
39
102
{ACAD_REACTORS
330
2A
102
}
330
2A
100
AcDbVisualStyle
  2

 70
    15
177
     3
291
     1
 70
    58
 90
        2
176
     1
 90
        2
176
     1
 90
        0
176
     1
 90
        0
176
     1
 40
0.6
176
     1
 40
30.0
176
     1
 62
     7
420
 16777215
176
     1
 90
        1
176
     1
 90
        4
176
     1
 62
     7
176
     1
 62
   257
176
     1
 90
        1
176
     1
 90
        1
176
     1
 40
1.0
176
     1
 90
        8
176
     1
 62
     7
176
     1
 40
1.0
176
     1
 90
        1
176
     1
 90
        6
176
     1
 90
        2
176
     1
 62
     7
176
     1
 90
        5
176
     1
 90
        0
176
     1
 90
        0
176
     1
290
     0
176
     1
 90
        1
176
     1
 40
0.0
176
     1
 90
        0
176
     1
290
     0
176
     1
290
     1
176
     1
290
     1
176
     1
290
     0
176
     1
290
     0
176
     1
290
     0
176
     1
290
     0
176
     1
290
     0
176
     1
290
     0
176
     1
 90
       50
176
     1
 40
0.0
176
     1
 40
1.0
176
     1
 90
        0
176
     1
 62
    18
420
        0
176
     1
 90
       50
176
     1
 90
        3
176
     1
 62
     5
420
      255
176
     1
290
     0
176
     1
 90
       50
176
     1
 90
       50
176
     1
 90
       50
176
     1
290
     0
176
     1
 90
       50
176
     1
 62
   256
176
     0
 40
1.0
176
     0
 90
        2
176
     1
  1
strokes_ogs.tif
176
     1
290
     0
176
     1
 40
1.0
176
     1
 40
1.0
176
     1
  0
VISUALSTYLE
  5
2B
102
{ACAD_REACTORS
330
2A
102
}
330
2A
100
AcDbVisualStyle
  2

 70
     0
177
     3
291
     1
 70
    58
 90
        2
176
     1
 90
        1
176
     1
 90
        1
176
     1
 90
        2
176
     1
 40
0.6
176
     1
 40
30.0
176
     1
 62
     7
420
 16777215
176
     1
 90
        0
176
     1
 90
        4
176
     1
 62
     7
176
     1
 62
   257
176
     1
 90
        1
176
     1
 90
        1
176
     1
 40
1.0
176
     1
 90
        8
176
     1
 62
     7
176
     1
 40
1.0
176
     1
 90
        1
176
     1
 90
        6
176
     1
 90
        2
176
     1
 62
     7
176
     1
 90
        5
176
     1
 90
        0
176
     1
 90
        0
176
     1
290
     0
176
     1
 90
       13
176
     1
 40
0.0
176
     1
 90
        0
176
     1
290
     0
176
     1
290
     1
176
     1
290
     1
176
     1
290
     0
176
     1
290
     0
176
     1
290
     0
176
     1
290
     0
176
     1
290
     0
176
     1
290
     0
176
     1
 90
       50
176
     1
 40
0.0
176
     1
 40
1.0
176
     1
 90
        0
176
     1
 62
    18
420
        0
176
     1
 90
       50
176
     1
 90
        3
176
     1
 62
     5
420
      255
176
     1
290
     0
176
     1
 90
       50
176
     1
 90
       50
176
     1
 90
       50
176
     1
290
     0
176
     1
 90
       50
176
     1
 62
   256
176
     0
 40
1.0
176
     0
 90
        2
176
     1
  1
strokes_ogs.tif
176
     1
290
     0
176
     1
 40
1.0
176
     1
 40
1.0
176
     1
  0
VISUALSTYLE
  5
2C
102
{ACAD_REACTORS
330
2A
102
}
330
2A
100
AcDbVisualStyle
  2

 70
     1
177
     3
291
     1
 70
    58
 90
        2
176
     1
 90
        1
176
     1
 90
        1
176
     1
 90
        2
176
     1
 40
0.6
176
     1
 40
30.0
176
     1
 62
     7
420
 16777215
176
     1
 90
        1
176
     1
 90
        4
176
     1
 62
     7
176
     1
 62
   257
176
     1
 90
        1
176
     1
 90
        1
176
     1
 40
1.0
176
     1
 90
        0
176
     1
 62
   257
176
     1
 40
1.0
176
     1
 90
        1
176
     1
 90
        6
176
     1
 90
        2
176
     1
 62
     7
176
     1
 90
        5
176
     1
 90
        0
176
     1
 90
        0
176
     1
290
     0
176
     1
 90
       13
176
     1
 40
0.0
176
     1
 90
        0
176
     1
290
     0
176
     1
290
     1
176
     1
290
     1
176
     1
290
     0
176
     1
290
     0
176
     1
290
     0
176
     1
290
     0
176
     1
290
     0
176
     1
290
     0
176
     1
 90
       50
176
     1
 40
0.0
176
     1
 40
1.0
176
     1
 90
        0
176
     1
 62
    18
420
        0
176
     1
 90
       50
176
     1
 90
        3
176
     1
 62
     5
420
      255
176
     1
290
     0
176
     1
 90
       50
176
     1
 90
       50
176
     1
 90
       50
176
     1
290
     0
176
     1
 90
       50
176
     1
 62
   256
176
     0
 40
1.0
176
     0
 90
        2
176
     1
  1
strokes_ogs.tif
176
     1
290
     0
176
     1
 40
1.0
176
     1
 40
1.0
176
     1
  0
VISUALSTYLE
  5
2D
102
{ACAD_REACTORS
330
2A
102
}
330
2A
100
AcDbVisualStyle
  2

 70
     2
177
     3
291
     1
 70
    58
 90
        2
176
     1
 90
        2
176
     1
 90
        1
176
     1
 90
        2
176
     1
 40
0.6
176
     1
 40
30.0
176
     1
 62
     7
420
 16777215
176
     1
 90
        0
176
     1
 90
        4
176
     1
 62
     7
176
     1
 62
   257
176
     1
 90
        1
176
     1
 90
        1
176
     1
 40
1.0
176
     1
 90
        0
176
     1
 62
     7
176
     1
 40
1.0
176
     1
 90
        1
176
     1
 90
        6
176
     1
 90
        2
176
     1
 62
     7
176
     1
 90
        5
176
     1
 90
        0
176
     1
 90
        0
176
     1
290
     0
176
     1
 90
       13
176
     1
 40
0.0
176
     1
 90
        0
176
     1
290
     0
176
     1
290
     1
176
     1
290
     1
176
     1
290
     0
176
     1
290
     0
176
     1
290
     0
176
     1
290
     0
176
     1
290
     0
176
     1
290
     0
176
     1
 90
       50
176
     1
 40
0.0
176
     1
 40
1.0
176
     1
 90
        0
176
     1
 62
    18
420
        0
176
     1
 90
       50
176
     1
 90
        3
176
     1
 62
     5
420
      255
176
     1
290
     0
176
     1
 90
       50
176
     1
 90
       50
176
     1
 90
       50
176
     1
290
     0
176
     1
 90
       50
176
     1
 62
   256
176
     0
 40
1.0
176
     0
 90
        2
176
     1
  1
strokes_ogs.tif
176
     1
290
     0
176
     1
 40
1.0
176
     1
 40
1.0
176
     1
  0
VISUALSTYLE
  5
2E
102
{ACAD_REACTORS
330
2A
102
}
330
2A
100
AcDbVisualStyle
  2

 70
     3
177
     3
291
     1
 70
    58
 90
        2
176
     1
 90
        2
176
     1
 90
        1
176
     1
 90
        2
176
     1
 40
0.6
176
     1
 40
30.0
176
     1
 62
     7
420
 16777215
176
     1
 90
        1
176
     1
 90
        4
176
     1
 62
     7
176
     1
 62
   257
176
     1
 90
        1
176
     1
 90
        1
176
     1
 40
1.0
176
     1
 90
        0
176
     1
 62
   257
176
     1
 40
1.0
176
     1
 90
        1
176
     1
 90
        6
176
     1
 90
        2
176
     1
 62
     7
176
     1
 90
        5
176
     1
 90
        0
176
     1
 90
        0
176
     1
290
     0
176
     1
 90
       13
176
     1
 40
0.0
176
     1
 90
        0
176
     1
290
     0
176
     1
290
     1
176
     1
290
     1
176
     1
290
     0
176
     1
290
     0
176
     1
290
     0
176
     1
290
     0
176
     1
290
     0
176
     1
290
     0
176
     1
 90
       50
176
     1
 40
0.0
176
     1
 40
1.0
176
     1
 90
        0
176
     1
 62
    18
420
        0
176
     1
 90
       50
176
     1
 90
        3
176
     1
 62
     5
420
      255
176
     1
290
     0
176
     1
 90
       50
176
     1
 90
       50
176
     1
 90
       50
176
     1
290
     0
176
     1
 90
       50
176
     1
 62
   256
176
     0
 40
1.0
176
     0
 90
        2
176
     1
  1
strokes_ogs.tif
176
     1
290
     0
176
     1
 40
1.0
176
     1
 40
1.0
176
     1
  0
VISUALSTYLE
  5
113
102
{ACAD_REACTORS
330
2A
102
}
330
2A
100
AcDbVisualStyle
  2
Hidden
 70
     6
177
     3
291
     0
 70
    58
 90
        1
176
     1
 90
        2
176
     1
 90
        2
176
     1
 90
        0
176
     1
 40
0.6
176
     1
 40
30.0
176
     1
 62
     7
420
 16777215
176
     1
 90
        2
176
     1
 90
        2
176
     1
 62
     7
176
     1
 62
   257
176
     1
 90
        2
176
     1
 90
        1
176
     1
 40
40.0
176
     1
 90
        0
176
     1
 62
   257
176
     1
 40
1.0
176
     1
 90
        1
176
     1
 90
        6
176
     1
 90
        2
176
     1
 62
     7
176
     1
 90
        3
176
     1
 90
        0
176
     1
 90
        0
176
     1
290
     0
176
     1
 90
        1
176
     1
 40
0.0
176
     1
 90
        0
176
     1
290
     0
176
     1
290
     1
176
     1
290
     1
176
     1
290
     0
176
     1
290
     0
176
     1
290
     0
176
     1
290
     0
176
     1
290
     0
176
     1
290
     0
176
     1
 90
       50
176
     1
 40
0.0
176
     1
 40
1.0
176
     1
 90
        0
176
     1
 62
    18
420
        0
176
     1
 90
       50
176
     1
 90
        3
176
     1
 62
     5
420
      255
176
     1
290
     0
176
     1
 90
       50
176
     1
 90
       50
176
     1
 90
       50
176
     1
290
     0
176
     1
 90
       50
176
     1
 62
   256
176
     0
 40
1.0
176
     0
 90
        2
176
     1
  1
strokes_ogs.tif
176
     1
290
     0
176
     1
 40
1.0
176
     1
 40
1.0
176
     1
  0
VISUALSTYLE
  5
119
102
{ACAD_REACTORS
330
2A
102
}
330
2A
100
AcDbVisualStyle
  2
JitterOff
 70
    20
177
     3
291
     1
 70
    58
 90
        2
176
     0
 90
        2
176
     0
 90
        0
176
     0
 90
        0
176
     0
 40
0.6
176
     0
 40
30.0
176
     0
 62
     7
420
 16777215
176
     0
 90
        1
176
     0
 90
        4
176
     0
 62
     7
176
     0
 62
   257
176
     0
 90
        1
176
     0
 90
        1
176
     0
 40
1.0
176
     0
 90
       10
176
     2
 62
     7
176
     0
 40
1.0
176
     0
 90
        1
176
     0
 90
        6
176
     0
 90
        2
176
     0
 62
     7
176
     0
 90
        5
176
     0
 90
        0
176
     0
 90
        0
176
     0
290
     0
176
     0
 90
        1
176
     0
 40
0.0
176
     0
 90
        0
176
     0
290
     0
176
     1
290
     1
176
     1
290
     1
176
     1
290
     0
176
     1
290
     0
176
     1
290
     0
176
     1
290
     0
176
     1
290
     0
176
     1
290
     0
176
     1
 90
       50
176
     0
 40
0.0
176
     0
 40
1.0
176
     0
 90
        0
176
     0
 62
    18
420
        0
176
     0
 90
       50
176
     0
 90
        3
176
     0
 62
     5
420
      255
176
     0
290
     0
176
     1
 90
       50
176
     0
 90
       50
176
     0
 90
       50
176
     0
290
     0
176
     1
 90
       50
176
     0
 62
   256
176
     0
 40
1.0
176
     0
 90
        2
176
     0
  1
strokes_ogs.tif
176
     0
290
     0
176
     1
 40
1.0
176
     0
 40
1.0
176
     0
  0
VISUALSTYLE
  5
38
102
{ACAD_REACTORS
330
2A
102
}
330
2A
100
AcDbVisualStyle
  2

 70
    14
177
     3
291
     1
 70
    58
 90
        2
176
     1
 90
        2
176
     1
 90
        0
176
     1
 90
        0
176
     1
 40
0.6
176
     1
 40
30.0
176
     1
 62
     7
420
 16777215
176
     1
 90
        1
176
     1
 90
        4
176
     1
 62
     7
176
     1
 62
   257
176
     1
 90
        7
176
     1
 90
        7
176
     1
 40
1.0
176
     1
 90
        8
176
     1
 62
     7
176
     1
 40
1.0
176
     1
 90
        1
176
     1
 90
        6
176
     1
 90
        2
176
     1
 62
     7
176
     1
 90
        5
176
     1
 90
        0
176
     1
 90
        0
176
     1
290
     0
176
     1
 90
        1
176
     1
 40
0.0
176
     1
 90
        0
176
     1
290
     0
176
     1
290
     1
176
     1
290
     1
176
     1
290
     0
176
     1
290
     0
176
     1
290
     0
176
     1
290
     0
176
     1
290
     0
176
     1
290
     0
176
     1
 90
       50
176
     1
 40
0.0
176
     1
 40
1.0
176
     1
 90
        0
176
     1
 62
    18
420
        0
176
     1
 90
       50
176
     1
 90
        3
176
     1
 62
     5
420
      255
176
     1
290
     0
176
     1
 90
       50
176
     1
 90
       50
176
     1
 90
       50
176
     1
290
     0
176
     1
 90
       50
176
     1
 62
   256
176
     0
 40
1.0
176
     0
 90
        2
176
     1
  1
strokes_ogs.tif
176
     1
290
     0
176
     1
 40
1.0
176
     1
 40
1.0
176
     1
  0
VISUALSTYLE
  5
11A
102
{ACAD_REACTORS
330
2A
102
}
330
2A
100
AcDbVisualStyle
  2
OverhangOff
 70
    21
177
     3
291
     1
 70
    58
 90
        2
176
     0
 90
        2
176
     0
 90
        0
176
     0
 90
        0
176
     0
 40
0.6
176
     0
 40
30.0
176
     0
 62
     7
420
 16777215
176
     0
 90
        1
176
     0
 90
        4
176
     0
 62
     7
176
     0
 62
   257
176
     0
 90
        1
176
     0
 90
        1
176
     0
 40
1.0
176
     0
 90
        9
176
     2
 62
     7
176
     0
 40
1.0
176
     0
 90
        1
176
     0
 90
        6
176
     0
 90
        2
176
     0
 62
     7
176
     0
 90
        5
176
     0
 90
        0
176
     0
 90
        0
176
     0
290
     0
176
     0
 90
        1
176
     0
 40
0.0
176
     0
 90
        0
176
     0
290
     0
176
     1
290
     1
176
     1
290
     1
176
     1
290
     0
176
     1
290
     0
176
     1
290
     0
176
     1
290
     0
176
     1
290
     0
176
     1
290
     0
176
     1
 90
       50
176
     0
 40
0.0
176
     0
 40
1.0
176
     0
 90
        0
176
     0
 62
    18
420
        0
176
     0
 90
       50
176
     0
 90
        3
176
     0
 62
     5
420
      255
176
     0
290
     0
176
     1
 90
       50
176
     0
 90
       50
176
     0
 90
       50
176
     0
290
     0
176
     1
 90
       50
176
     0
 62
   256
176
     0
 40
1.0
176
     0
 90
        2
176
     0
  1
strokes_ogs.tif
176
     0
290
     0
176
     1
 40
1.0
176
     0
 40
1.0
176
     0
  0
VISUALSTYLE
  5
33
102
{ACAD_REACTORS
330
2A
102
}
330
2A
100
AcDbVisualStyle
  2

 70
     8
177
     3
291
     0
 70
    58
 90
        2
176
     1
 90
        2
176
     1
 90
        0
176
     1
 90
        0
176
     1
 40
0.6
176
     1
 40
30.0
176
     1
 62
     7
420
 16777215
176
     1
 90
        1
176
     1
 90
        0
176
     1
 62
     7
176
     1
 62
   257
176
     1
 90
        1
176
     1
 90
        1
176
     1
 40
1.0
176
     1
 90
        8
176
     1
 62
     8
420
  7895160
176
     1
 40
1.0
176
     1
 90
        1
176
     1
 90
        6
176
     1
 90
        2
176
     1
 62
     7
176
     1
 90
        5
176
     1
 90
        0
176
     1
 90
        0
176
     1
290
     0
176
     1
 90
       13
176
     1
 40
0.0
176
     1
 90
        0
176
     1
290
     0
176
     1
290
     1
176
     1
290
     1
176
     1
290
     0
176
     1
290
     0
176
     1
290
     0
176
     1
290
     0
176
     1
290
     0
176
     1
290
     0
176
     1
 90
       50
176
     1
 40
0.0
176
     1
 40
1.0
176
     1
 90
        0
176
     1
 62
    18
420
        0
176
     1
 90
       50
176
     1
 90
        3
176
     1
 62
     5
420
      255
176
     1
290
     0
176
     1
 90
       50
176
     1
 90
       50
176
     1
 90
       50
176
     1
290
     0
176
     1
 90
       50
176
     1
 62
   256
176
     0
 40
1.0
176
     0
 90
        2
176
     1
  1
strokes_ogs.tif
176
     1
290
     0
176
     1
 40
1.0
176
     1
 40
1.0
176
     1
  0
VISUALSTYLE
  5
118
102
{ACAD_REACTORS
330
2A
102
}
330
2A
100
AcDbVisualStyle
  2
Shaded
 70
    27
177
     3
291
     0
 70
    58
 90
        2
176
     1
 90
        2
176
     1
 90
        1
176
     1
 90
        2
176
     1
 40
0.6
176
     1
 40
30.0
176
     1
 62
     7
420
 16777215
176
     1
 90
        0
176
     1
 90
        4
176
     1
 62
     7
176
     1
 62
   257
176
     1
 90
        1
176
     1
 90
        1
176
     1
 40
1.0
176
     1
 90
        8
176
     1
 62
   257
176
     1
 40
1.0
176
     1
 90
        1
176
     1
 90
        6
176
     1
 90
        2
176
     1
 62
     8
420
  7895160
176
     1
 90
        3
176
     1
 90
        0
176
     1
 90
        0
176
     1
290
     0
176
     1
 90
        5
176
     1
 40
0.0
176
     1
 90
        0
176
     1
290
     0
176
     1
290
     1
176
     1
290
     1
176
     1
290
     0
176
     1
290
     0
176
     1
290
     0
176
     1
290
     0
176
     1
290
     0
176
     1
290
     0
176
     1
 90
       50
176
     1
 40
0.0
176
     1
 40
1.0
176
     1
 90
        0
176
     1
 62
    18
420
        0
176
     1
 90
       50
176
     1
 90
        3
176
     1
 62
     5
420
      255
176
     1
290
     0
176
     1
 90
       50
176
     1
 90
       50
176
     1
 90
       50
176
     1
290
     0
176
     1
 90
       50
176
     1
 62
   256
176
     0
 40
1.0
176
     0
 90
        2
176
     1
  1
strokes_ogs.tif
176
     1
290
     0
176
     1
 40
1.0
176
     1
 40
1.0
176
     1
  0
VISUALSTYLE
  5
117
102
{ACAD_REACTORS
330
2A
102
}
330
2A
100
AcDbVisualStyle
  2
Shaded with edges
 70
    26
177
     3
291
     0
 70
    58
 90
        2
176
     1
 90
        2
176
     1
 90
        1
176
     1
 90
        2
176
     1
 40
0.6
176
     1
 40
30.0
176
     1
 62
     7
420
 16777215
176
     1
 90
        1
176
     1
 90
        2
176
     1
 62
     7
176
     1
 62
   257
176
     1
 90
        2
176
     1
 90
        1
176
     1
 40
1.0
176
     1
 90
        8
176
     1
 62
   257
176
     1
 40
1.0
176
     1
 90
        1
176
     1
 90
        6
176
     1
 90
        2
176
     1
 62
     7
176
     1
 90
        3
176
     1
 90
        0
176
     1
 90
        0
176
     1
290
     0
176
     1
 90
        5
176
     1
 40
0.0
176
     1
 90
        0
176
     1
290
     0
176
     1
290
     1
176
     1
290
     1
176
     1
290
     0
176
     1
290
     0
176
     1
290
     0
176
     1
290
     0
176
     1
290
     0
176
     1
290
     0
176
     1
 90
       50
176
     1
 40
0.0
176
     1
 40
1.0
176
     1
 90
        0
176
     1
 62
    18
420
        0
176
     1
 90
       50
176
     1
 90
        3
176
     1
 62
     5
420
      255
176
     1
290
     0
176
     1
 90
       50
176
     1
 90
       50
176
     1
 90
       50
176
     1
290
     0
176
     1
 90
       50
176
     1
 62
   256
176
     0
 40
1.0
176
     0
 90
        2
176
     1
  1
strokes_ogs.tif
176
     1
290
     0
176
     1
 40
1.0
176
     1
 40
1.0
176
     1
  0
VISUALSTYLE
  5
114
102
{ACAD_REACTORS
330
2A
102
}
330
2A
100
AcDbVisualStyle
  2
Shades of Gray
 70
    23
177
     3
291
     0
 70
    58
 90
        2
176
     1
 90
        2
176
     1
 90
        3
176
     1
 90
        0
176
     1
 40
0.6
176
     1
 40
30.0
176
     1
 62
     7
420
 16777215
176
     1
 90
        2
176
     1
 90
        2
176
     1
 62
     7
176
     1
 62
     7
176
     1
 90
        1
176
     1
 90
        1
176
     1
 40
40.0
176
     1
 90
        8
176
     1
 62
     7
176
     1
 40
1.0
176
     1
 90
        1
176
     1
 90
        6
176
     1
 90
        2
176
     1
 62
     7
176
     1
 90
        3
176
     1
 90
        0
176
     1
 90
        0
176
     1
290
     0
176
     1
 90
        1
176
     1
 40
0.0
176
     1
 90
        0
176
     1
290
     0
176
     1
290
     1
176
     1
290
     1
176
     1
290
     0
176
     1
290
     0
176
     1
290
     0
176
     1
290
     0
176
     1
290
     0
176
     1
290
     0
176
     1
 90
       50
176
     1
 40
0.0
176
     1
 40
1.0
176
     1
 90
        0
176
     1
 62
    18
420
        0
176
     1
 90
       50
176
     1
 90
        3
176
     1
 62
     5
420
      255
176
     1
290
     0
176
     1
 90
       50
176
     1
 90
       50
176
     1
 90
       50
176
     1
290
     0
176
     1
 90
       50
176
     1
 62
   256
176
     0
 40
1.0
176
     0
 90
        2
176
     1
  1
strokes_ogs.tif
176
     1
290
     0
176
     1
 40
1.0
176
     1
 40
1.0
176
     1
  0
VISUALSTYLE
  5
115
102
{ACAD_REACTORS
330
2A
102
}
330
2A
100
AcDbVisualStyle
  2
Sketchy
 70
    24
177
     3
291
     0
 70
    58
 90
        1
176
     1
 90
        2
176
     1
 90
        2
176
     1
 90
        0
176
     1
 40
0.6
176
     1
 40
30.0
176
     1
 62
     7
420
 16777215
176
     1
 90
        2
176
     1
 90
        2
176
     1
 62
     7
176
     1
 62
     7
176
     1
 90
        1
176
     1
 90
        1
176
     1
 40
40.0
176
     1
 90
       11
176
     1
 62
     7
176
     1
 40
1.0
176
     1
 90
        1
176
     1
 90
        6
176
     1
 90
        2
176
     1
 62
     7
176
     1
 90
        6
176
     1
 90
        0
176
     1
 90
        0
176
     1
290
     0
176
     1
 90
        1
176
     1
 40
0.0
176
     1
 90
        0
176
     1
290
     0
176
     1
290
     1
176
     1
290
     1
176
     1
290
     0
176
     1
290
     0
176
     1
290
     0
176
     1
290
     0
176
     1
290
     0
176
     1
290
     0
176
     1
 90
       50
176
     1
 40
0.0
176
     1
 40
1.0
176
     1
 90
        0
176
     1
 62
    18
420
        0
176
     1
 90
       50
176
     1
 90
        3
176
     1
 62
     5
420
      255
176
     1
290
     0
176
     1
 90
       50
176
     1
 90
       50
176
     1
 90
       50
176
     1
290
     0
176
     1
 90
       50
176
     1
 62
   256
176
     0
 40
1.0
176
     0
 90
        2
176
     1
  1
strokes_ogs.tif
176
     1
290
     0
176
     1
 40
1.0
176
     1
 40
1.0
176
     1
  0
VISUALSTYLE
  5
37
102
{ACAD_REACTORS
330
2A
102
}
330
2A
100
AcDbVisualStyle
  2

 70
    13
177
     3
291
     1
 70
    58
 90
        2
176
     1
 90
        2
176
     1
 90
        0
176
     1
 90
        0
176
     1
 40
0.6
176
     1
 40
30.0
176
     1
 62
     7
420
 16777215
176
     1
 90
        1
176
     1
 90
        4
176
     1
 62
     7
176
     1
 62
   257
176
     1
 90
        1
176
     1
 90
        1
176
     1
 40
1.0
176
     1
 90
       12
176
     1
 62
     7
176
     1
 40
1.0
176
     1
 90
        1
176
     1
 90
        6
176
     1
 90
        2
176
     1
 62
     7
176
     1
 90
        5
176
     1
 90
        0
176
     1
 90
        0
176
     1
290
     0
176
     1
 90
        1
176
     1
 40
0.0
176
     1
 90
        0
176
     1
290
     0
176
     1
290
     1
176
     1
290
     1
176
     1
290
     0
176
     1
290
     0
176
     1
290
     0
176
     1
290
     0
176
     1
290
     0
176
     1
290
     0
176
     1
 90
       50
176
     1
 40
0.0
176
     1
 40
1.0
176
     1
 90
        0
176
     1
 62
    18
420
        0
176
     1
 90
       50
176
     1
 90
        3
176
     1
 62
     5
420
      255
176
     1
290
     0
176
     1
 90
       50
176
     1
 90
       50
176
     1
 90
       50
176
     1
290
     0
176
     1
 90
       50
176
     1
 62
   256
176
     0
 40
1.0
176
     0
 90
        2
176
     1
  1
strokes_ogs.tif
176
     1
290
     0
176
     1
 40
1.0
176
     1
 40
1.0
176
     1
  0
VISUALSTYLE
  5
112
102
{ACAD_REACTORS
330
2A
102
}
330
2A
100
AcDbVisualStyle
  2
Wireframe
 70
     5
177
     3
291
     0
 70
    58
 90
        0
176
     1
 90
        2
176
     1
 90
        0
176
     1
 90
        0
176
     1
 40
0.6
176
     1
 40
30.0
176
     1
 62
     7
420
 16777215
176
     1
 90
        1
176
     1
 90
        4
176
     1
 62
     7
176
     1
 62
   257
176
     1
 90
        1
176
     1
 90
        1
176
     1
 40
1.0
176
     1
 90
        0
176
     1
 62
   257
176
     1
 40
1.0
176
     1
 90
        1
176
     1
 90
        6
176
     1
 90
        2
176
     1
 62
     7
176
     1
 90
        3
176
     1
 90
        0
176
     1
 90
        0
176
     1
290
     0
176
     1
 90
        1
176
     1
 40
0.0
176
     1
 90
        0
176
     1
290
     0
176
     1
290
     1
176
     1
290
     1
176
     1
290
     0
176
     1
290
     0
176
     1
290
     0
176
     1
290
     0
176
     1
290
     0
176
     1
290
     0
176
     1
 90
       50
176
     1
 40
0.0
176
     1
 40
1.0
176
     1
 90
        0
176
     1
 62
    18
420
        0
176
     1
 90
       50
176
     1
 90
        3
176
     1
 62
     5
420
      255
176
     1
290
     0
176
     1
 90
       50
176
     1
 90
       50
176
     1
 90
       50
176
     1
290
     0
176
     1
 90
       50
176
     1
 62
   256
176
     0
 40
1.0
176
     0
 90
        2
176
     1
  1
strokes_ogs.tif
176
     1
290
     0
176
     1
 40
1.0
176
     1
 40
1.0
176
     1
  0
VISUALSTYLE
  5
116
102
{ACAD_REACTORS
330
2A
102
}
330
2A
100
AcDbVisualStyle
  2
X-Ray
 70
    25
177
     3
291
     0
 70
    58
 90
        2
176
     1
 90
        2
176
     1
 90
        1
176
     1
 90
        1
176
     1
 40
0.5
176
     1
 40
30.0
176
     1
 62
     7
420
 16777215
176
     1
 90
        1
176
     1
 90
        0
176
     1
 62
     7
176
     1
 62
   257
176
     1
 90
        1
176
     1
 90
        1
176
     1
 40
1.0
176
     1
 90
        8
176
     1
 62
     7
176
     1
 40
1.0
176
     1
 90
        1
176
     1
 90
        6
176
     1
 90
        2
176
     1
 62
     7
176
     1
 90
        3
176
     1
 90
        0
176
     1
 90
        0
176
     1
290
     0
176
     1
 90
       13
176
     1
 40
0.0
176
     1
 90
        0
176
     1
290
     0
176
     1
290
     1
176
     1
290
     1
176
     1
290
     0
176
     1
290
     0
176
     1
290
     0
176
     1
290
     0
176
     1
290
     0
176
     1
290
     0
176
     1
 90
       50
176
     1
 40
0.0
176
     1
 40
1.0
176
     1
 90
        0
176
     1
 62
    18
420
        0
176
     1
 90
       50
176
     1
 90
        3
176
     1
 62
     5
420
      255
176
     1
290
     0
176
     1
 90
       50
176
     1
 90
       50
176
     1
 90
       50
176
     1
290
     0
176
     1
 90
       50
176
     1
 62
   256
176
     0
 40
1.0
176
     0
 90
        2
176
     1
  1
strokes_ogs.tif
176
     1
290
     0
176
     1
 40
1.0
176
     1
 40
1.0
176
     1
  0
DICTIONARYVAR
  5
14B
102
{ACAD_REACTORS
330
146
102
}
330
146
100
DictionaryVariables
280
     0
  1
1:1
  0
DICTIONARYVAR
  5
148
102
{ACAD_REACTORS
330
146
102
}
330
146
100
DictionaryVariables
280
     0
  1
STANDARD
  0
DICTIONARYVAR
  5
147
102
{ACAD_REACTORS
330
146
102
}
330
146
100
DictionaryVariables
280
     0
  1
STANDARD
  0
DICTIONARYVAR
  5
149
102
{ACAD_REACTORS
330
146
102
}
330
146
100
DictionaryVariables
280
     0
  1
Imperial24
  0
DICTIONARYVAR
  5
14A
102
{ACAD_REACTORS
330
146
102
}
330
146
100
DictionaryVariables
280
     0
  1
Imperial24
  0
DICTIONARYVAR
  5
14C
102
{ACAD_REACTORS
330
146
102
}
330
146
100
DictionaryVariables
280
     0
  1
1
  0
DICTIONARYVAR
  5
14D
102
{ACAD_REACTORS
330
146
102
}
330
146
100
DictionaryVariables
280
     0
  1
15
  0
DICTIONARY
  5
14F
330
11D
100
AcDbDictionary
280
     1
281
     1
  3
ACAD_ROUNDTRIP_2008_TABLESTYLE_CELLSTYLEMAP
360
150
  0
CELLSTYLEMAP
  5
150
102
{ACAD_REACTORS
330
14F
102
}
330
14F
100
AcDbCellStyleMap
 90
        3
300
CELLSTYLE
  1
TABLEFORMAT_BEGIN
 90
        5
170
     1
 91
        0
 92
    32768
 62
   257
 93
        1
300
CONTENTFORMAT
  1
CONTENTFORMAT_BEGIN
 90
        0
 91
        0
 92
      512
 93
        0
300

 40
0.0
140
1.0
 94
        5
 62
     0
340
11
144
0.25
309
CONTENTFORMAT_END
171
     0
 94
        0
309
TABLEFORMAT_END
  1
CELLSTYLE_BEGIN
 90
        1
 91
        1
300
_TITLE
309
CELLSTYLE_END
300
CELLSTYLE
  1
TABLEFORMAT_BEGIN
 90
        5
170
     1
 91
        0
 92
        0
 62
   257
 93
        1
300
CONTENTFORMAT
  1
CONTENTFORMAT_BEGIN
 90
        0
 91
        0
 92
      512
 93
        0
300

 40
0.0
140
1.0
 94
        5
 62
     0
340
11
144
0.18
309
CONTENTFORMAT_END
171
     0
 94
        0
309
TABLEFORMAT_END
  1
CELLSTYLE_BEGIN
 90
        2
 91
        1
300
_HEADER
309
CELLSTYLE_END
300
CELLSTYLE
  1
TABLEFORMAT_BEGIN
 90
        5
170
     1
 91
        0
 92
        0
 62
   257
 93
        1
300
CONTENTFORMAT
  1
CONTENTFORMAT_BEGIN
 90
        0
 91
        0
 92
      512
 93
        0
300

 40
0.0
140
1.0
 94
        2
 62
     0
340
11
144
0.18
309
CONTENTFORMAT_END
171
     0
 94
        0
309
TABLEFORMAT_END
  1
CELLSTYLE_BEGIN
 90
        3
 91
        2
300
_DATA
309
CELLSTYLE_END
  0
ENDSEC
  0
EOF
