  0
SECTION
  2
HEADER
  9
$ACADVER
  1
AC1024
  9
$ACADMAINTVER
 70
   205
  9
$DWGCODEPAGE
  3
ANSI_1252
  9
$LASTSAVEDBY
  1
LuisM
  9
$INSBASE
 10
0.0
 20
0.0
 30
0.0
  9
$EXTMIN
 10
2843.918732961387
 20
-1948.684308810766
 30
37.82653818818106
  9
$EXTMAX
 10
3819.907477607967
 20
-1328.413402389074
 30
37.82806404380603
  9
$LIMMIN
 10
0.0
 20
0.0
  9
$LIMMAX
 10
12.0
 20
9.0
  9
$ORTHOMODE
 70
     0
  9
$REGENMODE
 70
     1
  9
$FILLMODE
 70
     1
  9
$QTEXTMODE
 70
     0
  9
$MIRRTEXT
 70
     1
  9
$LTSCALE
 40
1.0
  9
$ATTMODE
 70
     1
  9
$TEXTSIZE
 40
0.2
  9
$TRACEWID
 40
0.05
  9
$TEXTSTYLE
  7
Standard
  9
$CLAYER
  8
Default
  9
$CELTYPE
  6
ByLayer
  9
$CECOLOR
 62
   256
  9
$CELTSCALE
 40
1.0
  9
$DISPSILH
 70
     0
  9
$DIMSCALE
 40
1.0
  9
$DIMASZ
 40
0.18
  9
$DIMEXO
 40
0.0625
  9
$DIMDLI
 40
0.38
  9
$DIMRND
 40
0.0
  9
$DIMDLE
 40
0.0
  9
$DIMEXE
 40
0.18
  9
$DIMTP
 40
0.0
  9
$DIMTM
 40
0.0
  9
$DIMTXT
 40
0.18
  9
$DIMCEN
 40
0.09
  9
$DIMTSZ
 40
0.0
  9
$DIMTOL
 70
     0
  9
$DIMLIM
 70
     0
  9
$DIMTIH
 70
     1
  9
$DIMTOH
 70
     1
  9
$DIMSE1
 70
     0
  9
$DIMSE2
 70
     0
  9
$DIMTAD
 70
     0
  9
$DIMZIN
 70
     0
  9
$DIMBLK
  1

  9
$DIMASO
 70
     1
  9
$DIMSHO
 70
     1
  9
$DIMPOST
  1

  9
$DIMAPOST
  1

  9
$DIMALT
 70
     0
  9
$DIMALTD
 70
     2
  9
$DIMALTF
 40
25.4
  9
$DIMLFAC
 40
1.0
  9
$DIMTOFL
 70
     0
  9
$DIMTVP
 40
0.0
  9
$DIMTIX
 70
     0
  9
$DIMSOXD
 70
     0
  9
$DIMSAH
 70
     0
  9
$DIMBLK1
  1

  9
$DIMBLK2
  1

  9
$DIMSTYLE
  2
STANDARD_ACAD
  9
$DIMCLRD
 70
     0
  9
$DIMCLRE
 70
     0
  9
$DIMCLRT
 70
     0
  9
$DIMTFAC
 40
1.0
  9
$DIMGAP
 40
0.09
  9
$DIMJUST
 70
     0
  9
$DIMSD1
 70
     0
  9
$DIMSD2
 70
     0
  9
$DIMTOLJ
 70
     1
  9
$DIMTZIN
 70
     0
  9
$DIMALTZ
 70
     0
  9
$DIMALTTZ
 70
     0
  9
$DIMUPT
 70
     0
  9
$DIMDEC
 70
     4
  9
$DIMTDEC
 70
     4
  9
$DIMALTU
 70
     2
  9
$DIMALTTD
 70
     2
  9
$DIMTXSTY
  7
Standard
  9
$DIMAUNIT
 70
     0
  9
$DIMADEC
 70
     0
  9
$DIMALTRND
 40
0.0
  9
$DIMAZIN
 70
     0
  9
$DIMDSEP
 70
    46
  9
$DIMATFIT
 70
     3
  9
$DIMFRAC
 70
     0
  9
$DIMLDRBLK
  1

  9
$DIMLUNIT
 70
     2
  9
$DIMLWD
 70
    -2
  9
$DIMLWE
 70
    -2
  9
$DIMTMOVE
 70
     2
  9
$DIMFXL
 40
1.0
  9
$DIMFXLON
 70
     0
  9
$DIMJOGANG
 40
0.7853981633974483
  9
$DIMTFILL
 70
     0
  9
$DIMTFILLCLR
 70
     0
  9
$DIMARCSYM
 70
     0
  9
$DIMLTYPE
  6

  9
$DIMLTEX1
  6

  9
$DIMLTEX2
  6

  9
$DIMTXTDIRECTION
 70
     0
  9
$LUNITS
 70
     2
  9
$LUPREC
 70
     3
  9
$SKETCHINC
 40
0.1
  9
$FILLETRAD
 40
0.0
  9
$AUNITS
 70
     0
  9
$AUPREC
 70
     0
  9
$MENU
  1
.
  9
$ELEVATION
 40
0.0
  9
$PELEVATION
 40
0.0
  9
$THICKNESS
 40
0.0
  9
$LIMCHECK
 70
     0
  9
$CHAMFERA
 40
0.0
  9
$CHAMFERB
 40
0.0
  9
$CHAMFERC
 40
0.0
  9
$CHAMFERD
 40
0.0
  9
$SKPOLY
 70
     0
  9
$TDCREATE
 40
2459668.479822766
  9
$TDUCREATE
 40
2459668.688156099
  9
$TDUPDATE
 40
2459668.480942234
  9
$TDUUPDATE
 40
2459668.689275567
  9
$TDINDWG
 40
0.0007761806
  9
$TDUSRTIMER
 40
0.0007759375
  9
$USRTIMER
 70
     1
  9
$ANGBASE
 50
0.0
  9
$ANGDIR
 70
     0
  9
$PDMODE
 70
     0
  9
$PDSIZE
 40
0.0
  9
$PLINEWID
 40
0.0
  9
$SPLFRAME
 70
     0
  9
$SPLINETYPE
 70
     6
  9
$SPLINESEGS
 70
     8
  9
$HANDSEED
  5
1D5
  9
$SURFTAB1
 70
     6
  9
$SURFTAB2
 70
     6
  9
$SURFTYPE
 70
     6
  9
$SURFU
 70
     6
  9
$SURFV
 70
     6
  9
$UCSBASE
  2

  9
$UCSNAME
  2

  9
$UCSORG
 10
0.0
 20
0.0
 30
0.0
  9
$UCSXDIR
 10
1.0
 20
0.0
 30
0.0
  9
$UCSYDIR
 10
0.0
 20
1.0
 30
0.0
  9
$UCSORTHOREF
  2

  9
$UCSORTHOVIEW
 70
     0
  9
$UCSORGTOP
 10
0.0
 20
0.0
 30
0.0
  9
$UCSORGBOTTOM
 10
0.0
 20
0.0
 30
0.0
  9
$UCSORGLEFT
 10
0.0
 20
0.0
 30
0.0
  9
$UCSORGRIGHT
 10
0.0
 20
0.0
 30
0.0
  9
$UCSORGFRONT
 10
0.0
 20
0.0
 30
0.0
  9
$UCSORGBACK
 10
0.0
 20
0.0
 30
0.0
  9
$PUCSBASE
  2

  9
$PUCSNAME
  2

  9
$PUCSORG
 10
0.0
 20
0.0
 30
0.0
  9
$PUCSXDIR
 10
1.0
 20
0.0
 30
0.0
  9
$PUCSYDIR
 10
0.0
 20
1.0
 30
0.0
  9
$PUCSORTHOREF
  2

  9
$PUCSORTHOVIEW
 70
     0
  9
$PUCSORGTOP
 10
0.0
 20
0.0
 30
0.0
  9
$PUCSORGBOTTOM
 10
0.0
 20
0.0
 30
0.0
  9
$PUCSORGLEFT
 10
0.0
 20
0.0
 30
0.0
  9
$PUCSORGRIGHT
 10
0.0
 20
0.0
 30
0.0
  9
$PUCSORGFRONT
 10
0.0
 20
0.0
 30
0.0
  9
$PUCSORGBACK
 10
0.0
 20
0.0
 30
0.0
  9
$USERI1
 70
     0
  9
$USERI2
 70
     0
  9
$USERI3
 70
     0
  9
$USERI4
 70
     0
  9
$USERI5
 70
     0
  9
$USERR1
 40
0.0
  9
$USERR2
 40
0.0
  9
$USERR3
 40
0.0
  9
$USERR4
 40
0.0
  9
$USERR5
 40
0.0
  9
$WORLDVIEW
 70
     1
  9
$SHADEDGE
 70
     3
  9
$SHADEDIF
 70
    70
  9
$TILEMODE
 70
     1
  9
$MAXACTVP
 70
    64
  9
$PINSBASE
 10
0.0
 20
0.0
 30
0.0
  9
$PLIMCHECK
 70
     0
  9
$PEXTMIN
 10
1.000000000000000E+20
 20
1.000000000000000E+20
 30
1.000000000000000E+20
  9
$PEXTMAX
 10
-1.000000000000000E+20
 20
-1.000000000000000E+20
 30
-1.000000000000000E+20
  9
$PLIMMIN
 10
0.0
 20
0.0
  9
$PLIMMAX
 10
12.0
 20
9.0
  9
$UNITMODE
 70
     0
  9
$VISRETAIN
 70
     1
  9
$PLINEGEN
 70
     0
  9
$PSLTSCALE
 70
     1
  9
$TREEDEPTH
 70
  3020
  9
$CMLSTYLE
  2
Standard
  9
$CMLJUST
 70
     0
  9
$CMLSCALE
 40
1.0
  9
$PROXYGRAPHICS
 70
     1
  9
$MEASUREMENT
 70
     1
  9
$CELWEIGHT
370
    -1
  9
$ENDCAPS
280
     0
  9
$JOINSTYLE
280
     0
  9
$LWDISPLAY
290
     0
  9
$INSUNITS
 70
     4
  9
$HYPERLINKBASE
  1

  9
$STYLESHEET
  1

  9
$XEDIT
290
     1
  9
$CEPSNTYPE
380
     0
  9
$PSTYLEMODE
290
     1
  9
$FINGERPRINTGUID
  2
{2BE61834-B73E-4473-8AC0-A868BBC6B084}
  9
$VERSIONGUID
  2
{071A27DA-2DB4-43AE-ADD9-36CF5F972184}
  9
$EXTNAMES
290
     1
  9
$PSVPSCALE
 40
0.0
  9
$OLESTARTUP
290
     0
  9
$SORTENTS
280
   127
  9
$INDEXCTL
280
     0
  9
$HIDETEXT
280
     1
  9
$XCLIPFRAME
280
     2
  9
$HALOGAP
280
     0
  9
$OBSCOLOR
 70
   257
  9
$OBSLTYPE
280
     0
  9
$INTERSECTIONDISPLAY
280
     0
  9
$INTERSECTIONCOLOR
 70
   257
  9
$DIMASSOC
280
     2
  9
$PROJECTNAME
  1

  9
$CAMERADISPLAY
290
     0
  9
$LENSLENGTH
 40
50.0
  9
$CAMERAHEIGHT
 40
0.0
  9
$STEPSPERSEC
 40
2.0
  9
$STEPSIZE
 40
6.0
  9
$3DDWFPREC
 40
2.0
  9
$PSOLWIDTH
 40
0.25
  9
$PSOLHEIGHT
 40
4.0
  9
$LOFTANG1
 40
1.570796326794897
  9
$LOFTANG2
 40
1.570796326794897
  9
$LOFTMAG1
 40
0.0
  9
$LOFTMAG2
 40
0.0
  9
$LOFTPARAM
 70
     7
  9
$LOFTNORMALS
280
     1
  9
$LATITUDE
 40
37.795
  9
$LONGITUDE
 40
-122.394
  9
$NORTHDIRECTION
 40
0.0
  9
$TIMEZONE
 70
 -8000
  9
$LIGHTGLYPHDISPLAY
280
     1
  9
$TILEMODELIGHTSYNCH
280
     1
  9
$CMATERIAL
347
44
  9
$SOLIDHIST
280
     0
  9
$SHOWHIST
280
     1
  9
$DWFFRAME
280
     2
  9
$DGNFRAME
280
     2
  9
$REALWORLDSCALE
290
     1
  9
$INTERFERECOLOR
 62
   256
  9
$INTERFEREOBJVS
345
33
  9
$INTERFEREVPVS
346
30
  9
$CSHADOW
280
     0
  9
$SHADOWPLANELOCATION
 40
0.0
  0
ENDSEC
  0
SECTION
  2
CLASSES
  0
CLASS
  1
ACDBDICTIONARYWDFLT
  2
AcDbDictionaryWithDefault
  3
ObjectDBX Classes
 90
        0
 91
        1
280
     0
281
     0
  0
CLASS
  1
VISUALSTYLE
  2
AcDbVisualStyle
  3
ObjectDBX Classes
 90
     4095
 91
       24
280
     0
281
     0
  0
CLASS
  1
MATERIAL
  2
AcDbMaterial
  3
ObjectDBX Classes
 90
     1153
 91
        3
280
     0
281
     0
  0
CLASS
  1
SCALE
  2
AcDbScale
  3
ObjectDBX Classes
 90
     1153
 91
       17
280
     0
281
     0
  0
CLASS
  1
TABLESTYLE
  2
AcDbTableStyle
  3
ObjectDBX Classes
 90
     4095
 91
        1
280
     0
281
     0
  0
CLASS
  1
MLEADERSTYLE
  2
AcDbMLeaderStyle
  3
ACDB_MLEADERSTYLE_CLASS
 90
     4095
 91
        1
280
     0
281
     0
  0
CLASS
  1
SUN
  2
AcDbSun
  3
SCENEOE
 90
     1153
 91
        1
280
     0
281
     0
  0
CLASS
  1
DICTIONARYVAR
  2
AcDbDictionaryVar
  3
ObjectDBX Classes
 90
        0
 91
        8
280
     0
281
     0
  0
CLASS
  1
CELLSTYLEMAP
  2
AcDbCellStyleMap
  3
ObjectDBX Classes
 90
     1152
 91
        2
280
     0
281
     0
  0
CLASS
  1
ACDBSECTIONVIEWSTYLE
  2
AcDbSectionViewStyle
  3
ObjectDBX Classes
 90
     1025
 91
        1
280
     0
281
     0
  0
CLASS
  1
ACDBDETAILVIEWSTYLE
  2
AcDbDetailViewStyle
  3
ObjectDBX Classes
 90
     1025
 91
        1
280
     0
281
     0
  0
CLASS
  1
RAPIDRTRENDERSETTINGS
  2
AcDbRapidRTRenderSettings
  3
ObjectDBX Classes
 90
     1024
 91
        7
280
     0
281
     0
  0
CLASS
  1
MENTALRAYRENDERSETTINGS
  2
AcDbMentalRayRenderSettings
  3
SCENEOE
 90
     1024
 91
        1
280
     0
281
     0
  0
ENDSEC
  0
SECTION
  2
TABLES
  0
TABLE
  2
VPORT
  5
8
330
0
100
AcDbSymbolTable
 70
     1
  0
VPORT
  5
29
330
8
100
AcDbSymbolTableRecord
100
AcDbViewportTableRecord
  2
*Active
 70
     0
 10
0.0
 20
0.0
 11
1.0
 21
1.0
 12
3360.916919049622
 22
-1745.532058902142
 13
0.0
 23
0.0
 14
0.5
 24
0.5
 15
0.5
 25
0.5
 16
0.0
 26
0.0
 36
1.0
 17
0.0
 27
0.0
 37
0.0
 40
1052.539737720293
 41
2.478599221789883
 42
50.0
 43
0.0
 44
0.0
 50
0.0
 51
0.0
 71
     0
 72
   100
 73
     1
 74
     3
 75
     0
 76
     0
 77
     0
 78
     0
281
     0
 65
     1
110
0.0
120
0.0
130
0.0
111
1.0
121
0.0
131
0.0
112
0.0
122
1.0
132
0.0
 79
     0
146
0.0
348
2F
 60
     3
 61
     5
292
     1
282
     1
141
0.0
142
0.0
 63
   250
361
5D
1001
ACAD_NAV_VCDISPLAY
1070
     3
  0
ENDTAB
  0
TABLE
  2
LTYPE
  5
5
330
0
100
AcDbSymbolTable
 70
     1
  0
LTYPE
  5
14
330
5
100
AcDbSymbolTableRecord
100
AcDbLinetypeTableRecord
  2
ByBlock
 70
     0
  3

 72
    65
 73
     0
 40
0.0
  0
LTYPE
  5
15
330
5
100
AcDbSymbolTableRecord
100
AcDbLinetypeTableRecord
  2
ByLayer
 70
     0
  3

 72
    65
 73
     0
 40
0.0
  0
LTYPE
  5
16
330
5
100
AcDbSymbolTableRecord
100
AcDbLinetypeTableRecord
  2
Continuous
 70
     0
  3
Solid line
 72
    65
 73
     0
 40
0.0
  0
ENDTAB
  0
TABLE
  2
LAYER
  5
2
330
0
100
AcDbSymbolTable
 70
     2
  0
LAYER
  5
10
102
{ACAD_XDICTIONARY
360
193
102
}
330
2
100
AcDbSymbolTableRecord
100
AcDbLayerTableRecord
  2
0
 70
     0
 62
     7
  6
Continuous
370
    -3
390
F
347
46
  0
LAYER
  5
5F
102
{ACAD_XDICTIONARY
360
195
102
}
330
2
100
AcDbSymbolTableRecord
100
AcDbLayerTableRecord
  2
Default
 70
     0
 62
    18
420
        0
  6
Continuous
370
    -3
390
F
347
46
  0
ENDTAB
  0
TABLE
  2
STYLE
  5
3
330
0
100
AcDbSymbolTable
 70
     1
  0
STYLE
  5
11
330
3
100
AcDbSymbolTableRecord
100
AcDbTextStyleTableRecord
  2
Standard
 70
     0
 40
0.0
 41
1.0
 50
0.0
 71
     0
 42
0.2
  3
txt
  4

  0
ENDTAB
  0
TABLE
  2
VIEW
  5
6
330
0
100
AcDbSymbolTable
 70
     0
  0
ENDTAB
  0
TABLE
  2
UCS
  5
7
330
0
100
AcDbSymbolTable
 70
     0
  0
ENDTAB
  0
TABLE
  2
APPID
  5
9
330
0
100
AcDbSymbolTable
 70
     4
  0
APPID
  5
12
330
9
100
AcDbSymbolTableRecord
100
AcDbRegAppTableRecord
  2
ACAD
 70
     0
  0
APPID
  5
5E
330
9
100
AcDbSymbolTableRecord
100
AcDbRegAppTableRecord
  2
Rhino
 70
     0
  0
APPID
  5
17B
330
9
100
AcDbSymbolTableRecord
100
AcDbRegAppTableRecord
  2
ACAD_MLEADERVER
 70
     0
  0
APPID
  5
19B
330
9
100
AcDbSymbolTableRecord
100
AcDbRegAppTableRecord
  2
ACAD_NAV_VCDISPLAY
 70
     0
  0
ENDTAB
  0
TABLE
  2
DIMSTYLE
  5
A
330
0
100
AcDbSymbolTable
 70
     1
100
AcDbDimStyleTable
 71
     0
  0
DIMSTYLE
105
27
330
A
100
AcDbSymbolTableRecord
100
AcDbDimStyleTableRecord
  2
STANDARD_ACAD
 70
     0
340
11
  0
ENDTAB
  0
TABLE
  2
BLOCK_RECORD
  5
1
330
0
100
AcDbSymbolTable
 70
     1
  0
BLOCK_RECORD
  5
1F
330
1
100
AcDbSymbolTableRecord
100
AcDbBlockTableRecord
  2
*Model_Space
340
22
 70
     0
280
     1
281
     0
  0
BLOCK_RECORD
  5
1B
330
1
100
AcDbSymbolTableRecord
100
AcDbBlockTableRecord
  2
*Paper_Space
340
1E
 70
     0
280
     1
281
     0
  0
BLOCK_RECORD
  5
23
330
1
100
AcDbSymbolTableRecord
100
AcDbBlockTableRecord
  2
*Paper_Space0
340
26
 70
     0
280
     1
281
     0
  0
ENDTAB
  0
ENDSEC
  0
SECTION
  2
BLOCKS
  0
BLOCK
  5
20
330
1F
100
AcDbEntity
  8
0
100
AcDbBlockBegin
  2
*Model_Space
 70
     0
 10
0.0
 20
0.0
 30
0.0
  3
*Model_Space
  1

  0
ENDBLK
  5
21
330
1F
100
AcDbEntity
  8
0
100
AcDbBlockEnd
  0
BLOCK
  5
1C
330
1B
100
AcDbEntity
 67
     1
  8
0
100
AcDbBlockBegin
  2
*Paper_Space
 70
     0
 10
0.0
 20
0.0
 30
0.0
  3
*Paper_Space
  1

  0
ENDBLK
  5
1D
330
1B
100
AcDbEntity
 67
     1
  8
0
100
AcDbBlockEnd
  0
BLOCK
  5
24
330
23
100
AcDbEntity
 67
     1
  8
0
100
AcDbBlockBegin
  2
*Paper_Space0
 70
     0
 10
0.0
 20
0.0
 30
0.0
  3
*Paper_Space0
  1

  0
ENDBLK
  5
25
330
23
100
AcDbEntity
 67
     1
  8
0
100
AcDbBlockEnd
  0
ENDSEC
  0
SECTION
  2
ENTITIES
  0
SPLINE
  5
60
330
1F
100
AcDbEntity
  8
Default
 62
     1
420
 16711680
100
AcDbSpline
210
0.0
220
0.0
230
1.0
 70
    11
 71
     3
 72
    47
 73
    43
 74
     0
 42
0.000000001
 43
0.0000000001
 40
0.0
 40
0.0
 40
0.0
 40
0.0
 40
102.3985380565918
 40
102.3985380565918
 40
102.3985380565918
 40
204.7970761131836
 40
204.7970761131836
 40
204.7970761131836
 40
307.1956141697754
 40
307.1956141697754
 40
307.1956141697754
 40
409.5941522263671
 40
409.5941522263671
 40
409.5941522263671
 40
511.9926902829588
 40
511.9926902829588
 40
511.9926902829588
 40
614.3912283395506
 40
614.3912283395506
 40
614.3912283395506
 40
716.7897663961422
 40
716.7897663961422
 40
716.7897663961422
 40
819.188304452734
 40
819.188304452734
 40
819.188304452734
 40
921.5868425093256
 40
921.5868425093256
 40
921.5868425093256
 40
1023.985380565918
 40
1023.985380565918
 40
1023.985380565918
 40
1126.383918622509
 40
1126.383918622509
 40
1126.383918622509
 40
1228.782456679101
 40
1228.782456679101
 40
1228.782456679101
 40
1331.180994735693
 40
1331.180994735693
 40
1331.180994735693
 40
1433.579532792285
 40
1433.579532792285
 40
1433.579532792285
 40
1433.579532792285
 10
3553.480150507524
 20
-1938.269402639666
 30
37.82707534244418
 10
3521.968897024626
 20
-1943.621039233078
 30
37.82707534244418
 10
3495.512790232293
 20
-1941.859617289634
 30
37.82707534244418
 10
3471.411602654736
 20
-1925.656703608287
 30
37.82707534244418
 10
3447.310415077183
 20
-1909.453789926941
 30
37.82707534244418
 10
3425.564146714411
 20
-1878.809384507689
 30
37.82707534244418
 10
3415.026905983497
 20
-1846.79537355989
 30
37.82707534244418
 10
3404.489665252582
 20
-1814.781362612088
 30
37.82707534244418
 10
3405.161452153531
 20
-1781.397746135736
 30
37.82707534244418
 10
3408.364872787257
 20
-1758.265813916754
 30
37.82707534244418
 10
3411.568293420984
 20
-1735.13388169777
 30
37.82707534244418
 10
3417.303347787491
 20
-1722.253633736156
 30
37.82707534244418
 10
3438.949976695172
 20
-1709.712797131078
 30
37.82707534244418
 10
3460.596605602854
 20
-1697.171960525999
 30
37.82707534244418
 10
3498.154809051712
 20
-1684.970535277457
 30
37.82707534244418
 10
3523.87661249759
 20
-1664.824098179044
 30
37.82707534244418
 10
3549.598415943467
 20
-1644.677661080632
 30
37.82707534244418
 10
3563.483819386367
 20
-1616.586212132349
 30
37.82707534244418
 10
3570.362078487758
 20
-1583.119061091708
 30
37.82707534244418
 10
3577.240337589147
 20
-1549.651910051065
 30
37.82707534244418
 10
3577.111452349029
 20
-1510.809056918065
 30
37.82707534244418
 10
3579.934438696835
 20
-1479.475939824134
 30
37.82707534244418
 10
3582.75742504465
 20
-1448.142822730203
 30
37.82707534244418
 10
3588.53228298039
 20
-1424.31944167534
 30
37.82707534244418
 10
3607.80881503091
 20
-1403.779013466916
 30
37.82707534244418
 10
3627.085347081432
 20
-1383.238585258491
 30
37.82707534244418
 10
3659.863553246734
 20
-1365.981109896508
 30
37.82707534244418
 10
3695.383476387578
 20
-1370.282778993249
 30
37.82707534244418
 10
3730.903399528424
 20
-1374.584448089991
 30
37.82707534244418
 10
3769.165039644809
 20
-1400.445261645458
 30
37.82707534244418
 10
3791.015660603483
 20
-1449.544405671911
 30
37.82707534244418
 10
3812.866281562151
 20
-1498.643549698364
 30
37.82707534244418
 10
3818.305883363102
 20
-1570.981024195805
 30
37.82707534244418
 10
3815.10932343383
 20
-1633.259290139326
 30
37.82707534244418
 10
3811.912763504552
 20
-1695.537556082848
 30
37.82707534244418
 10
3800.080041845052
 20
-1747.75661347245
 30
37.82707534244418
 10
3772.476495040597
 20
-1791.868259654529
 30
37.82707534244418
 10
3744.872948236145
 20
-1835.979905836608
 30
37.82707534244418
 10
3701.498576286747
 20
-1871.984140811161
 30
37.82707534244418
 10
3661.528190225314
 20
-1896.218605863573
 30
37.82707534244418
 10
3621.557804163887
 20
-1920.453070915985
 30
37.82707534244418
 10
3584.991403990421
 20
-1932.917766046253
 30
37.82707534244418
 10
3553.480150507524
 20
-1938.269402639666
 30
37.82707534244418
  0
SPLINE
  5
68
330
1F
100
AcDbEntity
  8
Default
 62
     1
420
 16711680
100
AcDbSpline
210
-0.0000000000000008
220
0.0000000000000009
230
1.0
 70
    13
 71
     2
 72
    28
 73
    25
 74
     0
 42
0.000000001
 43
0.0000000001
 40
0.0
 40
0.0
 40
0.0
 40
5.497787143782105
 40
5.497787143782105
 40
10.99557428756421
 40
10.99557428756421
 40
19.99557428756418
 40
19.99557428756418
 40
25.49336143134631
 40
25.49336143134631
 40
30.99114857512847
 40
30.99114857512847
 40
35.89822090905471
 40
35.89822090905471
 40
41.39600805283693
 40
41.39600805283693
 40
46.89379519661915
 40
46.89379519661915
 40
55.89379519661912
 40
55.89379519661912
 40
61.39158234040126
 40
61.39158234040126
 40
66.88936948418341
 40
66.88936948418341
 40
71.79644181810956
 40
71.79644181810956
 40
71.79644181810956
 10
3733.870946259698
 20
-1720.086351593623
 30
37.82707534244418
 41
1.0
 10
3732.32004048516
 20
-1723.223976695272
 30
37.82707534244416
 41
0.7071067811865522
 10
3729.18241538351
 20
-1721.673070920736
 30
37.82707534244418
 41
1.0
 10
3726.044790281861
 20
-1720.122165146198
 30
37.82707534244416
 41
0.7071067811865522
 10
3727.595696056394
 20
-1716.984540044549
 30
37.82707534244418
 41
1.0
 10
3729.589717766512
 20
-1712.950450628141
 30
37.82707534244418
 41
1.0
 10
3731.583739476632
 20
-1708.916361211733
 30
37.82707534244418
 41
1.0
 10
3733.13464525117
 20
-1705.778736110082
 30
37.82707534244418
 41
0.7071067811865476
 10
3736.272270352821
 20
-1707.329641884619
 30
37.82707534244418
 41
1.0
 10
3739.409895454471
 20
-1708.880547659155
 30
37.82707534244418
 41
0.7071067811865476
 10
3737.858989679935
 20
-1712.018172760806
 30
37.82707534244418
 41
1.0
 10
3740.058497298583
 20
-1713.105373734915
 30
37.82707534244418
 41
1.0
 10
3742.258004917232
 20
-1714.192574709022
 30
37.82707534244418
 41
1.0
 10
3743.808910691768
 20
-1711.05494960737
 30
37.82707534244418
 41
0.7071067811865395
 10
3746.946535793421
 20
-1712.605855381908
 30
37.82707534244418
 41
1.0
 10
3750.084160895066
 20
-1714.156761156443
 30
37.82707534244418
 41
0.7071067811865395
 10
3748.533255120535
 20
-1717.294386258095
 30
37.82707534244418
 41
1.0
 10
3746.539233410417
 20
-1721.328475674504
 30
37.82707534244418
 41
1.0
 10
3744.545211700297
 20
-1725.362565090912
 30
37.82707534244418
 41
1.0
 10
3742.99430592576
 20
-1728.500190192562
 30
37.82707534244418
 41
0.7071067811865476
 10
3739.856680824111
 20
-1726.949284418026
 30
37.82707534244418
 41
1.0
 10
3736.719055722458
 20
-1725.398378643489
 30
37.82707534244418
 41
0.7071067811865476
 10
3738.269961496995
 20
-1722.260753541839
 30
37.82707534244418
 41
1.0
 10
3736.070453878345
 20
-1721.173552567731
 30
37.82707534244418
 41
1.0
 10
3733.870946259698
 20
-1720.086351593623
 30
37.82707534244418
 41
1.0
  0
SPLINE
  5
70
330
1F
100
AcDbEntity
  8
Default
 62
     1
420
 16711680
100
AcDbSpline
210
-0.0000000000000008
220
0.0000000000000009
230
1.0
 70
    13
 71
     2
 72
    28
 73
    25
 74
     0
 42
0.000000001
 43
0.0000000001
 40
0.0
 40
0.0
 40
0.0
 40
5.497787143782105
 40
5.497787143782105
 40
10.99557428756421
 40
10.99557428756421
 40
19.99557428756418
 40
19.99557428756418
 40
25.49336143134631
 40
25.49336143134631
 40
30.99114857512847
 40
30.99114857512847
 40
35.89822090905471
 40
35.89822090905471
 40
41.39600805283693
 40
41.39600805283693
 40
46.89379519661915
 40
46.89379519661915
 40
55.89379519661912
 40
55.89379519661912
 40
61.39158234040126
 40
61.39158234040126
 40
66.88936948418341
 40
66.88936948418341
 40
71.79644181810956
 40
71.79644181810956
 40
71.79644181810956
 10
3687.138764634465
 20
-1696.986966552007
 30
37.82707534244418
 41
1.0
 10
3685.587858859928
 20
-1700.124591653654
 30
37.82707534244416
 41
0.7071067811865522
 10
3682.45023375828
 20
-1698.573685879121
 30
37.82707534244418
 41
1.0
 10
3679.312608656628
 20
-1697.022780104582
 30
37.82707534244416
 41
0.7071067811865522
 10
3680.863514431165
 20
-1693.885155002933
 30
37.82707534244418
 41
1.0
 10
3682.857536141282
 20
-1689.851065586525
 30
37.82707534244418
 41
1.0
 10
3684.851557851401
 20
-1685.816976170118
 30
37.82707534244418
 41
1.0
 10
3686.402463625942
 20
-1682.679351068465
 30
37.82707534244418
 41
0.7071067811865476
 10
3689.54008872759
 20
-1684.230256843003
 30
37.82707534244418
 41
1.0
 10
3692.677713829239
 20
-1685.781162617539
 30
37.82707534244418
 41
0.7071067811865476
 10
3691.126808054703
 20
-1688.91878771919
 30
37.82707534244418
 41
1.0
 10
3693.326315673352
 20
-1690.005988693299
 30
37.82707534244418
 41
1.0
 10
3695.525823292
 20
-1691.093189667407
 30
37.82707534244418
 41
1.0
 10
3697.076729066536
 20
-1687.955564565754
 30
37.82707534244418
 41
0.7071067811865395
 10
3700.214354168189
 20
-1689.506470340292
 30
37.82707534244418
 41
1.0
 10
3703.351979269839
 20
-1691.057376114828
 30
37.82707534244418
 41
0.7071067811865395
 10
3701.8010734953
 20
-1694.195001216479
 30
37.82707534244418
 41
1.0
 10
3699.807051785183
 20
-1698.229090632887
 30
37.82707534244418
 41
1.0
 10
3697.813030075064
 20
-1702.263180049296
 30
37.82707534244418
 41
1.0
 10
3696.26212430053
 20
-1705.400805150946
 30
37.82707534244418
 41
0.7071067811865476
 10
3693.124499198879
 20
-1703.84989937641
 30
37.82707534244418
 41
1.0
 10
3689.986874097228
 20
-1702.298993601873
 30
37.82707534244418
 41
0.7071067811865476
 10
3691.537779871764
 20
-1699.161368500223
 30
37.82707534244418
 41
1.0
 10
3689.338272253115
 20
-1698.074167526115
 30
37.82707534244418
 41
1.0
 10
3687.138764634465
 20
-1696.986966552007
 30
37.82707534244418
 41
1.0
  0
SPLINE
  5
78
330
1F
100
AcDbEntity
  8
Default
 62
     1
420
 16711680
100
AcDbSpline
210
-0.0000000000000008
220
0.0000000000000009
230
1.0
 70
    13
 71
     2
 72
    28
 73
    25
 74
     0
 42
0.000000001
 43
0.0000000001
 40
0.0
 40
0.0
 40
0.0
 40
5.497787143782105
 40
5.497787143782105
 40
10.99557428756421
 40
10.99557428756421
 40
19.99557428756418
 40
19.99557428756418
 40
25.49336143134631
 40
25.49336143134631
 40
30.99114857512847
 40
30.99114857512847
 40
35.89822090905471
 40
35.89822090905471
 40
41.39600805283693
 40
41.39600805283693
 40
46.89379519661915
 40
46.89379519661915
 40
55.89379519661912
 40
55.89379519661912
 40
61.39158234040126
 40
61.39158234040126
 40
66.88936948418341
 40
66.88936948418341
 40
71.79644181810956
 40
71.79644181810956
 40
71.79644181810956
 10
3629.06444754666
 20
-1668.281244610794
 30
37.82707534244418
 41
1.0
 10
3627.513541772126
 20
-1671.418869712445
 30
37.82707534244416
 41
0.7071067811865522
 10
3624.375916670475
 20
-1669.867963937908
 30
37.82707534244418
 41
1.0
 10
3621.238291568825
 20
-1668.317058163371
 30
37.82707534244416
 41
0.7071067811865522
 10
3622.78919734336
 20
-1665.179433061722
 30
37.82707534244418
 41
1.0
 10
3624.78321905348
 20
-1661.145343645313
 30
37.82707534244418
 41
1.0
 10
3626.777240763597
 20
-1657.111254228905
 30
37.82707534244418
 41
1.0
 10
3628.328146538134
 20
-1653.973629127254
 30
37.82707534244418
 41
0.7071067811865476
 10
3631.465771639787
 20
-1655.524534901791
 30
37.82707534244418
 41
1.0
 10
3634.603396741436
 20
-1657.075440676327
 30
37.82707534244418
 41
0.7071067811865476
 10
3633.052490966899
 20
-1660.213065777978
 30
37.82707534244418
 41
1.0
 10
3635.251998585547
 20
-1661.300266752085
 30
37.82707534244418
 41
1.0
 10
3637.451506204197
 20
-1662.387467726194
 30
37.82707534244418
 41
1.0
 10
3639.002411978734
 20
-1659.249842624542
 30
37.82707534244418
 41
0.7071067811865395
 10
3642.140037080384
 20
-1660.80074839908
 30
37.82707534244418
 41
1.0
 10
3645.277662182035
 20
-1662.351654173615
 30
37.82707534244418
 41
0.7071067811865395
 10
3643.726756407499
 20
-1665.489279275267
 30
37.82707534244418
 41
1.0
 10
3641.73273469738
 20
-1669.523368691676
 30
37.82707534244418
 41
1.0
 10
3639.73871298726
 20
-1673.557458108083
 30
37.82707534244418
 41
1.0
 10
3638.187807212725
 20
-1676.695083209734
 30
37.82707534244418
 41
0.7071067811865476
 10
3635.050182111072
 20
-1675.144177435197
 30
37.82707534244418
 41
1.0
 10
3631.912557009427
 20
-1673.593271660661
 30
37.82707534244418
 41
0.7071067811865476
 10
3633.46346278396
 20
-1670.455646559011
 30
37.82707534244418
 41
1.0
 10
3631.26395516531
 20
-1669.368445584902
 30
37.82707534244418
 41
1.0
 10
3629.06444754666
 20
-1668.281244610794
 30
37.82707534244418
 41
1.0
  0
SPLINE
  5
80
330
1F
100
AcDbEntity
  8
Default
 62
     1
420
 16711680
100
AcDbSpline
210
-0.0000000000000009
220
-0.0000000000000008
230
1.0
 70
    13
 71
     2
 72
    28
 73
    25
 74
     0
 42
0.000000001
 43
0.0000000001
 40
0.0
 40
0.0
 40
0.0
 40
5.497787143782105
 40
5.497787143782105
 40
10.99557428756421
 40
10.99557428756421
 40
19.99557428756418
 40
19.99557428756418
 40
25.49336143134631
 40
25.49336143134631
 40
30.99114857512847
 40
30.99114857512847
 40
35.89822090905471
 40
35.89822090905471
 40
41.39600805283693
 40
41.39600805283693
 40
46.89379519661915
 40
46.89379519661915
 40
55.89379519661912
 40
55.89379519661912
 40
61.39158234040126
 40
61.39158234040126
 40
66.88936948418341
 40
66.88936948418341
 40
71.79644181810956
 40
71.79644181810956
 40
71.79644181810956
 10
3519.475594944022
 20
-1825.951672552666
 30
37.82707534244418
 41
1.0
 10
3522.61322004567
 20
-1827.502578327203
 30
37.82707534244416
 41
0.7071067811865522
 10
3521.062314271136
 20
-1830.640203428853
 30
37.82707534244418
 41
1.0
 10
3519.511408496597
 20
-1833.777828530503
 30
37.82707534244416
 41
0.7071067811865522
 10
3516.373783394947
 20
-1832.226922755967
 30
37.82707534244418
 41
1.0
 10
3512.33969397854
 20
-1830.232901045848
 30
37.82707534244418
 41
1.0
 10
3508.305604562132
 20
-1828.23887933573
 30
37.82707534244418
 41
1.0
 10
3505.16797946048
 20
-1826.687973561191
 30
37.82707534244418
 41
0.7071067811865476
 10
3506.718885235016
 20
-1823.550348459542
 30
37.82707534244418
 41
1.0
 10
3508.269791009551
 20
-1820.41272335789
 30
37.82707534244418
 41
0.7071067811865476
 10
3511.407416111202
 20
-1821.963629132428
 30
37.82707534244418
 41
1.0
 10
3512.494617085311
 20
-1819.764121513779
 30
37.82707534244418
 41
1.0
 10
3513.58181805942
 20
-1817.564613895131
 30
37.82707534244418
 41
1.0
 10
3510.444192957766
 20
-1816.013708120593
 30
37.82707534244418
 41
0.7071067811865395
 10
3511.995098732306
 20
-1812.876083018943
 30
37.82707534244418
 41
1.0
 10
3513.546004506839
 20
-1809.738457917289
 30
37.82707534244418
 41
0.7071067811865395
 10
3516.683629608493
 20
-1811.289363691829
 30
37.82707534244418
 41
1.0
 10
3520.7177190249
 20
-1813.283385401947
 30
37.82707534244418
 41
1.0
 10
3524.751808441311
 20
-1815.277407112066
 30
37.82707534244418
 41
1.0
 10
3527.889433542956
 20
-1816.828312886601
 30
37.82707534244418
 41
0.7071067811865476
 10
3526.338527768423
 20
-1819.965937988253
 30
37.82707534244418
 41
1.0
 10
3524.787621993882
 20
-1823.103563089904
 30
37.82707534244418
 41
0.7071067811865476
 10
3521.649996892239
 20
-1821.552657315367
 30
37.82707534244418
 41
1.0
 10
3520.56279591813
 20
-1823.752164934017
 30
37.82707534244418
 41
1.0
 10
3519.475594944022
 20
-1825.951672552666
 30
37.82707534244418
 41
1.0
  0
SPLINE
  5
88
330
1F
100
AcDbEntity
  8
Default
 62
     1
420
 16711680
100
AcDbSpline
210
0.0000000000000014
220
-0.0000000000000003
230
1.0
 70
    13
 71
     2
 72
    28
 73
    25
 74
     0
 42
0.000000001
 43
0.0000000001
 40
0.0
 40
0.0
 40
0.0
 40
5.497787143782105
 40
5.497787143782105
 40
10.99557428756421
 40
10.99557428756421
 40
19.99557428756418
 40
19.99557428756418
 40
25.49336143134631
 40
25.49336143134631
 40
30.99114857512847
 40
30.99114857512847
 40
35.89822090905471
 40
35.89822090905471
 40
41.39600805283693
 40
41.39600805283693
 40
46.89379519661915
 40
46.89379519661915
 40
55.89379519661912
 40
55.89379519661912
 40
61.39158234040126
 40
61.39158234040126
 40
66.88936948418341
 40
66.88936948418341
 40
71.79644181810956
 40
71.79644181810956
 40
71.79644181810956
 10
3546.796385599715
 20
-1770.679198901668
 30
37.82707534244418
 41
1.0
 10
3549.934010701369
 20
-1772.230104676204
 30
37.82707534244416
 41
0.7071067811865522
 10
3548.383104926828
 20
-1775.367729777855
 30
37.82707534244418
 41
1.0
 10
3546.832199152293
 20
-1778.505354879506
 30
37.82707534244416
 41
0.7071067811865522
 10
3543.69457405064
 20
-1776.954449104969
 30
37.82707534244418
 41
1.0
 10
3539.660484634234
 20
-1774.960427394851
 30
37.82707534244418
 41
1.0
 10
3535.626395217827
 20
-1772.966405684732
 30
37.82707534244418
 41
1.0
 10
3532.488770116174
 20
-1771.415499910195
 30
37.82707534244418
 41
0.7071067811865476
 10
3534.039675890714
 20
-1768.277874808545
 30
37.82707534244418
 41
1.0
 10
3535.590581665245
 20
-1765.140249706893
 30
37.82707534244418
 41
0.7071067811865476
 10
3538.728206766899
 20
-1766.691155481431
 30
37.82707534244418
 41
1.0
 10
3539.815407741008
 20
-1764.491647862782
 30
37.82707534244418
 41
1.0
 10
3540.902608715116
 20
-1762.292140244132
 30
37.82707534244418
 41
1.0
 10
3537.764983613465
 20
-1760.741234469595
 30
37.82707534244418
 41
0.7071067811865395
 10
3539.315889388002
 20
-1757.603609367945
 30
37.82707534244418
 41
1.0
 10
3540.866795162537
 20
-1754.465984266292
 30
37.82707534244418
 41
0.7071067811865395
 10
3544.004420264189
 20
-1756.016890040831
 30
37.82707534244418
 41
1.0
 10
3548.038509680599
 20
-1758.01091175095
 30
37.82707534244418
 41
1.0
 10
3552.072599097004
 20
-1760.004933461069
 30
37.82707534244418
 41
1.0
 10
3555.210224198654
 20
-1761.555839235605
 30
37.82707534244418
 41
0.7071067811865476
 10
3553.659318424119
 20
-1764.693464337255
 30
37.82707534244418
 41
1.0
 10
3552.108412649583
 20
-1767.831089438906
 30
37.82707534244418
 41
0.7071067811865476
 10
3548.970787547931
 20
-1766.28018366437
 30
37.82707534244418
 41
1.0
 10
3547.883586573824
 20
-1768.479691283019
 30
37.82707534244418
 41
1.0
 10
3546.796385599715
 20
-1770.679198901668
 30
37.82707534244418
 41
1.0
  0
SPLINE
  5
90
330
1F
100
AcDbEntity
  8
Default
 62
     1
420
 16711680
100
AcDbSpline
210
0.0000000000000014
220
-0.0000000000000003
230
1.0
 70
    13
 71
     2
 72
    28
 73
    25
 74
     0
 42
0.000000001
 43
0.0000000001
 40
0.0
 40
0.0
 40
0.0
 40
5.497787143782105
 40
5.497787143782105
 40
10.99557428756421
 40
10.99557428756421
 40
19.99557428756418
 40
19.99557428756418
 40
25.49336143134631
 40
25.49336143134631
 40
30.99114857512847
 40
30.99114857512847
 40
35.89822090905471
 40
35.89822090905471
 40
41.39600805283693
 40
41.39600805283693
 40
46.89379519661915
 40
46.89379519661915
 40
55.89379519661912
 40
55.89379519661912
 40
61.39158234040126
 40
61.39158234040126
 40
66.88936948418341
 40
66.88936948418341
 40
71.79644181810956
 40
71.79644181810956
 40
71.79644181810956
 10
3576.580395354478
 20
-1710.423406339241
 30
37.82707534244418
 41
1.0
 10
3579.718020456131
 20
-1711.974312113776
 30
37.82707534244416
 41
0.7071067811865522
 10
3578.167114681593
 20
-1715.111937215427
 30
37.82707534244418
 41
1.0
 10
3576.616208907058
 20
-1718.249562317078
 30
37.82707534244416
 41
0.7071067811865522
 10
3573.478583805405
 20
-1716.698656542542
 30
37.82707534244418
 41
1.0
 10
3569.444494388996
 20
-1714.704634832423
 30
37.82707534244418
 41
1.0
 10
3565.41040497259
 20
-1712.710613122304
 30
37.82707534244418
 41
1.0
 10
3562.272779870938
 20
-1711.159707347767
 30
37.82707534244418
 41
0.7071067811865476
 10
3563.823685645476
 20
-1708.022082246116
 30
37.82707534244418
 41
1.0
 10
3565.374591420014
 20
-1704.884457144465
 30
37.82707534244418
 41
0.7071067811865476
 10
3568.512216521662
 20
-1706.435362919003
 30
37.82707534244418
 41
1.0
 10
3569.599417495773
 20
-1704.235855300353
 30
37.82707534244418
 41
1.0
 10
3570.68661846988
 20
-1702.036347681705
 30
37.82707534244418
 41
1.0
 10
3567.548993368227
 20
-1700.485441907167
 30
37.82707534244418
 41
0.7071067811865395
 10
3569.099899142764
 20
-1697.347816805518
 30
37.82707534244418
 41
1.0
 10
3570.650804917302
 20
-1694.210191703866
 30
37.82707534244418
 41
0.7071067811865395
 10
3573.788430018951
 20
-1695.761097478404
 30
37.82707534244418
 41
1.0
 10
3577.82251943536
 20
-1697.755119188522
 30
37.82707534244418
 41
1.0
 10
3581.856608851767
 20
-1699.749140898641
 30
37.82707534244418
 41
1.0
 10
3584.994233953417
 20
-1701.300046673177
 30
37.82707534244418
 41
0.7071067811865476
 10
3583.443328178882
 20
-1704.437671774829
 30
37.82707534244418
 41
1.0
 10
3581.892422404346
 20
-1707.575296876477
 30
37.82707534244418
 41
0.7071067811865476
 10
3578.754797302694
 20
-1706.024391101942
 30
37.82707534244418
 41
1.0
 10
3577.667596328587
 20
-1708.223898720592
 30
37.82707534244418
 41
1.0
 10
3576.580395354478
 20
-1710.423406339241
 30
37.82707534244418
 41
1.0
  0
SPLINE
  5
98
330
1F
100
AcDbEntity
  8
Default
 62
     1
420
 16711680
100
AcDbSpline
210
-0.0000000000000009
220
-0.0000000000000008
230
1.0
 70
    13
 71
     2
 72
    28
 73
    25
 74
     0
 42
0.000000001
 43
0.0000000001
 40
0.0
 40
0.0
 40
0.0
 40
5.497787143782105
 40
5.497787143782105
 40
10.99557428756421
 40
10.99557428756421
 40
19.99557428756418
 40
19.99557428756418
 40
25.49336143134631
 40
25.49336143134631
 40
30.99114857512847
 40
30.99114857512847
 40
35.89822090905471
 40
35.89822090905471
 40
41.39600805283693
 40
41.39600805283693
 40
46.89379519661915
 40
46.89379519661915
 40
55.89379519661912
 40
55.89379519661912
 40
61.39158234040126
 40
61.39158234040126
 40
66.88936948418341
 40
66.88936948418341
 40
71.79644181810956
 40
71.79644181810956
 40
71.79644181810956
 10
3631.787691842545
 20
-1598.73396517576
 30
37.82707534244418
 41
1.0
 10
3634.925316944195
 20
-1600.284870950297
 30
37.82707534244416
 41
0.7071067811865522
 10
3633.374411169655
 20
-1603.422496051947
 30
37.82707534244418
 41
1.0
 10
3631.823505395122
 20
-1606.560121153598
 30
37.82707534244416
 41
0.7071067811865522
 10
3628.685880293471
 20
-1605.009215379061
 30
37.82707534244418
 41
1.0
 10
3624.651790877064
 20
-1603.015193668942
 30
37.82707534244418
 41
1.0
 10
3620.617701460655
 20
-1601.021171958824
 30
37.82707534244418
 41
1.0
 10
3617.480076359005
 20
-1599.470266184287
 30
37.82707534244418
 41
0.7071067811865476
 10
3619.03098213354
 20
-1596.332641082636
 30
37.82707534244418
 41
1.0
 10
3620.581887908076
 20
-1593.195015980985
 30
37.82707534244418
 41
0.7071067811865476
 10
3623.719513009728
 20
-1594.745921755523
 30
37.82707534244418
 41
1.0
 10
3624.806713983838
 20
-1592.546414136873
 30
37.82707534244418
 41
1.0
 10
3625.893914957944
 20
-1590.346906518225
 30
37.82707534244418
 41
1.0
 10
3622.756289856291
 20
-1588.796000743687
 30
37.82707534244418
 41
0.7071067811865395
 10
3624.307195630829
 20
-1585.658375642037
 30
37.82707534244418
 41
1.0
 10
3625.858101405366
 20
-1582.520750540385
 30
37.82707534244418
 41
0.7071067811865395
 10
3628.995726507017
 20
-1584.071656314923
 30
37.82707534244418
 41
1.0
 10
3633.029815923424
 20
-1586.065678025041
 30
37.82707534244418
 41
1.0
 10
3637.063905339832
 20
-1588.059699735161
 30
37.82707534244418
 41
1.0
 10
3640.201530441484
 20
-1589.610605509696
 30
37.82707534244418
 41
0.7071067811865476
 10
3638.650624666947
 20
-1592.748230611347
 30
37.82707534244418
 41
1.0
 10
3637.099718892408
 20
-1595.885855712998
 30
37.82707534244418
 41
0.7071067811865476
 10
3633.96209379076
 20
-1594.334949938461
 30
37.82707534244418
 41
1.0
 10
3632.874892816651
 20
-1596.53445755711
 30
37.82707534244418
 41
1.0
 10
3631.787691842545
 20
-1598.73396517576
 30
37.82707534244418
 41
1.0
  0
SPLINE
  5
A0
330
1F
100
AcDbEntity
  8
Default
 62
     1
420
 16711680
100
AcDbSpline
210
-0.0000000000000009
220
-0.0000000000000008
230
1.0
 70
    13
 71
     2
 72
    28
 73
    25
 74
     0
 42
0.000000001
 43
0.0000000001
 40
0.0
 40
0.0
 40
0.0
 40
5.497787143782105
 40
5.497787143782105
 40
10.99557428756421
 40
10.99557428756421
 40
19.99557428756418
 40
19.99557428756418
 40
25.49336143134631
 40
25.49336143134631
 40
30.99114857512847
 40
30.99114857512847
 40
35.89822090905471
 40
35.89822090905471
 40
41.39600805283693
 40
41.39600805283693
 40
46.89379519661915
 40
46.89379519661915
 40
55.89379519661912
 40
55.89379519661912
 40
61.39158234040126
 40
61.39158234040126
 40
66.88936948418341
 40
66.88936948418341
 40
71.79644181810956
 40
71.79644181810956
 40
71.79644181810956
 10
3656.254142857484
 20
-1549.236083284308
 30
37.82707534244418
 41
1.0
 10
3659.391767959135
 20
-1550.786989058845
 30
37.82707534244416
 41
0.7071067811865522
 10
3657.840862184599
 20
-1553.924614160497
 30
37.82707534244418
 41
1.0
 10
3656.289956410062
 20
-1557.062239262148
 30
37.82707534244416
 41
0.7071067811865522
 10
3653.152331308413
 20
-1555.51133348761
 30
37.82707534244418
 41
1.0
 10
3649.118241892005
 20
-1553.517311777491
 30
37.82707534244418
 41
1.0
 10
3645.084152475596
 20
-1551.523290067373
 30
37.82707534244418
 41
1.0
 10
3641.946527373945
 20
-1549.972384292835
 30
37.82707534244418
 41
0.7071067811865476
 10
3643.497433148481
 20
-1546.834759191186
 30
37.82707534244418
 41
1.0
 10
3645.048338923018
 20
-1543.697134089535
 30
37.82707534244418
 41
0.7071067811865476
 10
3648.185964024668
 20
-1545.248039864071
 30
37.82707534244418
 41
1.0
 10
3649.273164998777
 20
-1543.048532245423
 30
37.82707534244418
 41
1.0
 10
3650.360365972883
 20
-1540.849024626772
 30
37.82707534244418
 41
1.0
 10
3647.222740871232
 20
-1539.298118852236
 30
37.82707534244418
 41
0.7071067811865395
 10
3648.77364664577
 20
-1536.160493750586
 30
37.82707534244418
 41
1.0
 10
3650.324552420306
 20
-1533.022868648934
 30
37.82707534244418
 41
0.7071067811865395
 10
3653.462177521959
 20
-1534.573774423471
 30
37.82707534244418
 41
1.0
 10
3657.496266938367
 20
-1536.567796133591
 30
37.82707534244418
 41
1.0
 10
3661.530356354774
 20
-1538.561817843709
 30
37.82707534244418
 41
1.0
 10
3664.667981456423
 20
-1540.112723618246
 30
37.82707534244418
 41
0.7071067811865476
 10
3663.117075681888
 20
-1543.250348719896
 30
37.82707534244418
 41
1.0
 10
3661.566169907349
 20
-1546.387973821547
 30
37.82707534244418
 41
0.7071067811865476
 10
3658.428544805703
 20
-1544.837068047011
 30
37.82707534244418
 41
1.0
 10
3657.341343831593
 20
-1547.036575665659
 30
37.82707534244418
 41
1.0
 10
3656.254142857484
 20
-1549.236083284308
 30
37.82707534244418
 41
1.0
  0
SPLINE
  5
A8
330
1F
100
AcDbEntity
  8
Default
 62
     1
420
 16711680
100
AcDbSpline
210
0.0000000000000014
220
-0.0000000000000003
230
1.0
 70
    13
 71
     2
 72
    28
 73
    25
 74
     0
 42
0.000000001
 43
0.0000000001
 40
0.0
 40
0.0
 40
0.0
 40
5.497787143782105
 40
5.497787143782105
 40
10.99557428756421
 40
10.99557428756421
 40
19.99557428756418
 40
19.99557428756418
 40
25.49336143134631
 40
25.49336143134631
 40
30.99114857512847
 40
30.99114857512847
 40
35.89822090905471
 40
35.89822090905471
 40
41.39600805283693
 40
41.39600805283693
 40
46.89379519661915
 40
46.89379519661915
 40
55.89379519661912
 40
55.89379519661912
 40
61.39158234040126
 40
61.39158234040126
 40
66.88936948418341
 40
66.88936948418341
 40
71.79644181810956
 40
71.79644181810956
 40
71.79644181810956
 10
3686.330409784681
 20
-1488.38902756753
 30
37.82707534244418
 41
1.0
 10
3689.468034886332
 20
-1489.939933342066
 30
37.82707534244416
 41
0.7071067811865522
 10
3687.917129111795
 20
-1493.077558443716
 30
37.82707534244418
 41
1.0
 10
3686.366223337259
 20
-1496.215183545367
 30
37.82707534244416
 41
0.7071067811865522
 10
3683.228598235606
 20
-1494.66427777083
 30
37.82707534244418
 41
1.0
 10
3679.194508819199
 20
-1492.670256060712
 30
37.82707534244418
 41
1.0
 10
3675.160419402788
 20
-1490.676234350594
 30
37.82707534244418
 41
1.0
 10
3672.02279430114
 20
-1489.125328576057
 30
37.82707534244418
 41
0.7071067811865476
 10
3673.573700075677
 20
-1485.987703474406
 30
37.82707534244418
 41
1.0
 10
3675.124605850213
 20
-1482.850078372755
 30
37.82707534244418
 41
0.7071067811865476
 10
3678.262230951863
 20
-1484.400984147293
 30
37.82707534244418
 41
1.0
 10
3679.349431925972
 20
-1482.201476528643
 30
37.82707534244418
 41
1.0
 10
3680.43663290008
 20
-1480.001968909995
 30
37.82707534244418
 41
1.0
 10
3677.299007798428
 20
-1478.451063135457
 30
37.82707534244418
 41
0.7071067811865395
 10
3678.849913572963
 20
-1475.313438033807
 30
37.82707534244418
 41
1.0
 10
3680.400819347504
 20
-1472.175812932155
 30
37.82707534244418
 41
0.7071067811865395
 10
3683.538444449153
 20
-1473.726718706693
 30
37.82707534244418
 41
1.0
 10
3687.572533865559
 20
-1475.720740416812
 30
37.82707534244418
 41
1.0
 10
3691.606623281967
 20
-1477.71476212693
 30
37.82707534244418
 41
1.0
 10
3694.744248383622
 20
-1479.265667901466
 30
37.82707534244418
 41
0.7071067811865476
 10
3693.193342609082
 20
-1482.403293003118
 30
37.82707534244418
 41
1.0
 10
3691.642436834547
 20
-1485.540918104767
 30
37.82707534244418
 41
0.7071067811865476
 10
3688.504811732896
 20
-1483.990012330232
 30
37.82707534244418
 41
1.0
 10
3687.417610758788
 20
-1486.18951994888
 30
37.82707534244418
 41
1.0
 10
3686.330409784681
 20
-1488.38902756753
 30
37.82707534244418
 41
1.0
  0
SPLINE
  5
A9
330
1F
100
AcDbEntity
  8
Default
 62
     1
420
 16711680
100
AcDbSpline
210
0.0
220
0.0
230
1.0
 70
     9
 71
     3
 72
    29
 73
    25
 74
     0
 42
0.000000001
 43
0.0000000001
 40
684.7141565546348
 40
684.7141565546348
 40
684.7141565546348
 40
684.7141565546348
 40
685.7141565546347
 40
685.7141565546347
 40
685.7141565546347
 40
686.7141565546347
 40
686.7141565546347
 40
686.7141565546347
 40
687.7141565546346
 40
687.7141565546346
 40
687.7141565546346
 40
688.7141565546346
 40
688.7141565546346
 40
688.7141565546346
 40
689.7141565546347
 40
689.7141565546347
 40
689.7141565546347
 40
690.7141565546346
 40
690.7141565546346
 40
690.7141565546346
 40
691.7141565546346
 40
691.7141565546346
 40
691.7141565546346
 40
692.7141565546346
 40
692.7141565546346
 40
692.7141565546346
 40
692.7141565546346
 10
3246.87952550842
 20
-1874.836042904766
 30
37.82707534244418
 10
3250.403011728362
 20
-1876.540807498139
 30
37.82707534244418
 10
3254.849064337939
 20
-1874.855564445377
 30
37.82707534244418
 10
3257.892918779411
 20
-1871.66149511048
 30
37.82707534244418
 10
3260.936773220883
 20
-1868.467425775585
 30
37.82707534244418
 10
3262.578429494253
 20
-1863.764530158556
 30
37.82707534244418
 10
3263.488361311362
 20
-1858.731099425944
 30
37.82707534244418
 10
3264.398293128472
 20
-1853.697668693331
 30
37.82707534244418
 10
3264.576500489322
 20
-1848.333702845135
 30
37.82707534244418
 10
3264.608726130022
 20
-1843.406223339626
 30
37.82707534244418
 10
3264.640951770721
 20
-1838.478743834116
 30
37.82707534244418
 10
3264.527195691267
 20
-1833.987750671292
 30
37.82707534244418
 10
3264.325249952839
 20
-1828.002878853308
 30
37.82707534244418
 10
3264.123304214412
 20
-1822.018007035325
 30
37.82707534244418
 10
3263.833168817009
 20
-1814.539256562181
 30
37.82707534244418
 10
3261.75772294661
 20
-1813.031485119533
 30
37.82707534244418
 10
3259.682277076211
 20
-1811.523713676885
 30
37.82707534244418
 10
3255.821520732812
 20
-1815.986921264733
 30
37.82707534244418
 10
3251.590048434187
 20
-1825.300459221957
 30
37.82707534244418
 10
3247.358576135557
 20
-1834.61399717918
 30
37.82707534244418
 10
3242.7563878817
 20
-1848.777865505779
 30
37.82707534244418
 10
3241.75575366993
 20
-1858.407185788832
 30
37.82707534244418
 10
3240.755119458159
 20
-1868.036506071886
 30
37.82707534244418
 10
3243.356039288475
 20
-1873.131278311394
 30
37.82707534244418
 10
3246.87952550842
 20
-1874.836042904766
 30
37.82707534244418
  0
SPLINE
  5
AA
330
1F
100
AcDbEntity
  8
Default
 62
     1
420
 16711680
100
AcDbSpline
210
0.0
220
0.0
230
1.0
 70
     9
 71
     3
 72
    32
 73
    28
 74
     0
 42
0.000000001
 43
0.0000000001
 40
692.7141565546346
 40
692.7141565546346
 40
692.7141565546346
 40
692.7141565546346
 40
693.7141565546347
 40
693.7141565546347
 40
693.7141565546347
 40
694.7141565546346
 40
694.7141565546346
 40
694.7141565546346
 40
695.7141565546346
 40
695.7141565546346
 40
695.7141565546346
 40
696.7141565546346
 40
696.7141565546346
 40
696.7141565546346
 40
697.7141565546347
 40
697.7141565546347
 40
697.7141565546347
 40
698.7141565546346
 40
698.7141565546346
 40
698.7141565546346
 40
699.7141565546346
 40
699.7141565546346
 40
699.7141565546346
 40
700.7141565546346
 40
700.7141565546346
 40
700.7141565546346
 40
701.7141565546346
 40
701.7141565546346
 40
701.7141565546346
 40
701.7141565546346
 10
3343.270488953332
 20
-1874.55727443398
 30
37.82707534244418
 10
3347.526000557096
 20
-1876.494537414496
 30
37.82707534244418
 10
3353.117656845642
 20
-1875.557647143683
 30
37.82707534244418
 10
3356.281892582972
 20
-1872.130866291092
 30
37.82707534244418
 10
3359.446128320304
 20
-1868.704085438501
 30
37.82707534244418
 10
3360.182943506419
 20
-1862.787414004132
 30
37.82707534244418
 10
3359.508017003833
 20
-1857.04234897103
 30
37.82707534244418
 10
3358.833090501246
 20
-1851.297283937929
 30
37.82707534244418
 10
3356.746422309958
 20
-1845.723825306097
 30
37.82707534244418
 10
3354.895902691256
 20
-1840.356135235343
 30
37.82707534244418
 10
3353.045383072557
 20
-1834.988445164588
 30
37.82707534244418
 10
3351.431012026445
 20
-1829.826523654911
 30
37.82707534244418
 10
3349.727312280711
 20
-1823.968755478313
 30
37.82707534244418
 10
3348.023612534976
 20
-1818.110987301718
 30
37.82707534244418
 10
3346.230584089616
 20
-1811.557372458201
 30
37.82707534244418
 10
3343.34459868554
 20
-1808.401997652084
 30
37.82707534244418
 10
3340.458613281465
 20
-1805.246622845968
 30
37.82707534244418
 10
3336.479670918668
 20
-1805.48948807725
 30
37.82707534244418
 10
3334.485610404839
 20
-1812.055471456442
 30
37.82707534244418
 10
3332.49154989101
 20
-1818.621454835632
 30
37.82707534244418
 10
3332.482371226149
 20
-1831.510556362731
 30
37.82707534244418
 10
3332.5949570521
 20
-1841.054693976271
 30
37.82707534244418
 10
3332.707542878052
 20
-1850.598831589811
 30
37.82707534244418
 10
3332.94189319482
 20
-1856.798005289792
 30
37.82707534244418
 10
3334.518751812699
 20
-1862.303300255706
 30
37.82707534244418
 10
3336.095610430575
 20
-1867.808595221619
 30
37.82707534244418
 10
3339.014977349563
 20
-1872.620011453464
 30
37.82707534244418
 10
3343.270488953332
 20
-1874.55727443398
 30
37.82707534244418
  0
SPLINE
  5
AB
330
1F
100
AcDbEntity
  8
Default
 62
     1
420
 16711680
100
AcDbSpline
210
0.0
220
0.0
230
1.0
 70
     9
 71
     3
 72
    35
 73
    31
 74
     0
 42
0.000000001
 43
0.0000000001
 40
701.7141565546346
 40
701.7141565546346
 40
701.7141565546346
 40
701.7141565546346
 40
702.7141565546346
 40
702.7141565546346
 40
702.7141565546346
 40
703.7141565546346
 40
703.7141565546346
 40
703.7141565546346
 40
704.7141565546346
 40
704.7141565546346
 40
704.7141565546346
 40
705.7141565546346
 40
705.7141565546346
 40
705.7141565546346
 40
706.7141565546346
 40
706.7141565546346
 40
706.7141565546346
 40
707.7141565546346
 40
707.7141565546346
 40
707.7141565546346
 40
708.7141565546346
 40
708.7141565546346
 40
708.7141565546346
 40
709.7141565546346
 40
709.7141565546346
 40
709.7141565546346
 40
710.7141565546347
 40
710.7141565546347
 40
710.7141565546347
 40
711.7141565546346
 40
711.7141565546346
 40
711.7141565546346
 40
711.7141565546346
 10
3023.087217578204
 20
-1836.121555896791
 30
37.82707534244418
 10
3024.60632850916
 20
-1836.782354941475
 30
37.82707534244418
 10
3026.397139184295
 20
-1835.789486914451
 30
37.82707534244418
 10
3028.103565260717
 20
-1834.993520716589
 30
37.82707534244418
 10
3029.809991337137
 20
-1834.197554518727
 30
37.82707534244418
 10
3031.432032814842
 20
-1833.598490150025
 30
37.82707534244418
 10
3032.804601749385
 20
-1832.417359209153
 30
37.82707534244418
 10
3034.177170683928
 20
-1831.236228268282
 30
37.82707534244418
 10
3035.30026707531
 20
-1829.47303075524
 30
37.82707534244418
 10
3035.839947802624
 20
-1827.361138198323
 30
37.82707534244418
 10
3036.379628529938
 20
-1825.249245641406
 30
37.82707534244418
 10
3036.335893593185
 20
-1822.788658040614
 30
37.82707534244418
 10
3035.777112996318
 20
-1820.608621735365
 30
37.82707534244418
 10
3035.218332399452
 20
-1818.428585430117
 30
37.82707534244418
 10
3034.144506142474
 20
-1816.529100420412
 30
37.82707534244418
 10
3032.70831549182
 20
-1815.475717750425
 30
37.82707534244418
 10
3031.272124841168
 20
-1814.422335080435
 30
37.82707534244418
 10
3029.473569796839
 20
-1814.215054750163
 30
37.82707534244418
 10
3027.902800461421
 20
-1814.913623029053
 30
37.82707534244418
 10
3026.332031126003
 20
-1815.612191307944
 30
37.82707534244418
 10
3024.989047499494
 20
-1817.216608195998
 30
37.82707534244418
 10
3023.767803312572
 20
-1818.863736412163
 30
37.82707534244418
 10
3022.546559125654
 20
-1820.510864628329
 30
37.82707534244418
 10
3021.447054378325
 20
-1822.200704172608
 30
37.82707534244418
 10
3020.684924445111
 20
-1824.202504095154
 30
37.82707534244418
 10
3019.922794511896
 20
-1826.204304017701
 30
37.82707534244418
 10
3019.498039392796
 20
-1828.518064318514
 30
37.82707534244418
 10
3019.909367426635
 20
-1830.832177527115
 30
37.82707534244418
 10
3020.32069546047
 20
-1833.146290735717
 30
37.82707534244418
 10
3021.568106647248
 20
-1835.460756852108
 30
37.82707534244418
 10
3023.087217578204
 20
-1836.121555896791
 30
37.82707534244418
  0
SPLINE
  5
AC
330
1F
100
AcDbEntity
  8
Default
 62
     1
420
 16711680
100
AcDbSpline
210
0.0
220
0.0
230
1.0
 70
     9
 71
     3
 72
    32
 73
    28
 74
     0
 42
0.000000001
 43
0.0000000001
 40
711.7141565546346
 40
711.7141565546346
 40
711.7141565546346
 40
711.7141565546346
 40
712.7141565546346
 40
712.7141565546346
 40
712.7141565546346
 40
713.7141565546346
 40
713.7141565546346
 40
713.7141565546346
 40
714.7141565546347
 40
714.7141565546347
 40
714.7141565546347
 40
715.7141565546346
 40
715.7141565546346
 40
715.7141565546346
 40
716.7141565546346
 40
716.7141565546346
 40
716.7141565546346
 40
717.7141565546346
 40
717.7141565546346
 40
717.7141565546346
 40
718.7141565546347
 40
718.7141565546347
 40
718.7141565546347
 40
719.7141565546346
 40
719.7141565546346
 40
719.7141565546346
 40
720.7141565546346
 40
720.7141565546346
 40
720.7141565546346
 40
720.7141565546346
 10
3129.228035085655
 20
-1834.396852315456
 30
37.82707534244418
 10
3135.102897494999
 20
-1834.400311554031
 30
37.82707534244418
 10
3140.079775104728
 20
-1824.08653790577
 30
37.82707534244418
 10
3139.259456564107
 20
-1808.872351693561
 30
37.82707534244418
 10
3138.439138023487
 20
-1793.658165481353
 30
37.82707534244418
 10
3132.536119502197
 20
-1780.166295486748
 30
37.82707534244418
 10
3127.704629718553
 20
-1766.000421311438
 30
37.82707534244418
 10
3122.873139934911
 20
-1751.834547136128
 30
37.82707534244418
 10
3119.11317888892
 20
-1736.994668780114
 30
37.82707534244418
 10
3115.581054383581
 20
-1723.513188305314
 30
37.82707534244418
 10
3112.04892987824
 20
-1710.031707830515
 30
37.82707534244418
 10
3108.74464191355
 20
-1697.908625236928
 30
37.82707534244418
 10
3104.428932650165
 20
-1680.339003671928
 30
37.82707534244418
 10
3100.11322338678
 20
-1662.769382106928
 30
37.82707534244418
 10
3094.786092824701
 20
-1639.753221570514
 30
37.82707534244418
 10
3092.202042178191
 20
-1638.194082483117
 30
37.82707534244418
 10
3089.617991531679
 20
-1636.634943395719
 30
37.82707534244418
 10
3089.777020800733
 20
-1656.532825757339
 30
37.82707534244418
 10
3091.121644911105
 20
-1673.360680997706
 30
37.82707534244418
 10
3092.466269021475
 20
-1690.188536238074
 30
37.82707534244418
 10
3094.996487973165
 20
-1703.946364357191
 30
37.82707534244418
 10
3098.189309976318
 20
-1725.729459678117
 30
37.82707534244418
 10
3101.382131979472
 20
-1747.512554999042
 30
37.82707534244418
 10
3105.237557034094
 20
-1777.320917521775
 30
37.82707534244418
 10
3110.908941250722
 20
-1800.696809236622
 30
37.82707534244418
 10
3116.58032546735
 20
-1824.072700951469
 30
37.82707534244418
 10
3123.353172676312
 20
-1834.393393076881
 30
37.82707534244418
 10
3129.228035085655
 20
-1834.396852315456
 30
37.82707534244418
  0
SPLINE
  5
AD
330
1F
100
AcDbEntity
  8
Default
 62
     1
420
 16711680
100
AcDbSpline
210
0.0
220
0.0
230
1.0
 70
     9
 71
     3
 72
    32
 73
    28
 74
     0
 42
0.000000001
 43
0.0000000001
 40
720.7141565546346
 40
720.7141565546346
 40
720.7141565546346
 40
720.7141565546346
 40
721.7141565546346
 40
721.7141565546346
 40
721.7141565546346
 40
722.7141565546347
 40
722.7141565546347
 40
722.7141565546347
 40
723.7141565546346
 40
723.7141565546346
 40
723.7141565546346
 40
724.7141565546346
 40
724.7141565546346
 40
724.7141565546346
 40
725.7141565546346
 40
725.7141565546346
 40
725.7141565546346
 40
726.7141565546346
 40
726.7141565546346
 40
726.7141565546346
 40
727.7141565546346
 40
727.7141565546346
 40
727.7141565546346
 40
728.7141565546346
 40
728.7141565546346
 40
728.7141565546346
 40
729.7141565546346
 40
729.7141565546346
 40
729.7141565546346
 40
729.7141565546346
 10
3071.274044118531
 20
-1835.3187594173
 30
37.82707534244418
 10
3076.461960850652
 20
-1838.067412056517
 30
37.82707534244418
 10
3083.866873376595
 20
-1835.606284819835
 30
37.82707534244418
 10
3086.794643697802
 20
-1824.361558168166
 30
37.82707534244418
 10
3089.722414019008
 20
-1813.116831516497
 30
37.82707534244418
 10
3088.498029591095
 20
-1800.322894779019
 30
37.82707534244418
 10
3087.5096432994
 20
-1787.562968210366
 30
37.82707534244418
 10
3086.521257007707
 20
-1774.803041641713
 30
37.82707534244418
 10
3085.768868852231
 20
-1762.077125241886
 30
37.82707534244418
 10
3084.191866492582
 20
-1740.842355140254
 30
37.82707534244418
 10
3082.614864132931
 20
-1719.607585038623
 30
37.82707534244418
 10
3080.213247569109
 20
-1689.863961235185
 30
37.82707534244418
 10
3077.218748487241
 20
-1682.140346973527
 30
37.82707534244418
 10
3074.224249405373
 20
-1674.41673271187
 30
37.82707534244418
 10
3070.636867805459
 20
-1688.713127991991
 30
37.82707534244418
 10
3068.567119318124
 20
-1701.577401901093
 30
37.82707534244418
 10
3066.497370830788
 20
-1714.441675810197
 30
37.82707534244418
 10
3065.945255456034
 20
-1725.873828348283
 30
37.82707534244418
 10
3064.978341792739
 20
-1737.789923904663
 30
37.82707534244418
 10
3064.011428129443
 20
-1749.706019461043
 30
37.82707534244418
 10
3062.629716177609
 20
-1762.106058035719
 30
37.82707534244418
 10
3061.700742506429
 20
-1774.124869957769
 30
37.82707534244418
 10
3060.77176883525
 20
-1786.143681879821
 30
37.82707534244418
 10
3060.295533444723
 20
-1797.781267149247
 30
37.82707534244418
 10
3061.705369946418
 20
-1811.196470706107
 30
37.82707534244418
 10
3063.115206448112
 20
-1824.611674262968
 30
37.82707534244418
 10
3066.08612738641
 20
-1832.570106778083
 30
37.82707534244418
 10
3071.274044118531
 20
-1835.3187594173
 30
37.82707534244418
  0
SPLINE
  5
AE
330
1F
100
AcDbEntity
  8
Default
 62
     1
420
 16711680
100
AcDbSpline
210
0.0
220
0.0
230
1.0
 70
     9
 71
     3
 72
    29
 73
    25
 74
     0
 42
0.000000001
 43
0.0000000001
 40
729.7141565546346
 40
729.7141565546346
 40
729.7141565546346
 40
729.7141565546346
 40
730.7141565546346
 40
730.7141565546346
 40
730.7141565546346
 40
731.7141565546346
 40
731.7141565546346
 40
731.7141565546346
 40
732.7141565546346
 40
732.7141565546346
 40
732.7141565546346
 40
733.7141565546346
 40
733.7141565546346
 40
733.7141565546346
 40
734.7141565546346
 40
734.7141565546346
 40
734.7141565546346
 40
735.7141565546347
 40
735.7141565546347
 40
735.7141565546347
 40
736.7141565546346
 40
736.7141565546346
 40
736.7141565546346
 40
737.7141565546346
 40
737.7141565546346
 40
737.7141565546346
 40
737.7141565546346
 10
3287.805752818402
 20
-1862.949443648919
 30
37.82707534244418
 10
3294.515471916471
 20
-1882.963749165392
 30
37.82707534244418
 10
3306.91777035149
 20
-1880.959713613889
 30
37.82707534244418
 10
3311.951728036952
 20
-1859.26124704472
 30
37.82707534244418
 10
3316.985685722409
 20
-1837.562780475552
 30
37.82707534244418
 10
3314.651302658314
 20
-1796.169882888719
 30
37.82707534244418
 10
3312.310628071911
 20
-1766.592044272071
 30
37.82707534244418
 10
3309.969953485504
 20
-1737.014205655424
 30
37.82707534244418
 10
3307.62298737679
 20
-1719.251426008965
 30
37.82707534244418
 10
3305.294307416532
 20
-1698.460273505365
 30
37.82707534244418
 10
3302.965627456277
 20
-1677.669121001766
 30
37.82707534244418
 10
3300.655233644476
 20
-1653.849595641028
 30
37.82707534244418
 10
3296.831682882537
 20
-1642.972602229924
 30
37.82707534244418
 10
3293.008132120603
 20
-1632.09560881882
 30
37.82707534244418
 10
3287.671424408529
 20
-1634.16114735735
 30
37.82707534244418
 10
3285.106305051691
 20
-1646.702760164926
 30
37.82707534244418
 10
3282.541185694852
 20
-1659.244372972504
 30
37.82707534244418
 10
3282.747654693248
 20
-1682.262060049128
 30
37.82707534244418
 10
3282.202160943521
 20
-1702.702586560405
 30
37.82707534244418
 10
3281.656667193794
 20
-1723.143113071683
 30
37.82707534244418
 10
3280.359210695946
 20
-1741.006479017615
 30
37.82707534244418
 10
3280.21905232758
 20
-1770.954485282806
 30
37.82707534244418
 10
3280.078893959216
 20
-1800.902491547996
 30
37.82707534244418
 10
3281.096033720334
 20
-1842.935138132446
 30
37.82707534244418
 10
3287.805752818402
 20
-1862.949443648919
 30
37.82707534244418
  0
SPLINE
  5
E2
330
1F
100
AcDbEntity
  8
Default
 62
     1
420
 16711680
100
AcDbSpline
210
0.0
220
0.0
230
1.0
 70
    13
 71
     3
 72
   284
 73
   280
 74
     0
 42
0.000000001
 43
0.0000000001
 40
0.0
 40
0.0
 40
0.0
 40
0.0
 40
9.0
 40
9.0
 40
9.0
 40
27.90707233392641
 40
27.90707233392641
 40
27.90707233392641
 40
36.90707233392641
 40
36.90707233392641
 40
36.90707233392641
 40
39.65596648074939
 40
39.65596648074939
 40
39.65596648074939
 40
42.40486062757224
 40
42.40486062757224
 40
42.40486062757224
 40
45.15375477439522
 40
45.15375477439522
 40
45.15375477439522
 40
47.90264892121808
 40
47.90264892121808
 40
47.90264892121808
 40
86.33993474795364
 40
86.33993474795364
 40
86.33993474795364
 40
91.83772189173556
 40
91.83772189173556
 40
91.83772189173556
 40
97.33550903551758
 40
97.33550903551758
 40
97.33550903551758
 40
106.3355090355176
 40
106.3355090355176
 40
106.3355090355176
 40
125.2425813694436
 40
125.2425813694436
 40
125.2425813694436
 40
134.2425813694436
 40
134.2425813694436
 40
134.2425813694436
 40
136.9914754044755
 40
136.9914754044755
 40
136.9914754044755
 40
139.7403694395075
 40
139.7403694395075
 40
139.7403694395075
 40
142.4892634745395
 40
142.4892634745395
 40
142.4892634745395
 40
145.2381575095715
 40
145.2381575095715
 40
145.2381575095715
 40
170.4919384542842
 40
170.4919384542842
 40
170.4919384542842
 40
175.9897255980664
 40
175.9897255980664
 40
175.9897255980664
 40
181.4875127418486
 40
181.4875127418486
 40
181.4875127418486
 40
187.8270899697032
 40
187.8270899697032
 40
187.8270899697032
 40
206.7341623036296
 40
206.7341623036296
 40
206.7341623036296
 40
213.0737395314839
 40
213.0737395314839
 40
213.0737395314839
 40
215.8226334204762
 40
215.8226334204762
 40
215.8226334204762
 40
218.5715273094686
 40
218.5715273094686
 40
218.5715273094686
 40
221.320421198461
 40
221.320421198461
 40
221.320421198461
 40
224.0693150874534
 40
224.0693150874534
 40
224.0693150874534
 40
242.7059032401427
 40
242.7059032401427
 40
242.7059032401427
 40
242.7954511878192
 40
242.7954511878192
 40
242.7954511878192
 40
242.8893174880287
 40
242.8893174880287
 40
242.8893174880287
 40
242.9831837882382
 40
242.9831837882382
 40
242.9831837882382
 40
243.0770500884476
 40
243.0770500884476
 40
243.0770500884476
 40
243.1709163886571
 40
243.1709163886571
 40
243.1709163886571
 40
243.3049517937545
 40
243.3049517937545
 40
243.3049517937545
 40
254.7011675235984
 40
254.7011675235984
 40
254.7011675235984
 40
254.8911648114374
 40
254.8911648114374
 40
254.8911648114374
 40
255.1291455806682
 40
255.1291455806682
 40
255.1291455806682
 40
255.367126349899
 40
255.367126349899
 40
255.367126349899
 40
255.6051071191297
 40
255.6051071191297
 40
255.6051071191297
 40
255.8430878883605
 40
255.8430878883605
 40
255.8430878883605
 40
256.0243965973397
 40
256.0243965973397
 40
256.0243965973397
 40
270.8164992691111
 40
270.8164992691111
 40
270.8164992691111
 40
270.9282370011116
 40
270.9282370011116
 40
270.9282370011116
 40
271.4041985395732
 40
271.4041985395732
 40
271.4041985395732
 40
271.6421793088039
 40
271.6421793088039
 40
271.6421793088039
 40
271.9775158472654
 40
271.9775158472654
 40
271.9775158472654
 40
272.312852385727
 40
272.312852385727
 40
272.312852385727
 40
272.6071291487758
 40
272.6071291487758
 40
272.6071291487758
 40
278.1049162925585
 40
278.1049162925585
 40
278.1049162925585
 40
283.602703436341
 40
283.602703436341
 40
283.602703436341
 40
292.602703436341
 40
292.602703436341
 40
292.602703436341
 40
311.5097757702672
 40
311.5097757702672
 40
311.5097757702672
 40
320.5097757702672
 40
320.5097757702672
 40
320.5097757702672
 40
326.0075629140495
 40
326.0075629140495
 40
326.0075629140495
 40
331.5053500578315
 40
331.5053500578315
 40
331.5053500578315
 40
350.7277165157666
 40
350.7277165157666
 40
350.7277165157666
 40
356.2255036595487
 40
356.2255036595487
 40
356.2255036595487
 40
361.7232908033307
 40
361.7232908033307
 40
361.7232908033307
 40
370.7232908033307
 40
370.7232908033307
 40
370.7232908033307
 40
389.6303631372567
 40
389.6303631372567
 40
389.6303631372567
 40
398.6303631372567
 40
398.6303631372567
 40
398.6303631372567
 40
404.1281502811434
 40
404.1281502811434
 40
404.1281502811434
 40
409.6259374250304
 40
409.6259374250304
 40
409.6259374250304
 40
441.5003807987583
 40
441.5003807987583
 40
441.5003807987583
 40
444.2492744846739
 40
444.2492744846739
 40
444.2492744846739
 40
446.9981681705897
 40
446.9981681705897
 40
446.9981681705897
 40
449.7470618565054
 40
449.7470618565054
 40
449.7470618565054
 40
452.4959555424209
 40
452.4959555424209
 40
452.4959555424209
 40
461.4959552973582
 40
461.4959552973582
 40
461.4959552973582
 40
480.4030276312847
 40
480.4030276312847
 40
480.4030276312847
 40
489.4030276312847
 40
489.4030276312847
 40
489.4030276312847
 40
489.544514840738
 40
489.544514840738
 40
489.544514840738
 40
489.7392263791994
 40
489.7392263791994
 40
489.7392263791994
 40
489.9339379176611
 40
489.9339379176611
 40
489.9339379176611
 40
490.1286494561225
 40
490.1286494561225
 40
490.1286494561225
 40
490.3233609945842
 40
490.3233609945842
 40
490.3233609945842
 40
490.5180725330456
 40
490.5180725330456
 40
490.5180725330456
 40
490.7127840715073
 40
490.7127840715073
 40
490.7127840715073
 40
490.8160575327879
 40
490.8160575327879
 40
490.8160575327879
 40
503.5894025387086
 40
503.5894025387086
 40
503.5894025387086
 40
536.3977216668281
 40
536.3977216668281
 40
536.3977216668281
 40
541.8955088106104
 40
541.8955088106104
 40
541.8955088106104
 40
547.3932959543924
 40
547.3932959543924
 40
547.3932959543924
 40
556.3932959543924
 40
556.3932959543924
 40
556.3932959543924
 40
561.8910830981747
 40
561.8910830981747
 40
561.8910830981747
 40
567.3888702419567
 40
567.3888702419567
 40
567.3888702419567
 40
604.2586631518674
 40
604.2586631518674
 40
604.2586631518674
 40
615.7783381814304
 40
615.7783381814304
 40
615.7783381814304
 40
615.8781792289024
 40
615.8781792289024
 40
615.8781792289024
 40
616.0689860778712
 40
616.0689860778712
 40
616.0689860778712
 40
616.2597929268404
 40
616.2597929268404
 40
616.2597929268404
 40
616.6414066247783
 40
616.6414066247783
 40
616.6414066247783
 40
616.8686991496758
 40
616.8686991496758
 40
616.8686991496758
 40
616.8686991496758
 10
3180.13036090648
 20
-1849.527980863398
 30
37.82707534244418
 41
1.0
 10
3180.13036090648
 20
-1852.527980863398
 30
37.82707534244418
 41
1.0
 10
3180.13036090648
 20
-1855.527980863398
 30
37.82707534244418
 41
1.0
 10
3180.13036090648
 20
-1858.527980863398
 30
37.82707534244418
 41
1.0
 10
3173.828003461838
 20
-1858.527980863398
 30
37.82707534244418
 41
1.0
 10
3167.525646017197
 20
-1858.527980863398
 30
37.82707534244418
 41
1.0
 10
3161.223288572553
 20
-1858.527980863398
 30
37.82707534244418
 41
1.0
 10
3161.223288572553
 20
-1855.527981629903
 30
37.82707534244418
 41
1.0
 10
3161.223288572553
 20
-1852.527982396409
 30
37.82707534244418
 41
1.0
 10
3161.223288572553
 20
-1849.527983162915
 30
37.82707534244418
 41
1.0
 10
3161.223289190602
 20
-1848.587319098404
 30
37.82707534244416
 41
0.9492530007201992
 10
3160.863313137317
 20
-1847.718258615281
 30
37.82707534244416
 41
0.9492530007201992
 10
3160.198163526247
 20
-1847.053108348681
 30
37.82707534244418
 41
1.0
 10
3159.533013915177
 20
-1846.38795808208
 30
37.82707534244416
 41
0.9492530007201992
 10
3158.663953786825
 20
-1846.027981172304
 30
37.82707534244416
 41
0.9492530007201992
 10
3157.723289722313
 20
-1846.027980863293
 30
37.82707534244418
 41
1.0
 10
3156.782625657803
 20
-1846.027980554283
 30
37.82707534244416
 41
0.9492530007201992
 10
3155.913565292942
 20
-1846.387956893082
 30
37.82707534244416
 41
0.9492530007201992
 10
3155.248415244865
 20
-1847.053106722676
 30
37.82707534244418
 41
1.0
 10
3154.583265196788
 20
-1847.718256552269
 30
37.82707534244416
 41
0.9492530007201992
 10
3154.223288572526
 20
-1848.587316798886
 30
37.82707534244416
 41
0.9492530007201992
 10
3154.223288572555
 20
-1849.527980863398
 30
37.82707534244418
 41
1.0
 10
3141.410859963642
 20
-1849.527980863398
 30
37.82707534244418
 41
1.0
 10
3128.598431354732
 20
-1849.527980863398
 30
37.82707534244418
 41
1.0
 10
3115.786002745819
 20
-1849.527980863398
 30
37.82707534244418
 41
1.0
 10
3115.786002745819
 20
-1847.477728331704
 30
37.82707534244418
 41
0.8047378541243755
 10
3114.336255277513
 20
-1846.027980863398
 30
37.82707534244418
 41
0.8047378541243755
 10
3112.286002745817
 20
-1846.027980863398
 30
37.82707534244418
 41
1.0
 10
3110.235750214124
 20
-1846.027980863398
 30
37.82707534244418
 41
0.8047378541243755
 10
3108.78600274582
 20
-1847.477728331703
 30
37.82707534244418
 41
0.8047378541243755
 10
3108.786002745819
 20
-1849.527980863398
 30
37.82707534244418
 41
1.0
 10
3108.786002745819
 20
-1852.527980863398
 30
37.82707534244418
 41
1.0
 10
3108.786002745819
 20
-1855.527980863398
 30
37.82707534244418
 41
1.0
 10
3108.786002745819
 20
-1858.527980863398
 30
37.82707534244418
 41
1.0
 10
3102.483645301176
 20
-1858.527980863398
 30
37.82707534244418
 41
1.0
 10
3096.181287856534
 20
-1858.527980863398
 30
37.82707534244418
 41
1.0
 10
3089.878930411893
 20
-1858.527980863398
 30
37.82707534244418
 41
1.0
 10
3089.878930411893
 20
-1855.527981480849
 30
37.82707534244418
 41
1.0
 10
3089.878930411893
 20
-1852.527982098301
 30
37.82707534244418
 41
1.0
 10
3089.878930411893
 20
-1849.527982715752
 30
37.82707534244418
 41
1.0
 10
3089.87893090976
 20
-1848.587318691544
 30
37.82707534244418
 41
0.9492530047945372
 10
3089.518954774746
 20
-1847.718258285899
 30
37.82707534244418
 41
0.9492530047945372
 10
3088.853805128441
 20
-1847.053108111537
 30
37.82707534244418
 41
1.0
 10
3088.188655482135
 20
-1846.387957937171
 30
37.82707534244418
 41
0.9492530047945372
 10
3087.319595362276
 20
-1846.027981112213
 30
37.82707534244418
 41
0.9492530047945372
 10
3086.378931338071
 20
-1846.027980863293
 30
37.82707534244418
 41
1.0
 10
3085.438267313862
 20
-1846.027980614372
 30
37.82707534244418
 41
0.9492530047945372
 10
3084.569207003487
 20
-1846.387956979385
 30
37.82707534244418
 41
0.9492530047945372
 10
3083.904057005155
 20
-1847.053106801724
 30
37.82707534244418
 41
1.0
 10
3083.238907006823
 20
-1847.718256624062
 30
37.82707534244418
 41
0.9492530047945372
 10
3082.878930411863
 20
-1848.587316839191
 30
37.82707534244418
 41
0.9492530047945372
 10
3082.878930411893
 20
-1849.527980863398
 30
37.82707534244418
 41
1.0
 10
3074.461003430323
 20
-1849.527980863398
 30
37.82707534244418
 41
1.0
 10
3066.04307644875
 20
-1849.527980863398
 30
37.82707534244418
 41
1.0
 10
3057.62514946718
 20
-1849.527980863398
 30
37.82707534244418
 41
1.0
 10
3057.62514946718
 20
-1847.477728331704
 30
37.82707534244418
 41
0.8047378541243649
 10
3056.175401998874
 20
-1846.027980863398
 30
37.82707534244418
 41
0.8047378541243649
 10
3054.12514946718
 20
-1846.027980863398
 30
37.82707534244418
 41
1.0
 10
3052.074896935486
 20
-1846.027980863398
 30
37.82707534244418
 41
0.8047378541243649
 10
3050.625149467178
 20
-1847.477728331704
 30
37.82707534244418
 41
0.8047378541243649
 10
3050.62514946718
 20
-1849.527980863398
 30
37.82707534244418
 41
1.0
 10
3050.62514946718
 20
-1852.527980863398
 30
37.82707534244418
 41
1.0
 10
3050.62514946718
 20
-1855.527980863398
 30
37.82707534244418
 41
1.0
 10
3050.62514946718
 20
-1858.527980863398
 30
37.82707534244418
 41
1.0
 10
3044.322792022536
 20
-1858.527980863398
 30
37.82707534244418
 41
1.0
 10
3038.020434577895
 20
-1858.527980863398
 30
37.82707534244418
 41
1.0
 10
3031.718077133254
 20
-1858.527980863398
 30
37.82707534244418
 41
1.0
 10
3031.718077133254
 20
-1855.52798128613
 30
37.82707534244418
 41
1.0
 10
3031.718077133254
 20
-1852.527981708862
 30
37.82707534244418
 41
1.0
 10
3031.718077133254
 20
-1849.527982131594
 30
37.82707534244418
 41
1.0
 10
3031.718077474122
 20
-1848.58731816004
 30
37.82707534244418
 41
0.9492530101171031
 10
3031.358101232339
 20
-1847.718257855612
 30
37.82707534244418
 41
0.9492530101171031
 10
3030.692951540006
 20
-1847.053107801739
 30
37.82707534244418
 41
1.0
 10
3030.02780184767
 20
-1846.387957747867
 30
37.82707534244418
 41
0.9492530101171031
 10
3029.158741738904
 20
-1846.027981033714
 30
37.82707534244418
 41
0.9492530101171031
 10
3028.218077767351
 20
-1846.027980863293
 30
37.82707534244418
 41
1.0
 10
3027.277413795796
 20
-1846.027980692873
 30
37.82707534244418
 41
0.9492530101171031
 10
3026.408353556596
 20
-1846.387957092129
 30
37.82707534244418
 41
0.9492530101171031
 10
3025.743203623251
 20
-1847.05310690499
 30
37.82707534244418
 41
1.0
 10
3025.078053689903
 20
-1847.718256717851
 30
37.82707534244418
 41
0.9492530101171031
 10
3024.718077133224
 20
-1848.587316891844
 30
37.82707534244418
 41
0.9492530101171031
 10
3024.718077133254
 20
-1849.527980863398
 30
37.82707534244418
 41
1.0
 10
3018.505881082357
 20
-1849.527980863398
 30
37.82707534244418
 41
1.0
 10
3012.29368503146
 20
-1849.527980863398
 30
37.82707534244418
 41
1.0
 10
3006.081488980564
 20
-1849.527980863398
 30
37.82707534244418
 41
1.0
 10
3000.381101967962
 20
-1844.988201562988
 30
37.82707534244418
 41
1.0
 10
3001.576264906236
 20
-1840.679951516846
 30
37.82707534244418
 41
1.0
 10
3003.378864227907
 20
-1835.764871065257
 30
37.82707534244418
 41
1.0
 10
3005.268391944346
 20
-1830.612766196382
 30
37.82707534244418
 41
1.0
 10
3007.825354585259
 20
-1824.793892235464
 30
37.82707534244418
 41
1.0
 10
3021.068098169728
 20
-1808.647979997344
 30
37.82707534244418
 41
1.0
 10
3034.310841754208
 20
-1792.502067759214
 30
37.82707534244418
 41
1.0
 10
3039.484558545386
 20
-1760.795245581971
 30
37.82707534244418
 41
1.0
 10
3045.239521073992
 20
-1729.089358040968
 30
37.82707534244418
 41
1.0
 10
3050.994483602597
 20
-1697.383470499965
 30
37.82707534244418
 41
1.0
 10
3057.330691868627
 20
-1665.678517595202
 30
37.82707534244418
 41
1.0
 10
3061.288095199101
 20
-1642.450688303579
 30
37.82707534244418
 41
1.0
 10
3065.245498529578
 20
-1619.222859011956
 30
37.82707534244418
 41
1.0
 10
3066.824096924496
 20
-1604.472153333473
 30
37.82707534244418
 41
1.0
 10
3070.754655731071
 20
-1586.996014864867
 30
37.82707534244418
 41
1.0
 10
3072.968423018239
 20
-1571.350586300347
 30
37.82707534244418
 41
1.0
 10
3075.928270208953
 20
-1558.108702558023
 30
37.82707534244418
 41
1.0
 10
3079.57246433891
 20
-1550.354833973934
 30
37.82707534244418
 41
1.0
 10
3084.548632999396
 20
-1550.354833973934
 30
37.82707534244418
 41
1.0
 10
3089.524801659882
 20
-1550.354833973933
 30
37.82707534244418
 41
1.0
 10
3094.500970320369
 20
-1550.354833973933
 30
37.82707534244418
 41
1.0
 10
3101.708127739605
 20
-1563.816021173485
 30
37.82707534244418
 41
1.0
 10
3109.970546181834
 20
-1593.510909462397
 30
37.82707534244418
 41
1.0
 10
3118.402709092788
 20
-1615.02111599997
 30
37.82707534244418
 41
1.0
 10
3128.964399939283
 20
-1641.963687424791
 30
37.82707534244418
 41
1.0
 10
3134.378399467731
 20
-1654.165806175527
 30
37.82707534244418
 41
1.0
 10
3144.085732216805
 20
-1678.798383197723
 30
37.82707534244418
 41
1.0
 10
3153.793064965879
 20
-1703.430960219918
 30
37.82707534244418
 41
1.0
 10
3167.793730935582
 20
-1740.493995513573
 30
37.82707534244418
 41
1.0
 10
3192.99030113024
 20
-1742.098239133227
 30
37.82707534244418
 41
1.0
 10
3218.186871324897
 20
-1743.702482752881
 30
37.82707534244418
 41
1.0
 10
3229.539920880192
 20
-1708.567058921917
 30
37.82707534244418
 41
1.0
 10
3237.89757627397
 20
-1684.257849742757
 30
37.82707534244418
 41
1.0
 10
3246.255231667748
 20
-1659.948640563596
 30
37.82707534244418
 41
1.0
 10
3251.617492900015
 20
-1646.465646036241
 30
37.82707534244418
 41
1.0
 10
3261.251668626095
 20
-1616.379984472708
 30
37.82707534244418
 41
1.0
 10
3268.591589278592
 20
-1593.458836371121
 30
37.82707534244418
 41
1.0
 10
3275.298634506373
 20
-1565.220713848741
 30
37.82707534244418
 41
1.0
 10
3281.890964005461
 20
-1550.354833973933
 30
37.82707534244418
 41
1.0
 10
3288.349949995449
 20
-1550.354833973933
 30
37.82707534244418
 41
1.0
 10
3294.808935985437
 20
-1550.354833973933
 30
37.82707534244418
 41
1.0
 10
3301.267921975423
 20
-1550.354833973933
 30
37.82707534244418
 41
1.0
 10
3304.842988687276
 20
-1557.747289470306
 30
37.82707534244418
 41
1.0
 10
3307.979965815601
 20
-1568.269896141779
 30
37.82707534244418
 41
1.0
 10
3310.275217470176
 20
-1579.412722582474
 30
37.82707534244418
 41
1.0
 10
3332.131616682558
 20
-1688.690922919234
 30
37.82707534244418
 41
1.0
 10
3339.728113675608
 20
-1719.815163095485
 30
37.82707534244418
 41
1.0
 10
3344.792445004311
 20
-1740.564656546321
 30
37.82707534244418
 41
1.0
 10
3347.324610668658
 20
-1750.939403271737
 30
37.82707534244418
 41
1.0
 10
3355.103936094489
 20
-1781.858784747327
 30
37.82707534244418
 41
1.0
 10
3360.251393707933
 20
-1804.872227562171
 30
37.82707534244418
 41
1.0
 10
3365.398851321375
 20
-1827.885670377015
 30
37.82707534244418
 41
1.0
 10
3366.656646221903
 20
-1835.439422454063
 30
37.82707534244418
 41
1.0
 10
3370.534260938701
 20
-1845.250061489005
 30
37.82707534244418
 41
1.0
 10
3374.411875655499
 20
-1855.060700523946
 30
37.82707534244418
 41
1.0
 10
3380.909310188564
 20
-1867.128226516779
 30
37.82707534244418
 41
1.0
 10
3380.285489754589
 20
-1875.247910960742
 30
37.82707534244418
 41
1.0
 10
3379.738052070414
 20
-1882.373392920181
 30
37.82707534244418
 41
1.0
 10
3373.706497254828
 20
-1886.458620658915
 30
37.82707534244418
 41
1.0
 10
3364.873008471122
 20
-1888.843741539145
 30
37.82707534244418
 41
1.0
 10
3364.448666214434
 20
-1886.837882846986
 30
37.82707534244418
 41
0.8047378541243292
 10
3362.730254643857
 20
-1885.71958185091
 30
37.82707534244418
 41
0.8047378541243292
 10
3360.724395951699
 20
-1886.1439241076
 30
37.82707534244418
 41
1.0
 10
3358.71853725954
 20
-1886.56826636429
 30
37.82707534244418
 41
0.8047378541243292
 10
3357.600236263464
 20
-1888.286677934866
 30
37.82707534244418
 41
0.8047378541243292
 10
3358.024578520153
 20
-1890.292536627024
 30
37.82707534244418
 41
1.0
 10
3358.024578520153
 20
-1893.292536627024
 30
37.82707534244418
 41
1.0
 10
3358.024578520153
 20
-1896.292536627024
 30
37.82707534244418
 41
1.0
 10
3358.024578520153
 20
-1899.292536627024
 30
37.82707534244418
 41
1.0
 10
3351.722221075512
 20
-1899.292536627024
 30
37.82707534244418
 41
1.0
 10
3345.41986363087
 20
-1899.292536627024
 30
37.82707534244418
 41
1.0
 10
3339.117506186227
 20
-1899.292536627024
 30
37.82707534244418
 41
1.0
 10
3339.117506186227
 20
-1896.292536627024
 30
37.82707534244418
 41
1.0
 10
3339.117506186227
 20
-1893.292536627024
 30
37.82707534244418
 41
1.0
 10
3339.117506186229
 20
-1890.292536627024
 30
37.82707534244418
 41
1.0
 10
3339.117506186227
 20
-1888.24228409533
 30
37.82707534244418
 41
0.8047378541243658
 10
3337.667758717922
 20
-1886.792536627024
 30
37.82707534244418
 41
0.8047378541243658
 10
3335.617506186229
 20
-1886.792536627024
 30
37.82707534244418
 41
1.0
 10
3333.567253654533
 20
-1886.792536627024
 30
37.82707534244418
 41
0.8047378541243658
 10
3332.117506186227
 20
-1888.24228409533
 30
37.82707534244418
 41
0.8047378541243658
 10
3332.117506186229
 20
-1890.292536627024
 30
37.82707534244418
 41
1.0
 10
3325.710050700249
 20
-1890.292536627024
 30
37.82707534244418
 41
1.0
 10
3319.302595214271
 20
-1890.292536627024
 30
37.82707534244418
 41
1.0
 10
3312.895139728293
 20
-1890.292536627024
 30
37.82707534244418
 41
1.0
 10
3312.895139728292
 20
-1888.24228409533
 30
37.82707534244418
 41
0.8047378541243718
 10
3311.445392259987
 20
-1886.792536627024
 30
37.82707534244418
 41
0.8047378541243718
 10
3309.395139728293
 20
-1886.792536627024
 30
37.82707534244418
 41
1.0
 10
3307.3448871966
 20
-1886.792536627023
 30
37.82707534244418
 41
0.8047378541243718
 10
3305.895139728294
 20
-1888.242284095329
 30
37.82707534244418
 41
0.8047378541243718
 10
3305.895139728292
 20
-1890.292536627024
 30
37.82707534244418
 41
1.0
 10
3305.895139728292
 20
-1893.292536627024
 30
37.82707534244418
 41
1.0
 10
3305.895139728292
 20
-1896.292536627024
 30
37.82707534244418
 41
1.0
 10
3305.895139728292
 20
-1899.292536627024
 30
37.82707534244418
 41
1.0
 10
3299.592782283649
 20
-1899.292536627024
 30
37.82707534244418
 41
1.0
 10
3293.290424839008
 20
-1899.292536627024
 30
37.82707534244418
 41
1.0
 10
3286.988067394366
 20
-1899.292536627024
 30
37.82707534244418
 41
1.0
 10
3286.988067394366
 20
-1896.292536626989
 30
37.82707534244418
 41
1.0
 10
3286.988067394366
 20
-1893.292536626954
 30
37.82707534244418
 41
1.0
 10
3286.988067394366
 20
-1890.292536626919
 30
37.82707534244418
 41
1.0
 10
3286.988067394367
 20
-1888.242284095176
 30
37.82707534244418
 41
0.804737854117307
 10
3285.538319926005
 20
-1886.792536626858
 30
37.82707534244418
 41
0.804737854117307
 10
3283.488067394263
 20
-1886.792536626919
 30
37.82707534244418
 41
1.0
 10
3281.43781486252
 20
-1886.79253662698
 30
37.82707534244418
 41
0.804737854117307
 10
3279.988067394244
 20
-1888.242284095386
 30
37.82707534244418
 41
0.804737854117307
 10
3279.988067394366
 20
-1890.292536627129
 30
37.82707534244418
 41
1.0
 10
3269.363252936457
 20
-1890.292536627094
 30
37.82707534244418
 41
1.0
 10
3258.738438478547
 20
-1890.292536627059
 30
37.82707534244418
 41
1.0
 10
3248.113624020638
 20
-1890.292536627024
 30
37.82707534244418
 41
1.0
 10
3248.11362402064
 20
-1889.351872728687
 30
37.82707534244418
 41
0.9492530175184468
 10
3247.753647517165
 20
-1888.482812611904
 30
37.82707534244418
 41
0.9492530175184468
 10
3247.088497674164
 20
-1887.817662812244
 30
37.82707534244418
 41
1.0
 10
3246.423347831163
 20
-1887.152513012581
 30
37.82707534244418
 41
0.9492530175184468
 10
3245.554287690926
 20
-1886.792536565732
 30
37.82707534244418
 41
0.9492530175184468
 10
3244.613623792589
 20
-1886.792536627024
 30
37.82707534244418
 41
1.0
 10
3243.672959894251
 20
-1886.792536688315
 30
37.82707534244418
 41
0.9492530175184468
 10
3242.803899800927
 20
-1887.152513248414
 30
37.82707534244418
 41
0.9492530175184468
 10
3242.138750044604
 20
-1887.817663134754
 30
37.82707534244418
 41
1.0
 10
3241.473600288281
 20
-1888.482813021094
 30
37.82707534244418
 41
0.9492530175184468
 10
3241.113623898056
 20
-1889.351873184784
 30
37.82707534244418
 41
0.9492530175184468
 10
3241.113624020638
 20
-1890.292537083122
 30
37.82707534244418
 41
1.0
 10
3241.113624020638
 20
-1893.292536931088
 30
37.82707534244418
 41
1.0
 10
3241.113624020638
 20
-1896.292536779057
 30
37.82707534244418
 41
1.0
 10
3241.113624020638
 20
-1899.292536627024
 30
37.82707534244418
 41
1.0
 10
3234.811266575996
 20
-1899.292536627024
 30
37.82707534244418
 41
1.0
 10
3228.508909131355
 20
-1899.292536627024
 30
37.82707534244418
 41
1.0
 10
3222.206551686713
 20
-1899.292536627024
 30
37.82707534244418
 41
1.0
 10
3222.206551686713
 20
-1896.292536627024
 30
37.82707534244418
 41
1.0
 10
3222.206551686713
 20
-1893.292536627024
 30
37.82707534244418
 41
1.0
 10
3222.206551686713
 20
-1890.292536627024
 30
37.82707534244418
 41
1.0
 10
3210.339468334516
 20
-1887.425296299004
 30
37.82707534244418
 41
1.0
 10
3207.839406389234
 20
-1882.467348018941
 30
37.82707534244418
 41
1.0
 10
3209.702973967796
 20
-1875.103816931655
 30
37.82707534244418
 41
1.0
 10
3212.267574058867
 20
-1864.970289865456
 30
37.82707534244418
 41
1.0
 10
3223.096299307055
 20
-1850.280913755233
 30
37.82707534244418
 41
1.0
 10
3230.788113060016
 20
-1835.483326611175
 30
37.82707534244418
 41
1.0
 10
3238.479926812978
 20
-1820.685739467115
 30
37.82707534244418
 41
1.0
 10
3243.034829070713
 20
-1805.77994128922
 30
37.82707534244418
 41
1.0
 10
3247.290998762614
 20
-1791.956900333054
 30
37.82707534244418
 41
1.0
 10
3251.547168454512
 20
-1778.133859376889
 30
37.82707534244418
 41
1.0
 10
3255.504605580576
 20
-1765.393575642453
 30
37.82707534244418
 41
1.0
 10
3258.95233182928
 20
-1745.868255136091
 30
37.82707534244418
 41
1.0
 10
3262.400058077981
 20
-1726.342934629729
 30
37.82707534244418
 41
1.0
 10
3265.338073449328
 20
-1700.032577351442
 30
37.82707534244418
 41
1.0
 10
3261.962043751546
 20
-1698.390207029427
 30
37.82707534244418
 41
1.0
 10
3258.586014053762
 20
-1696.747836707413
 30
37.82707534244418
 41
1.0
 10
3248.895939286853
 20
-1719.77345334167
 30
37.82707534244418
 41
1.0
 10
3241.685785642645
 20
-1736.984204356923
 30
37.82707534244418
 41
1.0
 10
3234.475631998437
 20
-1754.194955372175
 30
37.82707534244418
 41
1.0
 10
3229.745399476929
 20
-1765.590840768425
 30
37.82707534244418
 41
1.0
 10
3221.917520715835
 20
-1783.924786417603
 30
37.82707534244418
 41
1.0
 10
3217.765675681221
 20
-1793.648966304851
 30
37.82707534244418
 41
1.0
 10
3214.244702270053
 20
-1802.837657235745
 30
37.82707534244418
 41
1.0
 10
3209.993576745912
 20
-1809.229276652076
 30
37.82707534244418
 41
1.0
 10
3206.635235517962
 20
-1814.278583918429
 30
37.82707534244416
 41
0.5261785191853152
 10
3200.830335224303
 20
-1812.524419657568
 30
37.82707534244416
 41
0.5261785191853152
 10
3200.830335224303
 20
-1806.460265992512
 30
37.82707534244418
 41
1.0
 10
3200.830335224304
 20
-1799.419375471811
 30
37.82707534244418
 41
1.0
 10
3200.830335224304
 20
-1792.378484951108
 30
37.82707534244418
 41
1.0
 10
3200.830335224304
 20
-1785.337594430405
 30
37.82707534244418
 41
1.0
 10
3202.880587755999
 20
-1785.337594430405
 30
37.82707534244418
 41
0.8047378541242732
 10
3204.330335224306
 20
-1783.887846962099
 30
37.82707534244418
 41
0.8047378541242732
 10
3204.330335224306
 20
-1781.837594430405
 30
37.82707534244418
 41
1.0
 10
3204.330335224307
 20
-1779.78734189871
 30
37.82707534244419
 41
0.8047378541242732
 10
3202.880587756
 20
-1778.337594430403
 30
37.82707534244419
 41
0.8047378541242732
 10
3200.830335224305
 20
-1778.337594430404
 30
37.82707534244419
 41
1.0
 10
3197.830335224304
 20
-1778.337594430404
 30
37.82707534244418
 41
1.0
 10
3194.830335224305
 20
-1778.337594430404
 30
37.82707534244418
 41
1.0
 10
3191.830335224305
 20
-1778.337594430404
 30
37.82707534244418
 41
1.0
 10
3189.780082692611
 20
-1778.337594430404
 30
37.82707534244418
 41
0.804737854124365
 10
3188.330335224305
 20
-1779.78734189871
 30
37.82707534244418
 41
0.804737854124365
 10
3188.330335224305
 20
-1781.837594430405
 30
37.82707534244418
 41
1.0
 10
3188.330335224305
 20
-1783.887846962099
 30
37.82707534244419
 41
0.8047378541243649
 10
3189.780082692611
 20
-1785.337594430405
 30
37.82707534244419
 41
0.8047378541243649
 10
3191.830335224305
 20
-1785.337594430405
 30
37.82707534244419
 41
0.9999999999999998
 10
3191.830335224305
 20
-1793.250105107527
 30
37.82707534244418
 41
1.0
 10
3191.830335224305
 20
-1801.162615784648
 30
37.82707534244418
 41
1.0
 10
3191.830335224305
 20
-1809.07512646177
 30
37.82707534244418
 41
1.0
 10
3191.830335224302
 20
-1814.113039538526
 30
37.82707534244418
 41
0.6044605238513283
 10
3187.22786976498
 20
-1816.161912366385
 30
37.82707534244419
 41
0.6044605238513282
 10
3183.484309176656
 20
-1812.790514690268
 30
37.82707534244419
 41
0.9999999999999998
 10
3176.474050335002
 20
-1806.477174806984
 30
37.82707534244418
 41
1.0
 10
3170.302871345257
 20
-1795.142844135311
 30
37.82707534244418
 41
1.0
 10
3165.516313499352
 20
-1782.259632902618
 30
37.82707534244418
 41
1.0
 10
3156.36869292534
 20
-1757.638447506869
 30
37.82707534244418
 41
1.0
 10
3144.606757970238
 20
-1722.33974951915
 30
37.82707534244418
 41
1.0
 10
3139.732652743834
 20
-1717.706624846003
 30
37.82707534244418
 41
1.0
 10
3134.858547517431
 20
-1713.073500172857
 30
37.82707534244418
 41
1.0
 10
3132.123443661545
 20
-1723.373790087449
 30
37.82707534244418
 41
1.0
 10
3134.636057566674
 20
-1737.783355523715
 30
37.82707534244418
 41
1.0
 10
3139.661285376924
 20
-1766.602486396221
 30
37.82707534244418
 41
1.0
 10
3158.174870190694
 20
-1800.003045043778
 30
37.82707534244418
 41
1.0
 10
3169.509678214841
 20
-1823.080736863772
 30
37.82707534244418
 41
1.0
 10
3176.260791052136
 20
-1836.826016110606
 30
37.82707534244418
 41
1.0
 10
3180.465232872768
 20
-1846.909258421473
 30
37.82707534244418
 41
1.0
 10
3180.13036090648
 20
-1849.527980863398
 30
37.82707534244418
 41
1.0
  0
SPLINE
  5
EA
330
1F
100
AcDbEntity
  8
Default
 62
     1
420
 16711680
100
AcDbSpline
210
0.0000000000000003
220
0.0000000000000017
230
1.0
 70
    13
 71
     2
 72
    28
 73
    25
 74
     0
 42
0.000000001
 43
0.0000000001
 40
0.0
 40
0.0
 40
0.0
 40
9.0
 40
9.0
 40
14.4977871437822
 40
14.4977871437822
 40
19.99557428756441
 40
19.99557428756441
 40
24.9026466214907
 40
24.9026466214907
 40
30.40043376527282
 40
30.40043376527282
 40
35.89822090905491
 40
35.89822090905491
 40
44.89822090905491
 40
44.89822090905491
 40
50.39600805283701
 40
50.39600805283701
 40
55.89379519661912
 40
55.89379519661912
 40
60.8008675305453
 40
60.8008675305453
 40
66.29865467432748
 40
66.29865467432748
 40
71.7964418181096
 40
71.7964418181096
 40
71.7964418181096
 10
2986.720067127557
 20
-1523.971878588808
 30
37.82707534244418
 41
1.0
 10
2988.93954569352
 20
-1527.886455819523
 30
37.82707534244418
 41
1.0
 10
2991.159024259483
 20
-1531.801033050239
 30
37.82707534244418
 41
1.0
 10
2992.885285366343
 20
-1534.845704229683
 30
37.82707534244418
 41
0.7071067811865395
 10
2995.929956545788
 20
-1533.119443122824
 30
37.82707534244418
 41
1.0
 10
2998.974627725233
 20
-1531.393182015963
 30
37.82707534244418
 41
0.7071067811865395
 10
2997.248366618373
 20
-1528.348510836519
 30
37.82707534244418
 41
1.0
 10
2999.382712577024
 20
-1527.138383962432
 30
37.82707534244418
 41
1.0
 10
3001.517058535675
 20
-1525.928257088346
 30
37.82707534244418
 41
1.0
 10
3003.243319642534
 20
-1528.972928267791
 30
37.82707534244418
 41
0.7071067811865476
 10
3006.28799082198
 20
-1527.246667160931
 30
37.82707534244418
 41
1.0
 10
3009.332662001423
 20
-1525.520406054072
 30
37.82707534244418
 41
0.7071067811865476
 10
3007.606400894565
 20
-1522.475734874627
 30
37.82707534244418
 41
1.0
 10
3005.386922328602
 20
-1518.561157643912
 30
37.82707534244418
 41
1.0
 10
3003.167443762641
 20
-1514.646580413197
 30
37.82707534244418
 41
1.0
 10
3001.441182655779
 20
-1511.601909233751
 30
37.82707534244416
 41
0.7071067811865522
 10
2998.396511476336
 20
-1513.328170340611
 30
37.82707534244418
 41
1.0
 10
2995.351840296891
 20
-1515.054431447471
 30
37.82707534244416
 41
0.7071067811865522
 10
2997.078101403749
 20
-1518.099102626917
 30
37.82707534244418
 41
1.0
 10
2994.9437554451
 20
-1519.309229501003
 30
37.82707534244418
 41
1.0
 10
2992.809409486448
 20
-1520.519356375089
 30
37.82707534244418
 41
1.0
 10
2991.083148379587
 20
-1517.474685195643
 30
37.82707534244418
 41
0.7071067811865476
 10
2988.038477200143
 20
-1519.200946302504
 30
37.82707534244418
 41
1.0
 10
2984.993806020696
 20
-1520.927207409363
 30
37.82707534244418
 41
0.7071067811865476
 10
2986.720067127557
 20
-1523.971878588808
 30
37.82707534244418
 41
1.0
  0
SPLINE
  5
F2
330
1F
100
AcDbEntity
  8
Default
 62
     1
420
 16711680
100
AcDbSpline
210
0.0000000000000003
220
0.0000000000000017
230
1.0
 70
    13
 71
     2
 72
    28
 73
    25
 74
     0
 42
0.000000001
 43
0.0000000001
 40
0.0
 40
0.0
 40
0.0
 40
9.0
 40
9.0
 40
14.4977871437822
 40
14.4977871437822
 40
19.99557428756441
 40
19.99557428756441
 40
24.9026466214907
 40
24.9026466214907
 40
30.40043376527282
 40
30.40043376527282
 40
35.89822090905491
 40
35.89822090905491
 40
44.89822090905491
 40
44.89822090905491
 40
50.39600805283701
 40
50.39600805283701
 40
55.89379519661912
 40
55.89379519661912
 40
60.8008675305453
 40
60.8008675305453
 40
66.29865467432748
 40
66.29865467432748
 40
71.7964418181096
 40
71.7964418181096
 40
71.7964418181096
 10
2936.125588913441
 20
-1552.657826862148
 30
37.82707534244418
 41
1.0
 10
2938.345067479405
 20
-1556.572404092863
 30
37.82707534244418
 41
1.0
 10
2940.564546045365
 20
-1560.486981323578
 30
37.82707534244418
 41
1.0
 10
2942.290807152227
 20
-1563.531652503022
 30
37.82707534244418
 41
0.7071067811865395
 10
2945.33547833167
 20
-1561.805391396163
 30
37.82707534244418
 41
1.0
 10
2948.380149511117
 20
-1560.079130289302
 30
37.82707534244418
 41
0.7071067811865395
 10
2946.653888404257
 20
-1557.034459109859
 30
37.82707534244418
 41
1.0
 10
2948.788234362906
 20
-1555.824332235772
 30
37.82707534244418
 41
1.0
 10
2950.922580321558
 20
-1554.614205361686
 30
37.82707534244418
 41
1.0
 10
2952.648841428417
 20
-1557.65887654113
 30
37.82707534244418
 41
0.7071067811865476
 10
2955.693512607862
 20
-1555.932615434272
 30
37.82707534244418
 41
1.0
 10
2958.738183787309
 20
-1554.206354327411
 30
37.82707534244418
 41
0.7071067811865476
 10
2957.011922680449
 20
-1551.161683147966
 30
37.82707534244418
 41
1.0
 10
2954.792444114486
 20
-1547.247105917251
 30
37.82707534244418
 41
1.0
 10
2952.572965548523
 20
-1543.332528686537
 30
37.82707534244418
 41
1.0
 10
2950.846704441665
 20
-1540.287857507091
 30
37.82707534244416
 41
0.7071067811865522
 10
2947.802033262219
 20
-1542.014118613952
 30
37.82707534244418
 41
1.0
 10
2944.757362082774
 20
-1543.74037972081
 30
37.82707534244416
 41
0.7071067811865522
 10
2946.483623189634
 20
-1546.785050900256
 30
37.82707534244418
 41
1.0
 10
2944.349277230982
 20
-1547.995177774343
 30
37.82707534244418
 41
1.0
 10
2942.214931272331
 20
-1549.205304648429
 30
37.82707534244418
 41
1.0
 10
2940.48867016547
 20
-1546.160633468982
 30
37.82707534244418
 41
0.7071067811865476
 10
2937.443998986026
 20
-1547.886894575843
 30
37.82707534244418
 41
1.0
 10
2934.399327806581
 20
-1549.613155682702
 30
37.82707534244418
 41
0.7071067811865476
 10
2936.125588913441
 20
-1552.657826862148
 30
37.82707534244418
 41
1.0
  0
SPLINE
  5
FA
330
1F
100
AcDbEntity
  8
Default
 62
     1
420
 16711680
100
AcDbSpline
210
-0.0000000000000001
220
-0.0000000000000006
230
1.0
 70
    13
 71
     2
 72
    28
 73
    25
 74
     0
 42
0.000000001
 43
0.0000000001
 40
0.0
 40
0.0
 40
0.0
 40
9.0
 40
9.0
 40
14.4977871437822
 40
14.4977871437822
 40
19.99557428756441
 40
19.99557428756441
 40
24.9026466214907
 40
24.9026466214907
 40
30.40043376527282
 40
30.40043376527282
 40
35.89822090905491
 40
35.89822090905491
 40
44.89822090905491
 40
44.89822090905491
 40
50.39600805283701
 40
50.39600805283701
 40
55.89379519661912
 40
55.89379519661912
 40
60.8008675305453
 40
60.8008675305453
 40
66.29865467432748
 40
66.29865467432748
 40
71.7964418181096
 40
71.7964418181096
 40
71.7964418181096
 10
2874.062700025506
 20
-1587.846109915468
 30
37.82707534244418
 41
1.0
 10
2876.282178591468
 20
-1591.760687146182
 30
37.82707534244418
 41
1.0
 10
2878.501657157429
 20
-1595.675264376898
 30
37.82707534244418
 41
1.0
 10
2880.227918264291
 20
-1598.719935556341
 30
37.82707534244418
 41
0.7071067811865395
 10
2883.272589443734
 20
-1596.993674449483
 30
37.82707534244418
 41
1.0
 10
2886.317260623181
 20
-1595.267413342622
 30
37.82707534244418
 41
0.7071067811865395
 10
2884.59099951632
 20
-1592.222742163178
 30
37.82707534244418
 41
1.0
 10
2886.725345474971
 20
-1591.012615289092
 30
37.82707534244418
 41
1.0
 10
2888.859691433621
 20
-1589.802488415006
 30
37.82707534244418
 41
1.0
 10
2890.585952540482
 20
-1592.847159594449
 30
37.82707534244418
 41
0.7071067811865476
 10
2893.630623719928
 20
-1591.120898487591
 30
37.82707534244418
 41
1.0
 10
2896.675294899373
 20
-1589.39463738073
 30
37.82707534244418
 41
0.7071067811865476
 10
2894.949033792513
 20
-1586.349966201287
 30
37.82707534244418
 41
1.0
 10
2892.729555226551
 20
-1582.435388970572
 30
37.82707534244418
 41
1.0
 10
2890.510076660586
 20
-1578.520811739856
 30
37.82707534244418
 41
1.0
 10
2888.783815553727
 20
-1575.47614056041
 30
37.82707534244416
 41
0.7071067811865522
 10
2885.739144374284
 20
-1577.202401667271
 30
37.82707534244418
 41
1.0
 10
2882.694473194839
 20
-1578.92866277413
 30
37.82707534244416
 41
0.7071067811865522
 10
2884.420734301697
 20
-1581.973333953576
 30
37.82707534244418
 41
1.0
 10
2882.286388343045
 20
-1583.183460827662
 30
37.82707534244418
 41
1.0
 10
2880.152042384394
 20
-1584.393587701749
 30
37.82707534244418
 41
1.0
 10
2878.425781277535
 20
-1581.348916522302
 30
37.82707534244418
 41
0.7071067811865476
 10
2875.381110098091
 20
-1583.075177629162
 30
37.82707534244418
 41
1.0
 10
2872.336438918645
 20
-1584.801438736022
 30
37.82707534244418
 41
0.7071067811865476
 10
2874.062700025506
 20
-1587.846109915468
 30
37.82707534244418
 41
1.0
  0
SPLINE
  5
FE
330
1F
100
AcDbEntity
  8
Default
 62
     1
420
 16711680
100
AcDbSpline
210
0.0
220
0.0
230
1.0
 70
    13
 71
     3
 72
    38
 73
    34
 74
     0
 42
0.000000001
 43
0.0000000001
 40
0.0
 40
0.0
 40
0.0
 40
0.0
 40
14.8283320291772
 40
14.8283320291772
 40
14.8283320291772
 40
103.9413769960434
 40
103.9413769960434
 40
103.9413769960434
 40
212.6639594420727
 40
212.6639594420727
 40
212.6639594420727
 40
321.3865418881024
 40
321.3865418881024
 40
321.3865418881024
 40
430.1091243341317
 40
430.1091243341317
 40
430.1091243341317
 40
538.8317067801605
 40
538.8317067801605
 40
538.8317067801605
 40
647.5542892261898
 40
647.5542892261898
 40
647.5542892261898
 40
756.2768716722195
 40
756.2768716722195
 40
756.2768716722195
 40
821.1148035825726
 40
821.1148035825726
 40
821.1148035825726
 40
838.2424506552835
 40
838.2424506552835
 40
838.2424506552835
 40
938.4189020138137
 40
938.4189020138137
 40
938.4189020138137
 40
938.4189020138137
 10
2852.076279594389
 20
-1568.734568571977
 30
37.82707534244419
 41
0.9999999999999998
 10
2849.6019850119
 20
-1564.3705628171
 30
37.8270753424442
 41
0.9708969889932003
 10
2848.511034874687
 20
-1559.473981590608
 30
37.8270753424442
 41
0.9708969889932003
 10
2848.898678984303
 20
-1554.472340664492
 30
37.82707534244419
 41
0.9999999999999998
 10
2850.570802030177
 20
-1532.897502166344
 30
37.82707534244418
 41
1.0
 10
2856.348501162765
 20
-1513.322128783615
 30
37.82707534244418
 41
1.0
 10
2863.023712229407
 20
-1496.553823322093
 30
37.82707534244418
 41
1.0
 10
2871.167819366668
 20
-1476.095612364333
 30
37.82707534244418
 41
1.0
 10
2880.64789797372
 20
-1459.81580005979
 30
37.82707534244418
 41
1.0
 10
2910.277293471378
 20
-1449.616873656304
 30
37.82707534244418
 41
1.0
 10
2939.906688969035
 20
-1439.417947252816
 30
37.82707534244418
 41
1.0
 10
2989.685401357299
 20
-1435.299906750386
 30
37.82707534244418
 41
1.0
 10
3021.863746898502
 20
-1446.096749209695
 30
37.82707534244418
 41
1.0
 10
3054.042092439704
 20
-1456.893591669005
 30
37.82707534244418
 41
1.0
 10
3068.620071133844
 20
-1482.605317090053
 30
37.82707534244418
 41
1.0
 10
3070.925204260249
 20
-1513.496266946733
 30
37.82707534244418
 41
1.0
 10
3073.230337386656
 20
-1544.387216803414
 30
37.82707534244418
 41
1.0
 10
3063.262624945331
 20
-1580.457391095726
 30
37.82707534244418
 41
1.0
 10
3056.529717296284
 20
-1604.821772976196
 30
37.82707534244418
 41
1.0
 10
3049.796809647239
 20
-1629.186154856664
 30
37.82707534244418
 41
1.0
 10
3046.298706790474
 20
-1641.844744325288
 30
37.82707534244418
 41
1.0
 10
3034.386574705799
 20
-1653.936280638025
 30
37.82707534244418
 41
1.0
 10
3022.474442621127
 20
-1666.027816950764
 30
37.82707534244418
 41
1.0
 10
3002.148281308544
 20
-1677.552300107616
 30
37.82707534244418
 41
1.0
 10
2972.316747123047
 20
-1677.879317354832
 30
37.82707534244418
 41
1.0
 10
2954.526377001361
 20
-1678.074337759346
 30
37.82707534244418
 41
1.0
 10
2933.355452340153
 20
-1674.287016311727
 30
37.82707534244418
 41
1.0
 10
2914.194512652188
 20
-1666.857267343746
 30
37.82707534244418
 41
1.0
 10
2908.764638523669
 20
-1664.751806841305
 30
37.82707534244418
 41
0.9612668141510985
 10
2904.357447904742
 20
-1660.944817502292
 30
37.82707534244418
 41
0.9612668141510985
 10
2901.485054395353
 20
-1655.878669803485
 30
37.82707534244418
 41
1.0
 10
2885.015462795031
 20
-1626.830636059649
 30
37.82707534244418
 41
1.0
 10
2868.54587119471
 20
-1597.782602315813
 30
37.82707534244418
 41
1.0
 10
2852.076279594388
 20
-1568.734568571977
 30
37.82707534244418
 41
1.0
  0
SPLINE
  5
FF
330
1F
100
AcDbEntity
  8
Default
 62
     1
420
 16711680
100
AcDbSpline
210
0.0
220
0.0
230
1.0
 70
     9
 71
     3
 72
    35
 73
    31
 74
     0
 42
0.000000001
 43
0.0000000001
 40
-1.257915842521512
 40
-1.257915842521512
 40
-1.257915842521512
 40
-1.257915842521512
 40
-0.2579158425215127
 40
-0.2579158425215127
 40
-0.2579158425215127
 40
0.7420841574784874
 40
0.7420841574784874
 40
0.7420841574784874
 40
1.742084157478486
 40
1.742084157478486
 40
1.742084157478486
 40
2.742084157478486
 40
2.742084157478486
 40
2.742084157478486
 40
3.742084157478486
 40
3.742084157478486
 40
3.742084157478486
 40
4.742084157478487
 40
4.742084157478487
 40
4.742084157478487
 40
5.742084157478487
 40
5.742084157478487
 40
5.742084157478487
 40
6.742084157478487
 40
6.742084157478487
 40
6.742084157478487
 40
7.742084157478487
 40
7.742084157478487
 40
7.742084157478487
 40
8.742084157478487
 40
8.742084157478487
 40
8.742084157478487
 40
8.742084157478487
 10
3045.470732557051
 20
-1373.539737127879
 30
37.82707534244418
 10
3044.070292051005
 20
-1376.072440650647
 30
37.82707534244418
 10
3044.443917588325
 20
-1381.026687809123
 30
37.82707534244418
 10
3045.610837282797
 20
-1384.927950077924
 30
37.82707534244418
 10
3046.777756977264
 20
-1388.829212346725
 30
37.82707534244418
 10
3048.737970828879
 20
-1391.677489725852
 30
37.82707534244418
 10
3050.603285333074
 20
-1394.573769973602
 30
37.82707534244418
 10
3052.468599837272
 20
-1397.470050221353
 30
37.82707534244418
 10
3054.239014994053
 20
-1400.414333337727
 30
37.82707534244418
 10
3056.022275841624
 20
-1403.554902344223
 30
37.82707534244418
 10
3057.805536689197
 20
-1406.695471350719
 30
37.82707534244418
 10
3059.601643227561
 20
-1410.032326247337
 30
37.82707534244418
 10
3061.933821847819
 20
-1411.565020855625
 30
37.82707534244418
 10
3064.266000468075
 20
-1413.097715463912
 30
37.82707534244418
 10
3067.134251170223
 20
-1412.826249783871
 30
37.82707534244418
 10
3068.191766651338
 20
-1410.021219704048
 30
37.82707534244418
 10
3069.249282132456
 20
-1407.216189624228
 30
37.82707534244418
 10
3068.49606239254
 20
-1401.877595144626
 30
37.82707534244418
 10
3067.678266620847
 20
-1397.373809024325
 30
37.82707534244418
 10
3066.860470849153
 20
-1392.870022904024
 30
37.82707534244418
 10
3065.97809904568
 20
-1389.201045143024
 30
37.82707534244418
 10
3064.704347193572
 20
-1385.587534027478
 30
37.82707534244418
 10
3063.430595341466
 20
-1381.974022911931
 30
37.82707534244418
 10
3061.765463440723
 20
-1378.415978441837
 30
37.82707534244418
 10
3059.78620659401
 20
-1375.958086183331
 30
37.82707534244418
 10
3057.806949747295
 20
-1373.500193924825
 30
37.82707534244418
 10
3055.513567954609
 20
-1372.142453877907
 30
37.82707534244418
 10
3052.779623783561
 20
-1371.519163797979
 30
37.82707534244418
 10
3050.045679612511
 20
-1370.895873718049
 30
37.82707534244418
 10
3046.871173063096
 20
-1371.007033605111
 30
37.82707534244418
 10
3045.470732557051
 20
-1373.539737127879
 30
37.82707534244418
  0
SPLINE
  5
100
330
1F
100
AcDbEntity
  8
Default
 62
     1
420
 16711680
100
AcDbSpline
210
0.0
220
0.0
230
1.0
 70
     9
 71
     3
 72
    32
 73
    28
 74
     0
 42
0.000000001
 43
0.0000000001
 40
8.742084157478487
 40
8.742084157478487
 40
8.742084157478487
 40
8.742084157478487
 40
9.742084157478489
 40
9.742084157478489
 40
9.742084157478489
 40
10.74208415747849
 40
10.74208415747849
 40
10.74208415747849
 40
11.74208415747849
 40
11.74208415747849
 40
11.74208415747849
 40
12.74208415747849
 40
12.74208415747849
 40
12.74208415747849
 40
13.74208415747849
 40
13.74208415747849
 40
13.74208415747849
 40
14.74208415747849
 40
14.74208415747849
 40
14.74208415747849
 40
15.74208415747849
 40
15.74208415747849
 40
15.74208415747849
 40
16.74208415747849
 40
16.74208415747849
 40
16.74208415747849
 40
17.74208415747849
 40
17.74208415747849
 40
17.74208415747849
 40
17.74208415747849
 10
3396.292838243016
 20
-1379.167352104871
 30
37.82707534244418
 10
3398.501132075869
 20
-1381.99519929813
 30
37.82707534244418
 10
3401.343916066775
 20
-1381.334750558271
 30
37.82707534244418
 10
3404.384172425761
 20
-1380.42380073433
 30
37.82707534244418
 10
3407.424428784745
 20
-1379.512850910389
 30
37.82707534244418
 10
3410.662157511808
 20
-1378.351400002369
 30
37.82707534244418
 10
3413.727915451176
 20
-1377.270722106182
 30
37.82707534244418
 10
3416.793673390543
 20
-1376.190044209994
 30
37.82707534244418
 10
3419.687460542212
 20
-1375.19013932564
 30
37.82707534244418
 10
3422.920423134114
 20
-1373.021792180065
 30
37.82707534244418
 10
3426.153385726016
 20
-1370.85344503449
 30
37.82707534244418
 10
3429.72552375815
 20
-1367.516655627693
 30
37.82707534244418
 10
3429.044426126834
 20
-1365.804620419863
 30
37.82707534244418
 10
3428.363328495514
 20
-1364.092585212033
 30
37.82707534244418
 10
3423.428995200743
 20
-1364.00530420317
 30
37.82707534244418
 10
3419.608070773023
 20
-1363.833588370385
 30
37.82707534244418
 10
3415.787146345303
 20
-1363.6618725376
 30
37.82707534244418
 10
3413.079630784633
 20
-1363.405721880893
 30
37.82707534244418
 10
3410.082567089959
 20
-1363.45980677538
 30
37.82707534244418
 10
3407.085503395285
 20
-1363.513891669866
 30
37.82707534244418
 10
3403.798891566609
 20
-1363.878212115546
 30
37.82707534244418
 10
3400.559695206042
 20
-1363.971153354658
 30
37.82707534244418
 10
3397.320498845476
 20
-1364.064094593769
 30
37.82707534244418
 10
3394.128717953019
 20
-1363.885656626311
 30
37.82707534244418
 10
3393.319729344192
 20
-1366.954509205772
 30
37.82707534244418
 10
3392.510740735364
 20
-1370.023361785232
 30
37.82707534244418
 10
3394.084544410165
 20
-1376.339504911611
 30
37.82707534244418
 10
3396.292838243016
 20
-1379.167352104871
 30
37.82707534244418
  0
SPLINE
  5
101
330
1F
100
AcDbEntity
  8
Default
 62
     1
420
 16711680
100
AcDbSpline
210
0.0
220
0.0
230
1.0
 70
     9
 71
     3
 72
    32
 73
    28
 74
     0
 42
0.000000001
 43
0.0000000001
 40
17.74208415747849
 40
17.74208415747849
 40
17.74208415747849
 40
17.74208415747849
 40
18.74208415747849
 40
18.74208415747849
 40
18.74208415747849
 40
19.74208415747849
 40
19.74208415747849
 40
19.74208415747849
 40
20.74208415747849
 40
20.74208415747849
 40
20.74208415747849
 40
21.74208415747849
 40
21.74208415747849
 40
21.74208415747849
 40
22.74208415747849
 40
22.74208415747849
 40
22.74208415747849
 40
23.74208415747849
 40
23.74208415747849
 40
23.74208415747849
 40
24.74208415747849
 40
24.74208415747849
 40
24.74208415747849
 40
25.74208415747849
 40
25.74208415747849
 40
25.74208415747849
 40
26.74208415747849
 40
26.74208415747849
 40
26.74208415747849
 40
26.74208415747849
 10
3195.74073333116
 20
-1368.286311736854
 30
37.82707534244418
 10
3195.600860922323
 20
-1370.814601330919
 30
37.82707534244418
 10
3201.21292332308
 20
-1375.634986268092
 30
37.82707534244418
 10
3205.634854476731
 20
-1378.576220045782
 30
37.82707534244418
 10
3210.056785630381
 20
-1381.517453823472
 30
37.82707534244418
 10
3213.288585536924
 20
-1382.579536441681
 30
37.82707534244418
 10
3217.010675715901
 20
-1383.334830026238
 30
37.82707534244418
 10
3220.732765894878
 20
-1384.090123610795
 30
37.82707534244418
 10
3224.945146346286
 20
-1384.538628161701
 30
37.82707534244418
 10
3228.717026180397
 20
-1384.714577559586
 30
37.82707534244418
 10
3232.488906014506
 20
-1384.890526957471
 30
37.82707534244418
 10
3235.820285231315
 20
-1384.793921202336
 30
37.82707534244418
 10
3237.723931685106
 20
-1381.772970484091
 30
37.82707534244418
 10
3239.627578138896
 20
-1378.752019765846
 30
37.82707534244418
 10
3240.103491829668
 20
-1372.806724084492
 30
37.82707534244418
 10
3238.616541736361
 20
-1369.808766386815
 30
37.82707534244418
 10
3237.129591643055
 20
-1366.810808689138
 30
37.82707534244418
 10
3233.679777765671
 20
-1366.760188975139
 30
37.82707534244418
 10
3229.873063391905
 20
-1366.531718661127
 30
37.82707534244418
 10
3226.066349018138
 20
-1366.303248347115
 30
37.82707534244418
 10
3221.90273414799
 20
-1365.896927433091
 30
37.82707534244418
 10
3218.141776862754
 20
-1365.659604829714
 30
37.82707534244418
 10
3214.380819577518
 20
-1365.422282226335
 30
37.82707534244418
 10
3211.022519877192
 20
-1365.353957933604
 30
37.82707534244418
 10
3206.397466417811
 20
-1365.437892912718
 30
37.82707534244418
 10
3201.772412958433
 20
-1365.521827891831
 30
37.82707534244418
 10
3195.880605739999
 20
-1365.758022142789
 30
37.82707534244418
 10
3195.74073333116
 20
-1368.286311736854
 30
37.82707534244418
  0
SPLINE
  5
102
330
1F
100
AcDbEntity
  8
Default
 62
     1
420
 16711680
100
AcDbSpline
210
0.0
220
0.0
230
1.0
 70
     9
 71
     3
 72
    35
 73
    31
 74
     0
 42
0.000000001
 43
0.0000000001
 40
26.74208415747849
 40
26.74208415747849
 40
26.74208415747849
 40
26.74208415747849
 40
27.74208415747849
 40
27.74208415747849
 40
27.74208415747849
 40
28.74208415747849
 40
28.74208415747849
 40
28.74208415747849
 40
29.74208415747849
 40
29.74208415747849
 40
29.74208415747849
 40
30.74208415747849
 40
30.74208415747849
 40
30.74208415747849
 40
31.74208415747849
 40
31.74208415747849
 40
31.74208415747849
 40
32.74208415747849
 40
32.74208415747849
 40
32.74208415747849
 40
33.74208415747849
 40
33.74208415747849
 40
33.74208415747849
 40
34.74208415747849
 40
34.74208415747849
 40
34.74208415747849
 40
35.74208415747849
 40
35.74208415747849
 40
35.74208415747849
 40
36.74208415747849
 40
36.74208415747849
 40
36.74208415747849
 40
36.74208415747849
 10
3257.288325431424
 20
-1435.201791783308
 30
37.82707534244418
 10
3253.791014381868
 20
-1433.71559165905
 30
37.82707534244418
 10
3249.416097541476
 20
-1440.936686197197
 30
37.82707534244418
 10
3245.789910706209
 20
-1447.343487256363
 30
37.82707534244418
 10
3242.163723870939
 20
-1453.750288315528
 30
37.82707534244418
 10
3239.286267040796
 20
-1459.342795895709
 30
37.82707534244418
 10
3236.723143762849
 20
-1465.780003153569
 30
37.82707534244418
 10
3234.160020484902
 20
-1472.217210411428
 30
37.82707534244418
 10
3231.911230759151
 20
-1479.499117346961
 30
37.82707534244418
 10
3228.908715522673
 20
-1485.989239158973
 30
37.82707534244418
 10
3225.90620028619
 20
-1492.479360970985
 30
37.82707534244418
 10
3222.14995953898
 20
-1498.177697659475
 30
37.82707534244418
 10
3221.137031961987
 20
-1506.183604963875
 30
37.82707534244418
 10
3220.124104384993
 20
-1514.189512268277
 30
37.82707534244418
 10
3221.85448997822
 20
-1524.502990188588
 30
37.82707534244418
 10
3224.666123143686
 20
-1524.923443040692
 30
37.82707534244418
 10
3227.477756309154
 20
-1525.343895892795
 30
37.82707534244418
 10
3231.370637046863
 20
-1515.871323676689
 30
37.82707534244418
 10
3234.979161313795
 20
-1508.919330573847
 30
37.82707534244418
 10
3238.587685580727
 20
-1501.967337471003
 30
37.82707534244418
 10
3241.91185337688
 20
-1497.535923481421
 30
37.82707534244418
 10
3244.940508829945
 20
-1491.988574032505
 30
37.82707534244418
 10
3247.969164283009
 20
-1486.441224583588
 30
37.82707534244418
 10
3250.702307392986
 20
-1479.777939675337
 30
37.82707534244418
 10
3254.167145030552
 20
-1473.77301834018
 30
37.82707534244418
 10
3257.631982668117
 20
-1467.768097005023
 30
37.82707534244418
 10
3261.828514833271
 20
-1462.421539242961
 30
37.82707534244418
 10
3262.616928286488
 20
-1454.651512968597
 30
37.82707534244418
 10
3263.405341739704
 20
-1446.881486694233
 30
37.82707534244418
 10
3260.785636480984
 20
-1436.687991907567
 30
37.82707534244418
 10
3257.288325431424
 20
-1435.201791783308
 30
37.82707534244418
  0
SPLINE
  5
103
330
1F
100
AcDbEntity
  8
Default
 62
     1
420
 16711680
100
AcDbSpline
210
0.0
220
0.0
230
1.0
 70
     9
 71
     3
 72
    35
 73
    31
 74
     0
 42
0.000000001
 43
0.0000000001
 40
36.74208415747849
 40
36.74208415747849
 40
36.74208415747849
 40
36.74208415747849
 40
37.74208415747849
 40
37.74208415747849
 40
37.74208415747849
 40
38.74208415747849
 40
38.74208415747849
 40
38.74208415747849
 40
39.74208415747849
 40
39.74208415747849
 40
39.74208415747849
 40
40.74208415747849
 40
40.74208415747849
 40
40.74208415747849
 40
41.74208415747848
 40
41.74208415747848
 40
41.74208415747848
 40
42.74208415747849
 40
42.74208415747849
 40
42.74208415747849
 40
43.74208415747849
 40
43.74208415747849
 40
43.74208415747849
 40
44.74208415747849
 40
44.74208415747849
 40
44.74208415747849
 40
45.74208415747849
 40
45.74208415747849
 40
45.74208415747849
 40
46.74208415747849
 40
46.74208415747849
 40
46.74208415747849
 40
46.74208415747849
 10
3191.473942562881
 20
-1400.508618316927
 30
37.82707534244418
 10
3188.12634594299
 20
-1408.383164387356
 30
37.82707534244418
 10
3189.268772141615
 20
-1424.144145127416
 30
37.82707534244418
 10
3189.493044799261
 20
-1438.151677877004
 30
37.82707534244418
 10
3189.717317456907
 20
-1452.159210626592
 30
37.82707534244418
 10
3189.023436573581
 20
-1464.41329538571
 30
37.82707534244418
 10
3188.787839579671
 20
-1475.981368712225
 30
37.82707534244418
 10
3188.552242585763
 20
-1487.54944203874
 30
37.82707534244418
 10
3188.774929481277
 20
-1498.431503932652
 30
37.82707534244418
 10
3188.676650376858
 20
-1513.829816212337
 30
37.82707534244418
 10
3188.578371272439
 20
-1529.228128492021
 30
37.82707534244418
 10
3188.15912616809
 20
-1549.142691157478
 30
37.82707534244418
 10
3190.522377735526
 20
-1551.381348781981
 30
37.82707534244418
 10
3192.885629302962
 20
-1553.620006406484
 30
37.82707534244418
 10
3198.031377542184
 20
-1538.182758990032
 30
37.82707534244418
 10
3201.848934396053
 20
-1525.231014178862
 30
37.82707534244418
 10
3205.66649124992
 20
-1512.279269367691
 30
37.82707534244418
 10
3208.155856718435
 20
-1501.813027161802
 30
37.82707534244418
 10
3210.722893634525
 20
-1490.862585191506
 30
37.82707534244418
 10
3213.289930550614
 20
-1479.912143221208
 30
37.82707534244418
 10
3215.934638914281
 20
-1468.477501486504
 30
37.82707534244418
 10
3219.143714555956
 20
-1456.135891327777
 30
37.82707534244418
 10
3222.352790197628
 20
-1443.79428116905
 30
37.82707534244418
 10
3226.126233117307
 20
-1430.545702586299
 30
37.82707534244418
 10
3224.779138247577
 20
-1419.814867535149
 30
37.82707534244418
 10
3223.43204337785
 20
-1409.084032483998
 30
37.82707534244418
 10
3216.964410718714
 20
-1400.870940964447
 30
37.82707534244418
 10
3209.811784669942
 20
-1396.758450905072
 30
37.82707534244418
 10
3202.659158621174
 20
-1392.645960845697
 30
37.82707534244418
 10
3194.821539182771
 20
-1392.634072246498
 30
37.82707534244418
 10
3191.473942562881
 20
-1400.508618316927
 30
37.82707534244418
  0
SPLINE
  5
104
330
1F
100
AcDbEntity
  8
Default
 62
     1
420
 16711680
100
AcDbSpline
210
0.0
220
0.0
230
1.0
 70
     9
 71
     3
 72
    35
 73
    31
 74
     0
 42
0.000000001
 43
0.0000000001
 40
46.74208415747849
 40
46.74208415747849
 40
46.74208415747849
 40
46.74208415747849
 40
47.74208415747849
 40
47.74208415747849
 40
47.74208415747849
 40
48.74208415747849
 40
48.74208415747849
 40
48.74208415747849
 40
49.74208415747849
 40
49.74208415747849
 40
49.74208415747849
 40
50.74208415747849
 40
50.74208415747849
 40
50.74208415747849
 40
51.74208415747849
 40
51.74208415747849
 40
51.74208415747849
 40
52.7420841574785
 40
52.7420841574785
 40
52.7420841574785
 40
53.74208415747849
 40
53.74208415747849
 40
53.74208415747849
 40
54.74208415747849
 40
54.74208415747849
 40
54.74208415747849
 40
55.74208415747849
 40
55.74208415747849
 40
55.74208415747849
 40
56.74208415747849
 40
56.74208415747849
 40
56.74208415747849
 40
56.74208415747849
 10
3160.587301834486
 20
-1371.470617851211
 30
37.82707534244418
 10
3152.202144040944
 20
-1366.549227516445
 30
37.82707534244418
 10
3138.206023494338
 20
-1373.810931459069
 30
37.82707534244418
 10
3133.276534912751
 20
-1386.3373381594
 30
37.82707534244418
 10
3128.347046331166
 20
-1398.863744859732
 30
37.82707534244418
 10
3132.484189714598
 20
-1416.65485431777
 30
37.82707534244418
 10
3136.05425065407
 20
-1433.68011379627
 30
37.82707534244418
 10
3139.624311593542
 20
-1450.705373274771
 30
37.82707534244418
 10
3142.627290089053
 20
-1466.964782773734
 30
37.82707534244418
 10
3145.844722151427
 20
-1482.396079828839
 30
37.82707534244418
 10
3149.062154213801
 20
-1497.827376883943
 30
37.82707534244418
 10
3152.494039843039
 20
-1512.430561495188
 30
37.82707534244418
 10
3155.567314648471
 20
-1531.17045152468
 30
37.82707534244418
 10
3158.640589453904
 20
-1549.910341554172
 30
37.82707534244418
 10
3161.355253435531
 20
-1572.78693700191
 30
37.82707534244418
 10
3164.647195554027
 20
-1580.355420824683
 30
37.82707534244418
 10
3167.939137672523
 20
-1587.923904647455
 30
37.82707534244418
 10
3171.80835792789
 20
-1580.184276845263
 30
37.82707534244418
 10
3173.17121699907
 20
-1566.389813661916
 30
37.82707534244418
 10
3174.534076070249
 20
-1552.59535047857
 30
37.82707534244418
 10
3173.390573957246
 20
-1532.746051914069
 30
37.82707534244418
 10
3172.97496562065
 20
-1514.524168646855
 30
37.82707534244418
 10
3172.559357284056
 20
-1496.302285379639
 30
37.82707534244418
 10
3172.871642723871
 20
-1479.707817409708
 30
37.82707534244418
 10
3173.250605701329
 20
-1462.658521419828
 30
37.82707534244418
 10
3173.629568678791
 20
-1445.609225429947
 30
37.82707534244418
 10
3174.075209193894
 20
-1428.105101420117
 30
37.82707534244418
 10
3172.910931931203
 20
-1410.800797109124
 30
37.82707534244418
 10
3171.746654668512
 20
-1393.496492798131
 30
37.82707534244418
 10
3168.972459628028
 20
-1376.392008185977
 30
37.82707534244418
 10
3160.587301834486
 20
-1371.470617851211
 30
37.82707534244418
  0
SPLINE
  5
105
330
1F
100
AcDbEntity
  8
Default
 62
     1
420
 16711680
100
AcDbSpline
210
0.0
220
0.0
230
1.0
 70
     9
 71
     3
 72
    35
 73
    31
 74
     0
 42
0.000000001
 43
0.0000000001
 40
56.74208415747849
 40
56.74208415747849
 40
56.74208415747849
 40
56.74208415747849
 40
57.7420841574785
 40
57.7420841574785
 40
57.7420841574785
 40
58.74208415747849
 40
58.74208415747849
 40
58.74208415747849
 40
59.74208415747849
 40
59.74208415747849
 40
59.74208415747849
 40
60.74208415747849
 40
60.74208415747849
 40
60.74208415747849
 40
61.74208415747849
 40
61.74208415747849
 40
61.74208415747849
 40
62.7420841574785
 40
62.7420841574785
 40
62.7420841574785
 40
63.74208415747849
 40
63.74208415747849
 40
63.74208415747849
 40
64.7420841574785
 40
64.7420841574785
 40
64.7420841574785
 40
65.7420841574785
 40
65.7420841574785
 40
65.7420841574785
 40
66.7420841574785
 40
66.7420841574785
 40
66.7420841574785
 40
66.7420841574785
 10
3096.451948353269
 20
-1378.186688582835
 30
37.82707534244418
 10
3088.119172215392
 20
-1376.198610958717
 30
37.82707534244418
 10
3077.445240146004
 20
-1386.597235751186
 30
37.82707534244418
 10
3075.743490538611
 20
-1399.477530347061
 30
37.82707534244418
 10
3074.041740931218
 20
-1412.357824942937
 30
37.82707534244418
 10
3081.312173785823
 20
-1427.719789342219
 30
37.82707534244418
 10
3087.446361871582
 20
-1441.552387989189
 30
37.82707534244418
 10
3093.580549957343
 20
-1455.384986636159
 30
37.82707534244418
 10
3098.578493274259
 20
-1467.688219530816
 30
37.82707534244418
 10
3103.632061103941
 20
-1479.747004399518
 30
37.82707534244418
 10
3108.685628933623
 20
-1491.805789268222
 30
37.82707534244418
 10
3113.794821276073
 20
-1503.620126110969
 30
37.82707534244418
 10
3119.538113078804
 20
-1518.281679461347
 30
37.82707534244418
 10
3125.281404881533
 20
-1532.943232811724
 30
37.82707534244418
 10
3131.658796144546
 20
-1550.45200266973
 30
37.82707534244418
 10
3136.35985567331
 20
-1555.687724336385
 30
37.82707534244418
 10
3141.060915202075
 20
-1560.92344600304
 30
37.82707534244418
 10
3144.085642996593
 20
-1553.886119478346
 30
37.82707534244418
 10
3143.285227581275
 20
-1541.919150790951
 30
37.82707534244418
 10
3142.484812165954
 20
-1529.952182103558
 30
37.82707534244418
 10
3137.859253540797
 20
-1513.055571253466
 30
37.82707534244418
 10
3134.059851998375
 20
-1497.551063687302
 30
37.82707534244418
 10
3130.260450455953
 20
-1482.046556121137
 30
37.82707534244418
 10
3127.287205996266
 20
-1467.934151838901
 30
37.82707534244418
 10
3124.542917660975
 20
-1453.395046153066
 30
37.82707534244418
 10
3121.798629325682
 20
-1438.85594046723
 30
37.82707534244418
 10
3119.283297114782
 20
-1423.890133377795
 30
37.82707534244418
 10
3115.029820906149
 20
-1409.219839812726
 30
37.82707534244418
 10
3110.776344697516
 20
-1394.549546247657
 30
37.82707534244418
 10
3104.784724491147
 20
-1380.174766206952
 30
37.82707534244418
 10
3096.451948353269
 20
-1378.186688582835
 30
37.82707534244418
  0
SPLINE
  5
106
330
1F
100
AcDbEntity
  8
Default
 62
     1
420
 16711680
100
AcDbSpline
210
0.0
220
0.0
230
1.0
 70
     9
 71
     3
 72
    35
 73
    31
 74
     0
 42
0.000000001
 43
0.0000000001
 40
66.7420841574785
 40
66.7420841574785
 40
66.7420841574785
 40
66.7420841574785
 40
67.7420841574785
 40
67.7420841574785
 40
67.7420841574785
 40
68.7420841574785
 40
68.7420841574785
 40
68.7420841574785
 40
69.7420841574785
 40
69.7420841574785
 40
69.7420841574785
 40
70.74208415747849
 40
70.74208415747849
 40
70.74208415747849
 40
71.74208415747848
 40
71.74208415747848
 40
71.74208415747848
 40
72.74208415747849
 40
72.74208415747849
 40
72.74208415747849
 40
73.74208415747848
 40
73.74208415747848
 40
73.74208415747848
 40
74.74208415747849
 40
74.74208415747849
 40
74.74208415747849
 40
75.74208415747849
 40
75.74208415747849
 40
75.74208415747849
 40
76.74208415747848
 40
76.74208415747848
 40
76.74208415747848
 40
76.74208415747848
 10
3302.06017800959
 20
-1377.029163812015
 30
37.82707534244418
 10
3295.66257264884
 20
-1380.039501948703
 30
37.82707534244418
 10
3289.85621503318
 20
-1384.710704858417
 30
37.82707534244418
 10
3284.215496629971
 20
-1393.759678765871
 30
37.82707534244418
 10
3278.574778226761
 20
-1402.808652673324
 30
37.82707534244418
 10
3273.099699035999
 20
-1416.235397578518
 30
37.82707534244418
 10
3274.72764355907
 20
-1423.20054817167
 30
37.82707534244418
 10
3276.355588082142
 20
-1430.165698764823
 30
37.82707534244418
 10
3285.086556319047
 20
-1430.669255045934
 30
37.82707534244418
 10
3292.330127860306
 20
-1428.60687315884
 30
37.82707534244418
 10
3299.573699401562
 20
-1426.544491271746
 30
37.82707534244418
 10
3305.329874247167
 20
-1421.916171216447
 30
37.82707534244418
 10
3311.587368898183
 20
-1419.340548192159
 30
37.82707534244418
 10
3317.844863549197
 20
-1416.764925167872
 30
37.82707534244418
 10
3324.603678005618
 20
-1416.241999174596
 30
37.82707534244418
 10
3331.673106963231
 20
-1420.0238539774
 30
37.82707534244418
 10
3338.742535920843
 20
-1423.805708780205
 30
37.82707534244418
 10
3346.122579379649
 20
-1431.89234437909
 30
37.82707534244418
 10
3350.820072900387
 20
-1430.88954374958
 30
37.82707534244418
 10
3355.517566421126
 20
-1429.88674312007
 30
37.82707534244418
 10
3357.532510003795
 20
-1419.794506262166
 30
37.82707534244418
 10
3355.389123198926
 20
-1410.210866509811
 30
37.82707534244418
 10
3353.245736394056
 20
-1400.627226757457
 30
37.82707534244418
 10
3346.944019201646
 20
-1391.552184110653
 30
37.82707534244418
 10
3340.758691867572
 20
-1385.15511903461
 30
37.82707534244418
 10
3334.573364533497
 20
-1378.758053958566
 30
37.82707534244418
 10
3328.504427057759
 20
-1375.038966453282
 30
37.82707534244418
 10
3321.975531766966
 20
-1373.854159382472
 30
37.82707534244418
 10
3315.446636476177
 20
-1372.669352311663
 30
37.82707534244418
 10
3308.457783370337
 20
-1374.018825675326
 30
37.82707534244418
 10
3302.06017800959
 20
-1377.029163812015
 30
37.82707534244418
  0
SPLINE
  5
107
330
1F
100
AcDbEntity
  8
Default
 62
     1
420
 16711680
100
AcDbSpline
210
0.0
220
0.0
230
1.0
 70
     9
 71
     3
 72
    35
 73
    31
 74
     0
 42
0.000000001
 43
0.0000000001
 40
76.74208415747848
 40
76.74208415747848
 40
76.74208415747848
 40
76.74208415747848
 40
77.74208415747849
 40
77.74208415747849
 40
77.74208415747849
 40
78.74208415747848
 40
78.74208415747848
 40
78.74208415747848
 40
79.74208415747849
 40
79.74208415747849
 40
79.74208415747849
 40
80.74208415747849
 40
80.74208415747849
 40
80.74208415747849
 40
81.74208415747848
 40
81.74208415747848
 40
81.74208415747848
 40
82.74208415747848
 40
82.74208415747848
 40
82.74208415747848
 40
83.74208415747849
 40
83.74208415747849
 40
83.74208415747849
 40
84.74208415747849
 40
84.74208415747849
 40
84.74208415747849
 40
85.74208415747849
 40
85.74208415747849
 40
85.74208415747849
 40
86.74208415747848
 40
86.74208415747848
 40
86.74208415747848
 40
86.74208415747848
 10
3252.417030059652
 20
-1380.904232657484
 30
37.82707534244418
 10
3250.866504807016
 20
-1382.960545986213
 30
37.82707534244418
 10
3250.179042373459
 20
-1386.820476015035
 30
37.82707534244418
 10
3249.431905510044
 20
-1390.590942532534
 30
37.82707534244418
 10
3248.684768646631
 20
-1394.361409050033
 30
37.82707534244418
 10
3247.877957353363
 20
-1398.04241205621
 30
37.82707534244418
 10
3248.426872057695
 20
-1401.242066495054
 30
37.82707534244418
 10
3248.975786762029
 20
-1404.441720933899
 30
37.82707534244418
 10
3250.880427463959
 20
-1407.160026805411
 30
37.82707534244418
 10
3252.862143187149
 20
-1407.35444058818
 30
37.82707534244418
 10
3254.843858910337
 20
-1407.54885437095
 30
37.82707534244418
 10
3256.902649654781
 20
-1405.219376064976
 30
37.82707534244418
 10
3258.732027470995
 20
-1402.894672683832
 30
37.82707534244418
 10
3260.561405287209
 20
-1400.569969302688
 30
37.82707534244418
 10
3262.161370175189
 20
-1398.250040846375
 30
37.82707534244418
 10
3263.674811518708
 20
-1395.886539055424
 30
37.82707534244418
 10
3265.188252862226
 20
-1393.523037264475
 30
37.82707534244418
 10
3266.615170661284
 20
-1391.115962138889
 30
37.82707534244418
 10
3268.301217864684
 20
-1388.247399926337
 30
37.82707534244418
 10
3269.987265068083
 20
-1385.378837713784
 30
37.82707534244418
 10
3271.932441675826
 20
-1382.048788414266
 30
37.82707534244418
 10
3271.301909513378
 20
-1380.4056167323
 30
37.82707534244418
 10
3270.671377350929
 20
-1378.762445050335
 30
37.82707534244418
 10
3267.465136418288
 20
-1378.806150985923
 30
37.82707534244418
 10
3264.951321946979
 20
-1378.743448812046
 30
37.82707534244418
 10
3262.437507475671
 20
-1378.680746638169
 30
37.82707534244418
 10
3260.616119465692
 20
-1378.511636354828
 30
37.82707534244418
 10
3258.498631424847
 20
-1378.553429527475
 30
37.82707534244418
 10
3256.381143384
 20
-1378.595222700122
 30
37.82707534244418
 10
3253.967555312289
 20
-1378.847919328756
 30
37.82707534244418
 10
3252.417030059652
 20
-1380.904232657484
 30
37.82707534244418
  0
SPLINE
  5
108
330
1F
100
AcDbEntity
  8
Default
 62
     1
420
 16711680
100
AcDbSpline
210
0.0
220
0.0
230
1.0
 70
     9
 71
     3
 72
    35
 73
    31
 74
     0
 42
0.000000001
 43
0.0000000001
 40
86.74208415747848
 40
86.74208415747848
 40
86.74208415747848
 40
86.74208415747848
 40
87.74208415747848
 40
87.74208415747848
 40
87.74208415747848
 40
88.74208415747849
 40
88.74208415747849
 40
88.74208415747849
 40
89.74208415747849
 40
89.74208415747849
 40
89.74208415747849
 40
90.74208415747849
 40
90.74208415747849
 40
90.74208415747849
 40
91.74208415747848
 40
91.74208415747848
 40
91.74208415747848
 40
92.74208415747848
 40
92.74208415747848
 40
92.74208415747848
 40
93.74208415747849
 40
93.74208415747849
 40
93.74208415747849
 40
94.74208415747849
 40
94.74208415747849
 40
94.74208415747849
 40
95.74208415747849
 40
95.74208415747849
 40
95.74208415747849
 40
96.74208415747848
 40
96.74208415747848
 40
96.74208415747848
 40
96.74208415747848
 10
3356.719643949487
 20
-1373.442373191601
 30
37.82707534244418
 10
3356.091455929576
 20
-1376.183666053785
 30
37.82707534244418
 10
3358.952863384227
 20
-1381.248972865578
 30
37.82707534244418
 10
3361.2817844318
 20
-1385.277092911104
 30
37.82707534244418
 10
3363.610705479377
 20
-1389.305212956631
 30
37.82707534244418
 10
3365.407140119878
 20
-1392.296146235891
 30
37.82707534244418
 10
3367.030346626396
 20
-1396.127887739374
 30
37.82707534244418
 10
3368.653553132914
 20
-1399.959629242857
 30
37.82707534244418
 10
3370.103531505449
 20
-1404.632178970563
 30
37.82707534244418
 10
3372.336503901876
 20
-1407.548324273728
 30
37.82707534244418
 10
3374.569476298304
 20
-1410.464469576894
 30
37.82707534244418
 10
3377.585442718626
 20
-1411.62421045552
 30
37.82707534244418
 10
3380.488278002224
 20
-1410.629090138914
 30
37.82707534244418
 10
3383.391113285818
 20
-1409.633969822307
 30
37.82707534244418
 10
3386.180817432687
 20
-1406.483988310467
 30
37.82707534244418
 10
3387.148911416747
 20
-1402.284208795765
 30
37.82707534244418
 10
3388.117005400805
 20
-1398.084429281063
 30
37.82707534244418
 10
3387.263489222054
 20
-1392.834851763499
 30
37.82707534244418
 10
3386.080430021275
 20
-1388.145136586075
 30
37.82707534244418
 10
3384.897370820498
 20
-1383.45542140865
 30
37.82707534244418
 10
3383.384768597692
 20
-1379.325568571365
 30
37.82707534244418
 10
3381.1825039323
 20
-1376.310995756546
 30
37.82707534244418
 10
3378.980239266906
 20
-1373.296422941725
 30
37.82707534244418
 10
3376.088312158927
 20
-1371.397130149371
 30
37.82707534244418
 10
3373.373517589504
 20
-1370.508931277735
 30
37.82707534244418
 10
3370.65872302008
 20
-1369.620732406098
 30
37.82707534244418
 10
3368.12106098921
 20
-1369.74362745518
 30
37.82707534244418
 10
3364.79333822654
 20
-1370.01371443601
 30
37.82707534244418
 10
3361.465615463871
 20
-1370.283801416839
 30
37.82707534244418
 10
3357.347831969399
 20
-1370.701080329416
 30
37.82707534244418
 10
3356.719643949487
 20
-1373.442373191601
 30
37.82707534244418
  0
SPLINE
  5
109
330
1F
100
AcDbEntity
  8
Default
 62
     1
420
 16711680
100
AcDbSpline
210
0.0
220
0.0
230
1.0
 70
     9
 71
     3
 72
    35
 73
    31
 74
     0
 42
0.000000001
 43
0.0000000001
 40
96.74208415747848
 40
96.74208415747848
 40
96.74208415747848
 40
96.74208415747848
 40
97.7420841574785
 40
97.7420841574785
 40
97.7420841574785
 40
98.74208415747849
 40
98.74208415747849
 40
98.74208415747849
 40
99.74208415747849
 40
99.74208415747849
 40
99.74208415747849
 40
100.7420841574785
 40
100.7420841574785
 40
100.7420841574785
 40
101.7420841574785
 40
101.7420841574785
 40
101.7420841574785
 40
102.7420841574785
 40
102.7420841574785
 40
102.7420841574785
 40
103.7420841574785
 40
103.7420841574785
 40
103.7420841574785
 40
104.7420841574785
 40
104.7420841574785
 40
104.7420841574785
 40
105.7420841574785
 40
105.7420841574785
 40
105.7420841574785
 40
106.7420841574785
 40
106.7420841574785
 40
106.7420841574785
 40
106.7420841574785
 10
3460.576859859853
 20
-1376.027584772262
 30
37.82707534244418
 10
3454.485116875832
 20
-1385.990845255701
 30
37.82707534244418
 10
3456.732554341126
 20
-1405.519480319715
 30
37.82707534244418
 10
3458.07659684895
 20
-1423.199618442838
 30
37.82707534244418
 10
3459.420639356775
 20
-1440.879756565962
 30
37.82707534244418
 10
3459.861286907131
 20
-1456.711397748195
 30
37.82707534244418
 10
3460.792062431266
 20
-1472.205668911104
 30
37.82707534244418
 10
3461.722837955397
 20
-1487.699940074014
 30
37.82707534244418
 10
3463.143741453301
 20
-1502.8568412176
 30
37.82707534244418
 10
3463.181026171797
 20
-1521.279802823965
 30
37.82707534244418
 10
3463.21831089029
 20
-1539.702764430333
 30
37.82707534244418
 10
3461.871976829374
 20
-1561.391786499478
 30
37.82707534244418
 10
3464.78852061314
 20
-1570.436102168744
 30
37.82707534244418
 10
3467.705064396906
 20
-1579.480417838011
 30
37.82707534244418
 10
3474.884486025354
 20
-1575.880027107399
 30
37.82707534244418
 10
3478.521375001697
 20
-1564.315339219043
 30
37.82707534244418
 10
3482.158263978041
 20
-1552.750651330686
 30
37.82707534244418
 10
3482.252620302279
 20
-1533.221666284586
 30
37.82707534244418
 10
3483.458326952828
 20
-1515.801441084927
 30
37.82707534244418
 10
3484.664033603374
 20
-1498.381215885268
 30
37.82707534244418
 10
3486.98109058023
 20
-1483.069750532051
 30
37.82707534244418
 10
3489.086816434709
 20
-1467.495089345495
 30
37.82707534244418
 10
3491.192542289183
 20
-1451.920428158938
 30
37.82707534244418
 10
3493.086937021273
 20
-1436.082571139044
 30
37.82707534244418
 10
3494.125654046849
 20
-1419.000949023087
 30
37.82707534244418
 10
3495.164371072424
 20
-1401.91932690713
 30
37.82707534244418
 10
3495.347410391484
 20
-1383.593939695114
 30
37.82707534244418
 10
3488.223468334347
 20
-1374.630189040536
 30
37.82707534244418
 10
3481.099526277208
 20
-1365.666438385959
 30
37.82707534244418
 10
3466.668602843873
 20
-1366.064324288823
 30
37.82707534244418
 10
3460.576859859853
 20
-1376.027584772262
 30
37.82707534244418
  0
SPLINE
  5
10A
330
1F
100
AcDbEntity
  8
Default
 62
     1
420
 16711680
100
AcDbSpline
210
0.0
220
0.0
230
1.0
 70
     9
 71
     3
 72
    35
 73
    31
 74
     0
 42
0.000000001
 43
0.0000000001
 40
106.7420841574785
 40
106.7420841574785
 40
106.7420841574785
 40
106.7420841574785
 40
107.7420841574785
 40
107.7420841574785
 40
107.7420841574785
 40
108.7420841574785
 40
108.7420841574785
 40
108.7420841574785
 40
109.7420841574785
 40
109.7420841574785
 40
109.7420841574785
 40
110.7420841574785
 40
110.7420841574785
 40
110.7420841574785
 40
111.7420841574785
 40
111.7420841574785
 40
111.7420841574785
 40
112.7420841574785
 40
112.7420841574785
 40
112.7420841574785
 40
113.7420841574785
 40
113.7420841574785
 40
113.7420841574785
 40
114.7420841574785
 40
114.7420841574785
 40
114.7420841574785
 40
115.7420841574785
 40
115.7420841574785
 40
115.7420841574785
 40
116.7420841574785
 40
116.7420841574785
 40
116.7420841574785
 40
116.7420841574785
 10
3521.5849636288
 20
-1372.012289137729
 30
37.82707534244418
 10
3514.536878739333
 20
-1379.217734624791
 30
37.82707534244418
 10
3512.625427203049
 20
-1394.228462235738
 30
37.82707534244418
 10
3510.506019031229
 20
-1408.585806753252
 30
37.82707534244418
 10
3508.38661085941
 20
-1422.943151270768
 30
37.82707534244418
 10
3506.059246052051
 20
-1436.647112694852
 30
37.82707534244418
 10
3504.340202415095
 20
-1449.755513690733
 30
37.82707534244418
 10
3502.62115877814
 20
-1462.863914686614
 30
37.82707534244418
 10
3501.510436311584
 20
-1475.376755254293
 30
37.82707534244418
 10
3498.350379721749
 20
-1490.998839606835
 30
37.82707534244418
 10
3495.190323131917
 20
-1506.620923959378
 30
37.82707534244418
 10
3489.980932418804
 20
-1525.352252096785
 30
37.82707534244418
 10
3491.922457839217
 20
-1532.005783759252
 30
37.82707534244418
 10
3493.863983259631
 20
-1538.659315421721
 30
37.82707534244418
 10
3502.956424813572
 20
-1533.235050609252
 30
37.82707534244418
 10
3509.115942532582
 20
-1523.711677943917
 30
37.82707534244418
 10
3515.275460251592
 20
-1514.188305278582
 30
37.82707534244418
 10
3518.502054135673
 20
-1500.565824760383
 30
37.82707534244418
 10
3522.774865494173
 20
-1488.151435887771
 30
37.82707534244418
 10
3527.047676852673
 20
-1475.737047015159
 30
37.82707534244418
 10
3532.366705685594
 20
-1464.530749788135
 30
37.82707534244418
 10
3536.309777449222
 20
-1452.456692245201
 30
37.82707534244418
 10
3540.252849212848
 20
-1440.382634702267
 30
37.82707534244418
 10
3542.819963907184
 20
-1427.440816843423
 30
37.82707534244418
 10
3545.372755654693
 20
-1412.887827570622
 30
37.82707534244418
 10
3547.925547402203
 20
-1398.334838297821
 30
37.82707534244418
 10
3550.46401620289
 20
-1382.170677611064
 30
37.82707534244418
 10
3545.640891481907
 20
-1373.788678949276
 30
37.82707534244418
 10
3540.817766760922
 20
-1365.406680287487
 30
37.82707534244418
 10
3528.633048518266
 20
-1364.806843650666
 30
37.82707534244418
 10
3521.5849636288
 20
-1372.012289137729
 30
37.82707534244418
  0
SPLINE
  5
10B
330
1F
100
AcDbEntity
  8
Default
 62
     1
420
 16711680
100
AcDbSpline
210
0.0
220
0.0
230
1.0
 70
     9
 71
     3
 72
    35
 73
    31
 74
     0
 42
0.000000001
 43
0.0000000001
 40
116.7420841574785
 40
116.7420841574785
 40
116.7420841574785
 40
116.7420841574785
 40
117.7420841574785
 40
117.7420841574785
 40
117.7420841574785
 40
118.7420841574785
 40
118.7420841574785
 40
118.7420841574785
 40
119.7420841574785
 40
119.7420841574785
 40
119.7420841574785
 40
120.7420841574785
 40
120.7420841574785
 40
120.7420841574785
 40
121.7420841574785
 40
121.7420841574785
 40
121.7420841574785
 40
122.7420841574785
 40
122.7420841574785
 40
122.7420841574785
 40
123.7420841574785
 40
123.7420841574785
 40
123.7420841574785
 40
124.7420841574785
 40
124.7420841574785
 40
124.7420841574785
 40
125.7420841574785
 40
125.7420841574785
 40
125.7420841574785
 40
126.7420841574785
 40
126.7420841574785
 40
126.7420841574785
 40
126.7420841574785
 10
3566.667479313684
 20
-1381.295285251682
 30
37.82707534244418
 10
3564.006980736305
 20
-1383.864087511101
 30
37.82707534244418
 10
3562.495156441686
 20
-1388.983128672435
 30
37.82707534244418
 10
3561.116017807472
 20
-1394.056319993855
 30
37.82707534244418
 10
3559.736879173259
 20
-1399.129511315276
 30
37.82707534244418
 10
3558.490426199452
 20
-1404.156852796785
 30
37.82707534244418
 10
3557.085437331103
 20
-1408.714424077471
 30
37.82707534244418
 10
3555.680448462755
 20
-1413.271995358157
 30
37.82707534244418
 10
3554.116923699867
 20
-1417.359796438019
 30
37.82707534244418
 10
3553.143428104757
 20
-1423.402391244475
 30
37.82707534244418
 10
3552.169932509651
 20
-1429.444986050931
 30
37.82707534244418
 10
3551.786466082325
 20
-1437.442374583982
 30
37.82707534244418
 10
3553.389541201055
 20
-1438.898882360933
 30
37.82707534244418
 10
3554.992616319785
 20
-1440.355390137884
 30
37.82707534244418
 10
3558.582232984571
 20
-1435.271017158737
 30
37.82707534244418
 10
3561.25246706944
 20
-1430.847518020213
 30
37.82707534244418
 10
3563.922701154312
 20
-1426.42401888169
 30
37.82707534244418
 10
3565.673552659269
 20
-1422.661393583789
 30
37.82707534244418
 10
3567.647831195241
 20
-1418.857906600712
 30
37.82707534244418
 10
3569.622109731214
 20
-1415.054419617635
 30
37.82707534244418
 10
3571.819815298202
 20
-1411.210070949382
 30
37.82707534244418
 10
3574.282656682088
 20
-1407.244383041769
 30
37.82707534244418
 10
3576.745498065971
 20
-1403.278695134156
 30
37.82707534244418
 10
3579.473475266754
 20
-1399.19166798718
 30
37.82707534244418
 10
3579.96160905778
 20
-1394.412273653202
 30
37.82707534244418
 10
3580.449742848807
 20
-1389.632879319223
 30
37.82707534244418
 10
3578.698033230074
 20
-1384.16111779824
 30
37.82707534244418
 10
3575.917591990637
 20
-1381.434518716499
 30
37.82707534244418
 10
3573.137150751203
 20
-1378.707919634759
 30
37.82707534244418
 10
3569.327977891064
 20
-1378.726482992264
 30
37.82707534244418
 10
3566.667479313684
 20
-1381.295285251682
 30
37.82707534244418
  0
SPLINE
  5
10C
330
1F
100
AcDbEntity
  8
Default
 62
     1
420
 16711680
100
AcDbSpline
210
0.0
220
0.0
230
1.0
 70
     9
 71
     3
 72
    35
 73
    31
 74
     0
 42
0.000000001
 43
0.0000000001
 40
126.7420841574785
 40
126.7420841574785
 40
126.7420841574785
 40
126.7420841574785
 40
127.7420841574785
 40
127.7420841574785
 40
127.7420841574785
 40
128.7420841574785
 40
128.7420841574785
 40
128.7420841574785
 40
129.7420841574785
 40
129.7420841574785
 40
129.7420841574785
 40
130.7420841574785
 40
130.7420841574785
 40
130.7420841574785
 40
131.7420841574785
 40
131.7420841574785
 40
131.7420841574785
 40
132.7420841574785
 40
132.7420841574785
 40
132.7420841574785
 40
133.7420841574785
 40
133.7420841574785
 40
133.7420841574785
 40
134.7420841574785
 40
134.7420841574785
 40
134.7420841574785
 40
135.7420841574785
 40
135.7420841574785
 40
135.7420841574785
 40
136.7420841574785
 40
136.7420841574785
 40
136.7420841574785
 40
136.7420841574785
 10
3431.903006860739
 20
-1385.541322362239
 30
37.82707534244418
 10
3426.233511569233
 20
-1385.967273734919
 30
37.82707534244418
 10
3420.032839664373
 20
-1395.584023500437
 30
37.82707534244418
 10
3418.935927954915
 20
-1405.978694824694
 30
37.82707534244418
 10
3417.839016245456
 20
-1416.373366148951
 30
37.82707534244418
 10
3421.845864731398
 20
-1427.545959031946
 30
37.82707534244418
 10
3424.875398611906
 20
-1438.595252056152
 30
37.82707534244418
 10
3427.904932492412
 20
-1449.644545080357
 30
37.82707534244418
 10
3429.957151767487
 20
-1460.570538245772
 30
37.82707534244418
 10
3432.243285465898
 20
-1470.451322470251
 30
37.82707534244418
 10
3434.529419164311
 20
-1480.332106694729
 30
37.82707534244418
 10
3437.04946728606
 20
-1489.167681978271
 30
37.82707534244418
 10
3439.857752837997
 20
-1502.140319653529
 30
37.82707534244418
 10
3442.666038389938
 20
-1515.112957328786
 30
37.82707534244418
 10
3445.76256137207
 20
-1532.22265739576
 30
37.82707534244418
 10
3448.06611823021
 20
-1533.200409635387
 30
37.82707534244418
 10
3450.369675088348
 20
-1534.178161875014
 30
37.82707534244418
 10
3451.880265822492
 20
-1519.023966287298
 30
37.82707534244418
 10
3452.079369198987
 20
-1506.249080959576
 30
37.82707534244418
 10
3452.278472575486
 20
-1493.474195631856
 30
37.82707534244418
 10
3451.166088594333
 20
-1483.078620564132
 30
37.82707534244418
 10
3450.237304785698
 20
-1472.148612509198
 30
37.82707534244418
 10
3449.308520977063
 20
-1461.218604454264
 30
37.82707534244418
 10
3448.563337340946
 20
-1449.754163412119
 30
37.82707534244418
 10
3448.195909823507
 20
-1438.081166667696
 30
37.82707534244418
 10
3447.828482306068
 20
-1426.408169923273
 30
37.82707534244418
 10
3447.838810907307
 20
-1414.526617476572
 30
37.82707534244418
 10
3445.274815868852
 20
-1404.203417743144
 30
37.82707534244418
 10
3442.710820830399
 20
-1393.880218009715
 30
37.82707534244418
 10
3437.572502152244
 20
-1385.115370989558
 30
37.82707534244418
 10
3431.903006860739
 20
-1385.541322362239
 30
37.82707534244418
  0
SPLINE
  5
10D
330
1F
100
AcDbEntity
  8
Default
 62
     1
420
 16711680
100
AcDbSpline
210
0.0
220
0.0
230
1.0
 70
     9
 71
     3
 72
    35
 73
    31
 74
     0
 42
0.000000001
 43
0.0000000001
 40
-11.25791584252151
 40
-11.25791584252151
 40
-11.25791584252151
 40
-11.25791584252151
 40
-10.25791584252151
 40
-10.25791584252151
 40
-10.25791584252151
 40
-9.25791584252151
 40
-9.25791584252151
 40
-9.25791584252151
 40
-8.257915842521512
 40
-8.257915842521512
 40
-8.257915842521512
 40
-7.257915842521512
 40
-7.257915842521512
 40
-7.257915842521512
 40
-6.257915842521512
 40
-6.257915842521512
 40
-6.257915842521512
 40
-5.257915842521512
 40
-5.257915842521512
 40
-5.257915842521512
 40
-4.257915842521512
 40
-4.257915842521512
 40
-4.257915842521512
 40
-3.257915842521513
 40
-3.257915842521513
 40
-3.257915842521513
 40
-2.257915842521513
 40
-2.257915842521513
 40
-2.257915842521513
 40
-1.257915842521512
 40
-1.257915842521512
 40
-1.257915842521512
 40
-1.257915842521512
 10
3393.456587052364
 20
-1419.100701460745
 30
37.82707534244418
 10
3389.499283716726
 20
-1420.010249400378
 30
37.82707534244418
 10
3385.85632641789
 20
-1431.647077172472
 30
37.82707534244418
 10
3386.090843052328
 20
-1440.970918971473
 30
37.82707534244418
 10
3386.325359686763
 20
-1450.294760770474
 30
37.82707534244418
 10
3390.437350254477
 20
-1457.305616596381
 30
37.82707534244418
 10
3394.004931565727
 20
-1464.7112067547
 30
37.82707534244418
 10
3397.572512876977
 20
-1472.116796913019
 30
37.82707534244418
 10
3400.595684931764
 20
-1479.917121403749
 30
37.82707534244418
 10
3403.711245117223
 20
-1486.834016918201
 30
37.82707534244418
 10
3406.826805302678
 20
-1493.750912432653
 30
37.82707534244418
 10
3410.034753618804
 20
-1499.784378970827
 30
37.82707534244418
 10
3414.037917313812
 20
-1508.115883210824
 30
37.82707534244418
 10
3418.041081008821
 20
-1516.447387450822
 30
37.82707534244418
 10
3422.839460082713
 20
-1527.076929392643
 30
37.82707534244418
 10
3425.433449544286
 20
-1527.712902586697
 30
37.82707534244418
 10
3428.027439005858
 20
-1528.34887578075
 30
37.82707534244418
 10
3428.417038855112
 20
-1518.991280227035
 30
37.82707534244418
 10
3426.969294731172
 20
-1510.434886435404
 30
37.82707534244418
 10
3425.521550607233
 20
-1501.878492643772
 30
37.82707534244418
 10
3422.236462510098
 20
-1494.123300614225
 30
37.82707534244418
 10
3419.398896306302
 20
-1486.049053710929
 30
37.82707534244418
 10
3416.561330102506
 20
-1477.974806807632
 30
37.82707534244418
 10
3414.17128579205
 20
-1469.581505030585
 30
37.82707534244418
 10
3412.005588245369
 20
-1461.491256484268
 30
37.82707534244418
 10
3409.83989069869
 20
-1453.401007937951
 30
37.82707534244418
 10
3407.898539915783
 20
-1445.613812622362
 30
37.82707534244418
 10
3404.79203983811
 20
-1436.811349018151
 30
37.82707534244418
 10
3401.685539760439
 20
-1428.008885413943
 30
37.82707534244418
 10
3397.413890388004
 20
-1418.191153521114
 30
37.82707534244418
 10
3393.456587052364
 20
-1419.100701460745
 30
37.82707534244418
  0
SPLINE
  5
13F
330
1F
100
AcDbEntity
  8
Default
 62
     1
420
 16711680
100
AcDbSpline
210
0.0
220
0.0
230
1.0
 70
    13
 71
     3
 72
   275
 73
   271
 74
     0
 42
0.000000001
 43
0.0000000001
 40
0.0
 40
0.0
 40
0.0
 40
0.0
 40
0.5416547411485908
 40
0.5416547411485908
 40
0.5416547411485908
 40
1.54165474114859
 40
1.54165474114859
 40
1.54165474114859
 40
2.54165474114859
 40
2.54165474114859
 40
2.54165474114859
 40
3.541654741148591
 40
3.541654741148591
 40
3.541654741148591
 40
3.855713763951598
 40
3.855713763951598
 40
3.855713763951598
 40
16.97222429693863
 40
16.97222429693863
 40
16.97222429693863
 40
17.04914059756163
 40
17.04914059756163
 40
17.04914059756163
 40
18.04914059756163
 40
18.04914059756163
 40
18.04914059756163
 40
19.04914059756152
 40
19.04914059756152
 40
19.04914059756152
 40
20.04914059756152
 40
20.04914059756152
 40
20.04914059756152
 40
21.02625996077734
 40
21.02625996077734
 40
21.02625996077734
 40
23.78985476462935
 40
23.78985476462935
 40
23.78985476462935
 40
26.55344956848137
 40
26.55344956848137
 40
26.55344956848137
 40
29.31704437233338
 40
29.31704437233338
 40
29.31704437233338
 40
32.08063917618541
 40
32.08063917618541
 40
32.08063917618541
 40
37.05400863254239
 40
37.05400863254239
 40
37.05400863254239
 40
55.96108096646844
 40
55.96108096646844
 40
55.96108096646844
 40
60.93445042282542
 40
60.93445042282542
 40
60.93445042282542
 40
66.43223756660757
 40
66.43223756660757
 40
66.43223756660757
 40
71.93002471038972
 40
71.93002471038972
 40
71.93002471038972
 40
100.679030305193
 40
100.679030305193
 40
100.679030305193
 40
106.1768174662931
 40
106.1768174662931
 40
106.1768174662931
 40
111.6746046273932
 40
111.6746046273932
 40
111.6746046273932
 40
116.6479731301448
 40
116.6479731301448
 40
116.6479731301448
 40
135.5550454640709
 40
135.5550454640709
 40
135.5550454640709
 40
140.5284149204278
 40
140.5284149204278
 40
140.5284149204278
 40
146.02620206421
 40
146.02620206421
 40
146.02620206421
 40
151.5239892079921
 40
151.5239892079921
 40
151.5239892079921
 40
185.8318540115751
 40
185.8318540115751
 40
185.8318540115751
 40
188.5807476942262
 40
188.5807476942262
 40
188.5807476942262
 40
191.3296413768772
 40
191.3296413768772
 40
191.3296413768772
 40
194.0785350595282
 40
194.0785350595282
 40
194.0785350595282
 40
196.8274287421793
 40
196.8274287421793
 40
196.8274287421793
 40
205.8274287421671
 40
205.8274287421671
 40
205.8274287421671
 40
224.7345010760933
 40
224.7345010760933
 40
224.7345010760933
 40
233.7345010760933
 40
233.7345010760933
 40
233.7345010760933
 40
239.2322882198754
 40
239.2322882198754
 40
239.2322882198754
 40
244.7300753636576
 40
244.7300753636576
 40
244.7300753636576
 40
336.4118342022627
 40
336.4118342022627
 40
336.4118342022627
 40
339.1607279831801
 40
339.1607279831801
 40
339.1607279831801
 40
341.9096217640972
 40
341.9096217640972
 40
341.9096217640972
 40
344.6585155450145
 40
344.6585155450145
 40
344.6585155450145
 40
347.4074093259318
 40
347.4074093259318
 40
347.4074093259318
 40
352.8561796545776
 40
352.8561796545776
 40
352.8561796545776
 40
371.7632519885036
 40
371.7632519885036
 40
371.7632519885036
 40
377.2120223171567
 40
377.2120223171567
 40
377.2120223171567
 40
382.7098094609389
 40
382.7098094609389
 40
382.7098094609389
 40
388.207596604721
 40
388.207596604721
 40
388.207596604721
 40
410.5150833744151
 40
410.5150833744151
 40
410.5150833744151
 40
416.0128705181971
 40
416.0128705181971
 40
416.0128705181971
 40
421.5106576619794
 40
421.5106576619794
 40
421.5106576619794
 40
430.5106576619674
 40
430.5106576619674
 40
430.5106576619674
 40
449.4177299958935
 40
449.4177299958935
 40
449.4177299958935
 40
458.4177299958934
 40
458.4177299958934
 40
458.4177299958934
 40
463.9155171396756
 40
463.9155171396756
 40
463.9155171396756
 40
469.4133042834575
 40
469.4133042834575
 40
469.4133042834575
 40
504.3807192159399
 40
504.3807192159399
 40
504.3807192159399
 40
507.1296129588343
 40
507.1296129588343
 40
507.1296129588343
 40
509.878506701729
 40
509.878506701729
 40
509.878506701729
 40
512.6274004446234
 40
512.6274004446234
 40
512.6274004446234
 40
515.376294187518
 40
515.376294187518
 40
515.376294187518
 40
524.3762941875179
 40
524.3762941875179
 40
524.3762941875179
 40
543.2833665214441
 40
543.2833665214441
 40
543.2833665214441
 40
552.2833665214441
 40
552.2833665214441
 40
552.2833665214441
 40
555.038223334662
 40
555.038223334662
 40
555.038223334662
 40
557.7930801478799
 40
557.7930801478799
 40
557.7930801478799
 40
560.5479369610978
 40
560.5479369610978
 40
560.5479369610978
 40
563.3027937743157
 40
563.3027937743157
 40
563.3027937743157
 40
563.3270716742429
 40
563.3270716742429
 40
563.3270716742429
 40
564.3270716742429
 40
564.3270716742429
 40
564.3270716742429
 40
565.3270716742428
 40
565.3270716742428
 40
565.3270716742428
 40
566.3270716742429
 40
566.3270716742429
 40
566.3270716742429
 40
567.3270716742429
 40
567.3270716742429
 40
567.3270716742429
 40
567.612402911608
 40
567.612402911608
 40
567.612402911608
 40
582.8872638774367
 40
582.8872638774367
 40
582.8872638774367
 40
583.0187155257788
 40
583.0187155257788
 40
583.0187155257788
 40
584.0187155257788
 40
584.0187155257788
 40
584.0187155257788
 40
585.0187155257787
 40
585.0187155257787
 40
585.0187155257787
 40
586.0187155257788
 40
586.0187155257788
 40
586.0187155257788
 40
586.6726423883441
 40
586.6726423883441
 40
586.6726423883441
 40
598.4201549409666
 40
598.4201549409666
 40
598.4201549409666
 40
628.9010978114963
 40
628.9010978114963
 40
628.9010978114963
 40
634.3988849552786
 40
634.3988849552786
 40
634.3988849552786
 40
639.8966720990606
 40
639.8966720990606
 40
639.8966720990606
 40
648.8966720990606
 40
648.8966720990606
 40
648.8966720990606
 40
654.3944592428427
 40
654.3944592428427
 40
654.3944592428427
 40
659.8922463866249
 40
659.8922463866249
 40
659.8922463866249
 40
689.3144434916162
 40
689.3144434916162
 40
689.3144434916162
 40
701.3787581049208
 40
701.3787581049208
 40
701.3787581049208
 40
701.3876979726509
 40
701.3876979726509
 40
701.3876979726509
 40
701.3876979726509
 10
3302.705308902268
 20
-1486.063479161485
 30
37.82707534244418
 41
1.0
 10
3297.257851521401
 20
-1479.908671869373
 30
37.82707534244418
 41
1.0
 10
3292.015426287937
 20
-1472.460828176954
 30
37.82707534244418
 41
1.0
 10
3286.665392850478
 20
-1470.180329291442
 30
37.82707534244418
 41
1.0
 10
3276.788190583005
 20
-1465.970084808625
 30
37.82707534244418
 41
1.0
 10
3266.54421284311
 20
-1479.372394595445
 30
37.82707534244418
 41
1.0
 10
3252.444744106166
 20
-1501.744380943994
 30
37.82707534244418
 41
1.0
 10
3238.345275369222
 20
-1524.116367292542
 30
37.82707534244418
 41
1.0
 10
3220.390315635228
 20
-1555.458030202818
 30
37.82707534244418
 41
1.0
 10
3210.396259140027
 20
-1588.05299084784
 30
37.82707534244418
 41
1.0
 10
3200.402202644826
 20
-1620.647951492864
 30
37.82707534244418
 41
1.0
 10
3198.369049388413
 20
-1654.496209872632
 30
37.82707534244418
 41
1.0
 10
3191.746873728518
 20
-1672.588663063882
 30
37.82707534244418
 41
1.0
 10
3189.667119711943
 20
-1678.270761233234
 30
37.82707534244418
 41
1.0
 10
3187.134736328312
 20
-1682.398815969609
 30
37.82707534244418
 41
1.0
 10
3184.395812423902
 20
-1685.077675169823
 30
37.82707534244418
 41
1.0
 10
3178.905973519311
 20
-1685.077675169823
 30
37.82707534244418
 41
1.0
 10
3173.416134614721
 20
-1685.077675169823
 30
37.82707534244418
 41
1.0
 10
3167.926295710129
 20
-1685.077675169823
 30
37.82707534244418
 41
1.0
 10
3167.285964919012
 20
-1684.453782776934
 30
37.82707534244418
 41
1.0
 10
3166.661869569583
 20
-1683.755161524197
 30
37.82707534244418
 41
1.0
 10
3166.057624703196
 20
-1682.983351625599
 30
37.82707534244418
 41
1.0
 10
3158.201749401144
 20
-1672.948938993334
 30
37.82707534244418
 41
1.0
 10
3153.701196860418
 20
-1650.543465726075
 30
37.82707534244418
 41
1.0
 10
3142.374325272353
 20
-1619.322512499508
 30
37.82707534244418
 41
1.0
 10
3131.047453684288
 20
-1588.101559272942
 30
37.82707534244418
 41
1.0
 10
3112.894263048882
 20
-1548.065126087069
 30
37.82707534244418
 41
1.0
 10
3092.595671972749
 20
-1510.341756661345
 30
37.82707534244418
 41
1.0
 10
3072.297080896615
 20
-1472.618387235618
 30
37.82707534244418
 41
1.0
 10
3049.853089379756
 20
-1437.208081570041
 30
37.82707534244418
 41
1.0
 10
3035.076165724429
 20
-1407.909327318319
 30
37.82707534244418
 41
1.0
 10
3020.637347492046
 20
-1379.28094722086
 30
37.82707534244418
 41
1.0
 10
3013.518756221823
 20
-1356.487645702108
 30
37.82707534244418
 41
1.0
 10
3107.838488203968
 20
-1345.881718292724
 30
37.82707534244418
 41
1.0
 10
3107.930824349783
 20
-1346.823167526124
 30
37.82707534244418
 41
0.9487158620326013
 10
3108.378160357285
 20
-1347.656680045096
 30
37.82707534244418
 41
0.9487158620326013
 10
3109.111672501893
 20
-1348.254017936582
 30
37.82707534244418
 41
1.0
 10
3109.845184646503
 20
-1348.851355828066
 30
37.82707534244418
 41
0.9487158620326013
 10
3110.752020314143
 20
-1349.120617215543
 30
37.82707534244418
 41
0.9487158620326013
 10
3111.692660648338
 20
-1349.020375584577
 30
37.82707534244418
 41
1.0
 10
3112.633300982532
 20
-1348.920133953612
 30
37.82707534244418
 41
0.9487158620326013
 10
3113.463026197251
 20
-1348.465811721102
 30
37.82707534244418
 41
0.9487158620326013
 10
3114.054181065332
 20
-1347.727307459208
 30
37.82707534244418
 41
1.0
 10
3114.645335933414
 20
-1346.988803197314
 30
37.82707534244418
 41
0.9487158620326013
 10
3114.906969851415
 20
-1346.079737569407
 30
37.82707534244418
 41
0.9487158620326013
 10
3114.798829809493
 20
-1345.139972516734
 30
37.82707534244418
 41
1.0
 10
3114.798829809493
 20
-1342.139972516734
 30
37.82707534244418
 41
1.0
 10
3114.798829809492
 20
-1339.139972516734
 30
37.82707534244418
 41
1.0
 10
3114.798829809492
 20
-1336.139972516734
 30
37.82707534244418
 41
1.0
 10
3121.101187254135
 20
-1336.139972516734
 30
37.82707534244418
 41
1.0
 10
3127.403544698778
 20
-1336.139972516734
 30
37.82707534244418
 41
1.0
 10
3133.70590214342
 20
-1336.139972516734
 30
37.82707534244418
 41
1.0
 10
3133.70590214342
 20
-1339.139972516734
 30
37.82707534244418
 41
1.0
 10
3133.70590214342
 20
-1342.139972516734
 30
37.82707534244418
 41
1.0
 10
3133.70590214342
 20
-1345.139972516734
 30
37.82707534244418
 41
1.0
 10
3133.705902143418
 20
-1347.190225048427
 30
37.82707534244418
 41
0.8047378541243649
 10
3135.155649611724
 20
-1348.639972516733
 30
37.82707534244418
 41
0.8047378541243649
 10
3137.20590214342
 20
-1348.639972516733
 30
37.82707534244418
 41
1.0
 10
3139.256154675114
 20
-1348.639972516733
 30
37.82707534244418
 41
0.8047378541243649
 10
3140.705902143418
 20
-1347.190225048427
 30
37.82707534244418
 41
0.8047378541243649
 10
3140.705902143418
 20
-1345.139972516734
 30
37.82707534244418
 41
1.0
 10
3150.288904008352
 20
-1345.13997251673
 30
37.82707534244418
 41
1.0
 10
3159.871905873285
 20
-1345.139972516725
 30
37.82707534244418
 41
1.0
 10
3169.454907738214
 20
-1345.139972516721
 30
37.82707534244418
 41
1.0
 10
3169.454907738217
 20
-1347.190225056459
 30
37.82707534244418
 41
0.804737852958112
 10
3170.904655215797
 20
-1348.639972526866
 30
37.82707534244418
 41
0.804737852958112
 10
3172.954907755533
 20
-1348.639972516721
 30
37.82707534244418
 41
1.0
 10
3175.005160295271
 20
-1348.639972506577
 30
37.82707534244418
 41
0.804737852958112
 10
3176.454907758505
 20
-1347.190225021823
 30
37.82707534244418
 41
0.804737852958112
 10
3176.454907738216
 20
-1345.139972482085
 30
37.82707534244418
 41
1.0
 10
3176.454907738216
 20
-1342.139972493634
 30
37.82707534244418
 41
1.0
 10
3176.454907738216
 20
-1339.139972505184
 30
37.82707534244418
 41
1.0
 10
3176.454907738216
 20
-1336.139972516734
 30
37.82707534244418
 41
1.0
 10
3182.757265182858
 20
-1336.139972516734
 30
37.82707534244418
 41
1.0
 10
3189.059622627499
 20
-1336.139972516734
 30
37.82707534244418
 41
1.0
 10
3195.361980072141
 20
-1336.139972516734
 30
37.82707534244418
 41
1.0
 10
3195.361980072141
 20
-1339.139972516734
 30
37.82707534244418
 41
1.0
 10
3195.361980072141
 20
-1342.139972516734
 30
37.82707534244418
 41
1.0
 10
3195.361980072141
 20
-1345.139972516734
 30
37.82707534244418
 41
1.0
 10
3195.36198007214
 20
-1347.190225048427
 30
37.82707534244418
 41
0.8047378541243649
 10
3196.811727540447
 20
-1348.639972516733
 30
37.82707534244418
 41
0.8047378541243649
 10
3198.861980072142
 20
-1348.639972516733
 30
37.82707534244418
 41
1.0
 10
3200.912232603835
 20
-1348.639972516733
 30
37.82707534244418
 41
0.8047378541243649
 10
3202.36198007214
 20
-1347.190225048427
 30
37.82707534244418
 41
0.8047378541243649
 10
3202.361980072141
 20
-1345.139972516734
 30
37.82707534244418
 41
1.0
 10
3213.797935006665
 20
-1345.13997251673
 30
37.82707534244418
 41
1.0
 10
3225.233889941192
 20
-1345.139972516725
 30
37.82707534244418
 41
1.0
 10
3236.669844875714
 20
-1345.139972516721
 30
37.82707534244418
 41
1.0
 10
3236.669844875715
 20
-1346.080636413882
 30
37.82707534244418
 41
0.9492530176374291
 10
3237.029821378333
 20
-1346.949696529744
 30
37.82707534244418
 41
0.9492530176374291
 10
3237.694971219883
 20
-1347.614846329193
 30
37.82707534244418
 41
1.0
 10
3238.360121061429
 20
-1348.279996128643
 30
37.82707534244418
 41
0.9492530176374291
 10
3239.229181200077
 20
-1348.639972576257
 30
37.82707534244418
 41
0.9492530176374291
 10
3240.169845097234
 20
-1348.639972516721
 30
37.82707534244418
 41
1.0
 10
3241.110508994392
 20
-1348.639972457186
 30
37.82707534244418
 41
0.9492530176374291
 10
3241.979569087472
 20
-1348.279995899563
 30
37.82707534244418
 41
0.9492530176374291
 10
3242.644718844826
 20
-1347.614846015917
 30
37.82707534244418
 41
1.0
 10
3243.309868602178
 20
-1346.949696132271
 30
37.82707534244418
 41
0.9492530176374291
 10
3243.669844994787
 20
-1346.080635970841
 30
37.82707534244418
 41
0.9492530176374291
 10
3243.669844875717
 20
-1345.139972073681
 30
37.82707534244418
 41
1.0
 10
3243.669844875717
 20
-1342.139972221366
 30
37.82707534244418
 41
1.0
 10
3243.669844875717
 20
-1339.139972369049
 30
37.82707534244418
 41
1.0
 10
3243.669844875717
 20
-1336.139972516734
 30
37.82707534244418
 41
1.0
 10
3249.972202320358
 20
-1336.139972516734
 30
37.82707534244418
 41
1.0
 10
3256.274559765002
 20
-1336.139972516734
 30
37.82707534244418
 41
1.0
 10
3262.576917209642
 20
-1336.139972516734
 30
37.82707534244418
 41
1.0
 10
3262.576917209642
 20
-1339.139972516734
 30
37.82707534244418
 41
1.0
 10
3262.576917209642
 20
-1342.139972516734
 30
37.82707534244418
 41
1.0
 10
3262.576917209642
 20
-1345.139972516734
 30
37.82707534244418
 41
1.0
 10
3262.576917209642
 20
-1347.190225048428
 30
37.82707534244418
 41
0.8047378541243631
 10
3264.026664677947
 20
-1348.639972516733
 30
37.82707534244418
 41
0.8047378541243631
 10
3266.076917209641
 20
-1348.639972516733
 30
37.82707534244418
 41
1.0
 10
3268.127169741334
 20
-1348.639972516733
 30
37.82707534244418
 41
0.8047378541243631
 10
3269.576917209639
 20
-1347.190225048428
 30
37.82707534244418
 41
0.8047378541243631
 10
3269.576917209642
 20
-1345.139972516734
 30
37.82707534244418
 41
1.0
 10
3300.137503489168
 20
-1345.139972516729
 30
37.82707534244418
 41
1.0
 10
3330.698089768697
 20
-1345.139972516725
 30
37.82707534244418
 41
1.0
 10
3361.258676048225
 20
-1345.13997251672
 30
37.82707534244418
 41
1.0
 10
3361.258676048223
 20
-1346.080636449309
 30
37.82707534244418
 41
0.9492530140560138
 10
3361.618652576602
 20
-1346.94969659285
 30
37.82707534244418
 41
0.9492530140560138
 10
3362.283802461874
 20
-1347.614846398678
 30
37.82707534244418
 41
1.0
 10
3362.948952347151
 20
-1348.279996204505
 30
37.82707534244418
 41
0.9492530140560138
 10
3363.818012533688
 20
-1348.639972629077
 30
37.82707534244418
 41
0.9492530140560138
 10
3364.758676466276
 20
-1348.639972516721
 30
37.82707534244418
 41
1.0
 10
3365.699340398863
 20
-1348.639972404364
 30
37.82707534244418
 41
0.9492530140560138
 10
3366.568400499408
 20
-1348.279995772186
 30
37.82707534244418
 41
0.9492530140560138
 10
3367.233550225788
 20
-1347.614845807462
 30
37.82707534244418
 41
1.0
 10
3367.898699952168
 20
-1346.94969584274
 30
37.82707534244418
 41
0.9492530140560138
 10
3368.258676272935
 20
-1346.080635613205
 30
37.82707534244418
 41
0.9492530140560138
 10
3368.258676048223
 20
-1345.139971680616
 30
37.82707534244418
 41
1.0
 10
3368.258676048223
 20
-1342.139971959321
 30
37.82707534244418
 41
1.0
 10
3368.258676048223
 20
-1339.139972238027
 30
37.82707534244418
 41
1.0
 10
3368.258676048223
 20
-1336.139972516732
 30
37.82707534244418
 41
1.0
 10
3374.561033492867
 20
-1336.139972516732
 30
37.82707534244418
 41
1.0
 10
3380.863390937508
 20
-1336.139972516732
 30
37.82707534244418
 41
1.0
 10
3387.165748382151
 20
-1336.139972516732
 30
37.82707534244418
 41
1.0
 10
3387.165748382151
 20
-1339.139972516732
 30
37.82707534244418
 41
1.0
 10
3387.165748382151
 20
-1342.139972516732
 30
37.82707534244418
 41
1.0
 10
3387.165748382151
 20
-1345.139972516732
 30
37.82707534244418
 41
1.0
 10
3387.165748382148
 20
-1347.190225048426
 30
37.82707534244418
 41
0.8047378541243649
 10
3388.615495850455
 20
-1348.639972516732
 30
37.82707534244418
 41
0.8047378541243649
 10
3390.665748382149
 20
-1348.639972516732
 30
37.82707534244418
 41
1.0
 10
3392.716000913843
 20
-1348.639972516732
 30
37.82707534244418
 41
0.8047378541243649
 10
3394.16574838215
 20
-1347.190225048426
 30
37.82707534244418
 41
0.8047378541243649
 10
3394.16574838215
 20
-1345.139972516732
 30
37.82707534244418
 41
1.0
 10
3401.60157730538
 20
-1345.139972516729
 30
37.82707534244418
 41
1.0
 10
3409.03740622861
 20
-1345.139972516725
 30
37.82707534244418
 41
1.0
 10
3416.473235151838
 20
-1345.13997251672
 30
37.82707534244418
 41
1.0
 10
3416.473235151837
 20
-1347.190225048415
 30
37.82707534244418
 41
0.8047378541243649
 10
3417.922982620144
 20
-1348.63997251672
 30
37.82707534244418
 41
0.8047378541243649
 10
3419.97323515184
 20
-1348.639972516721
 30
37.82707534244418
 41
1.0
 10
3422.023487683532
 20
-1348.63997251672
 30
37.82707534244418
 41
0.8047378541243649
 10
3423.473235151837
 20
-1347.190225048415
 30
37.82707534244418
 41
0.8047378541243649
 10
3423.473235151838
 20
-1345.13997251672
 30
37.82707534244418
 41
1.0
 10
3423.473235151838
 20
-1342.139972516725
 30
37.82707534244418
 41
1.0
 10
3423.473235151838
 20
-1339.139972516729
 30
37.82707534244418
 41
1.0
 10
3423.473235151838
 20
-1336.139972516732
 30
37.82707534244418
 41
1.0
 10
3429.775592596479
 20
-1336.139972516732
 30
37.82707534244418
 41
1.0
 10
3436.077950041124
 20
-1336.139972516732
 30
37.82707534244418
 41
1.0
 10
3442.380307485765
 20
-1336.139972516732
 30
37.82707534244418
 41
1.0
 10
3442.380307485765
 20
-1339.139972516732
 30
37.82707534244418
 41
1.0
 10
3442.380307485765
 20
-1342.139972516732
 30
37.82707534244418
 41
1.0
 10
3442.380307485765
 20
-1345.139972516732
 30
37.82707534244418
 41
1.0
 10
3442.380307485764
 20
-1347.190225048426
 30
37.82707534244418
 41
0.8047378541243679
 10
3443.83005495407
 20
-1348.639972516733
 30
37.82707534244418
 41
0.8047378541243679
 10
3445.880307485764
 20
-1348.639972516732
 30
37.82707534244418
 41
1.0
 10
3447.930560017457
 20
-1348.639972516733
 30
37.82707534244418
 41
0.8047378541243679
 10
3449.380307485763
 20
-1347.190225048426
 30
37.82707534244418
 41
0.8047378541243679
 10
3449.380307485764
 20
-1345.139972516733
 30
37.82707534244418
 41
1.0
 10
3461.036112463256
 20
-1345.139972516733
 30
37.82707534244418
 41
1.0
 10
3472.691917440747
 20
-1345.139972516733
 30
37.82707534244418
 41
1.0
 10
3484.347722418237
 20
-1345.139972516734
 30
37.82707534244418
 41
1.0
 10
3484.347722418239
 20
-1346.080636435613
 30
37.82707534244418
 41
0.9492530154417917
 10
3484.707698936647
 20
-1346.949696568444
 30
37.82707534244418
 41
0.9492530154417917
 10
3485.372848805005
 20
-1347.614846371804
 30
37.82707534244418
 41
1.0
 10
3486.037998673359
 20
-1348.279996175164
 30
37.82707534244418
 41
0.9492530154417917
 10
3486.907058841363
 20
-1348.639972608652
 30
37.82707534244418
 41
0.9492530154417917
 10
3487.847722760245
 20
-1348.639972516733
 30
37.82707534244418
 41
1.0
 10
3488.788386679125
 20
-1348.639972424815
 30
37.82707534244418
 41
0.9492530154417917
 10
3489.65744677678
 20
-1348.279995821485
 30
37.82707534244418
 41
0.9492530154417917
 10
3490.322596515143
 20
-1347.614845888133
 30
37.82707534244418
 41
1.0
 10
3490.987746253507
 20
-1346.949695954782
 30
37.82707534244418
 41
0.9492530154417917
 10
3491.347722602073
 20
-1346.0806357516
 30
37.82707534244418
 41
0.9492530154417917
 10
3491.347722418237
 20
-1345.139971832719
 30
37.82707534244418
 41
1.0
 10
3491.347722418237
 20
-1342.139972060724
 30
37.82707534244418
 41
1.0
 10
3491.347722418237
 20
-1339.139972288728
 30
37.82707534244418
 41
1.0
 10
3491.347722418237
 20
-1336.139972516734
 30
37.82707534244418
 41
1.0
 10
3497.650079862881
 20
-1336.139972516734
 30
37.82707534244418
 41
1.0
 10
3503.952437307522
 20
-1336.139972516734
 30
37.82707534244418
 41
1.0
 10
3510.254794752163
 20
-1336.139972516734
 30
37.82707534244418
 41
1.0
 10
3510.254794752163
 20
-1339.139972516734
 30
37.82707534244418
 41
1.0
 10
3510.254794752163
 20
-1342.139972516734
 30
37.82707534244418
 41
1.0
 10
3510.254794752163
 20
-1345.139972516734
 30
37.82707534244418
 41
1.0
 10
3510.177786846508
 20
-1346.07963651299
 30
37.82707534244418
 41
0.949035461669132
 10
3510.466999220246
 20
-1346.976996444271
 30
37.82707534244418
 41
0.949035461669132
 10
3511.078213148054
 20
-1347.694851706735
 30
37.82707534244418
 41
1.0
 10
3511.68942707586
 20
-1348.4127069692
 30
37.82707534244418
 41
0.949035461669132
 10
3512.52919185078
 20
-1348.841302076728
 30
37.82707534244418
 41
0.949035461669132
 10
3513.469112800631
 20
-1348.91510757396
 30
37.82707534244418
 41
1.0
 10
3514.409033750482
 20
-1348.988913071193
 30
37.82707534244418
 41
0.949035461669132
 10
3515.305402963437
 20
-1348.696644568853
 30
37.82707534244418
 41
0.949035461669132
 10
3516.021171310158
 20
-1348.08298805481
 30
37.82707534244418
 41
1.0
 10
3516.736939656878
 20
-1347.469331540768
 30
37.82707534244418
 41
0.949035461669132
 10
3517.162670727336
 20
-1346.62811117782
 30
37.82707534244418
 41
0.949035461669132
 10
3517.233272959156
 20
-1345.687944188261
 30
37.82707534244418
 41
1.0
 10
3519.753676085917
 20
-1345.893592476408
 30
37.82707534244418
 41
1.0
 10
3522.211529004742
 20
-1346.102943934251
 30
37.82707534244418
 41
1.0
 10
3524.603683322072
 20
-1346.315901212129
 30
37.82707534244418
 41
1.0
 10
3623.135859684164
 20
-1355.087552735385
 30
37.82707534244418
 41
1.0
 10
3610.204224169113
 20
-1369.97681463289
 30
37.82707534244418
 41
1.0
 10
3597.338127634168
 20
-1389.247513142888
 30
37.82707534244418
 41
1.0
 10
3584.472031099223
 20
-1408.518211652885
 30
37.82707534244418
 41
1.0
 10
3571.671473544389
 20
-1432.170346775373
 30
37.82707534244418
 41
1.0
 10
3556.801087172789
 20
-1463.469202677888
 30
37.82707534244418
 41
1.0
 10
3541.930700801189
 20
-1494.768058580404
 30
37.82707534244418
 41
1.0
 10
3524.990485612825
 20
-1533.713635262947
 30
37.82707534244418
 41
1.0
 10
3513.375149839411
 20
-1572.434373350338
 30
37.82707534244418
 41
1.0
 10
3501.759814065997
 20
-1611.155111437728
 30
37.82707534244418
 41
1.0
 10
3495.469357707534
 20
-1649.651010929966
 30
37.82707534244418
 41
1.0
 10
3485.397266196062
 20
-1671.046703904528
 30
37.82707534244418
 41
1.0
 10
3482.523383862235
 20
-1677.15156345525
 30
37.82707534244418
 41
1.0
 10
3479.341623805441
 20
-1681.864228245779
 30
37.82707534244418
 41
1.0
 10
3476.07538670875
 20
-1685.077675169823
 30
37.82707534244418
 41
1.0
 10
3469.68218283169
 20
-1685.077675169823
 30
37.82707534244418
 41
1.0
 10
3463.288978954628
 20
-1685.077675169823
 30
37.82707534244418
 41
1.0
 10
3456.895775077568
 20
-1685.077675169823
 30
37.82707534244418
 41
1.0
 10
3455.661920926736
 20
-1683.528580354333
 30
37.82707534244418
 41
1.0
 10
3454.507053869327
 20
-1681.614857721639
 30
37.82707534244418
 41
1.0
 10
3453.453018030013
 20
-1679.326042549596
 30
37.82707534244418
 41
1.0
 10
3445.434588039916
 20
-1661.914201763217
 30
37.82707534244418
 41
1.0
 10
3443.251454724205
 20
-1622.795033733572
 30
37.82707534244418
 41
1.0
 10
3434.164411775118
 20
-1589.021476765439
 30
37.82707534244418
 41
1.0
 10
3425.077368826031
 20
-1555.247919797306
 30
37.82707534244418
 41
1.0
 10
3409.086416243567
 20
-1526.819973890687
 30
37.82707534244418
 41
1.0
 10
3394.524706150049
 20
-1503.751175190874
 30
37.82707534244418
 41
1.0
 10
3379.962996056534
 20
-1480.682376491061
 30
37.82707534244418
 41
1.0
 10
3366.830528451963
 20
-1462.972724998054
 30
37.82707534244418
 41
1.0
 10
3353.908525959787
 20
-1466.24674888057
 30
37.82707534244418
 41
1.0
 10
3345.458481412019
 20
-1468.387721046026
 30
37.82707534244418
 41
1.0
 10
3337.098436027503
 20
-1479.50173964326
 30
37.82707534244418
 41
1.0
 10
3329.21710409888
 20
-1487.27828779256
 30
37.82707534244418
 41
1.0
 10
3325.510038371167
 20
-1490.93606738937
 30
37.82707534244418
 41
0.5905150506192465
 10
3320.705308902269
 20
-1488.927022188495
 30
37.82707534244418
 41
0.5905150506192465
 10
3320.705308902269
 20
-1483.719173507087
 30
37.82707534244419
 41
0.9999999999999998
 10
3320.705308902268
 20
-1477.177753909176
 30
37.82707534244418
 41
1.0
 10
3320.705308902268
 20
-1470.636334311264
 30
37.82707534244418
 41
1.0
 10
3320.705308902268
 20
-1464.094914713353
 30
37.82707534244418
 41
1.0
 10
3322.755561433963
 20
-1464.094914713353
 30
37.82707534244419
 41
0.8047378541243627
 10
3324.205308902269
 20
-1462.645167245047
 30
37.82707534244419
 41
0.8047378541243627
 10
3324.205308902268
 20
-1460.594914713354
 30
37.82707534244418
 41
1.0
 10
3324.20530890227
 20
-1458.54466218166
 30
37.82707534244419
 41
0.8047378541243627
 10
3322.755561433964
 20
-1457.094914713354
 30
37.82707534244419
 41
0.8047378541243627
 10
3320.705308902269
 20
-1457.094914713354
 30
37.82707534244419
 41
0.9999999999999998
 10
3317.705308902268
 20
-1457.094914713354
 30
37.82707534244418
 41
1.0
 10
3314.705308902268
 20
-1457.094914713354
 30
37.82707534244418
 41
1.0
 10
3311.705308902268
 20
-1457.094914713354
 30
37.82707534244418
 41
1.0
 10
3309.655056370575
 20
-1457.094914713354
 30
37.82707534244418
 41
0.8047378541243693
 10
3308.205308902271
 20
-1458.54466218166
 30
37.82707534244418
 41
0.8047378541243693
 10
3308.20530890227
 20
-1460.594914713354
 30
37.82707534244418
 41
1.0
 10
3308.20530890227
 20
-1462.645167245047
 30
37.82707534244418
 41
0.8047378541243725
 10
3309.655056370575
 20
-1464.094914713353
 30
37.82707534244418
 41
0.8047378541243725
 10
3311.705308902268
 20
-1464.094914713352
 30
37.82707534244418
 41
1.0
 10
3311.705308902268
 20
-1470.409120201473
 30
37.82707534244418
 41
1.0
 10
3311.705308902268
 20
-1476.723325689594
 30
37.82707534244418
 41
1.0
 10
3311.705308902268
 20
-1483.037531177715
 30
37.82707534244418
 41
1.0
 10
3311.70530890227
 20
-1488.492916331865
 30
37.82707534244418
 41
0.5709039521838318
 10
3306.60806823658
 20
-1490.436975172575
 30
37.82707534244418
 41
0.5709039521838317
 10
3302.975204378444
 20
-1486.367143804032
 30
37.82707534244419
 41
0.9999999999999998
 10
3302.885182430591
 20
-1486.266293851616
 30
37.82707534244418
 41
1.0
 10
3302.795217740409
 20
-1486.165062622157
 30
37.82707534244418
 41
1.0
 10
3302.705308902268
 20
-1486.063479161485
 30
37.82707534244418
 41
1.0
  0
POLYLINE
  5
140
330
1F
100
AcDbEntity
  8
Default
100
AcDb2dPolyline
 66
     1
 10
0.0
 20
0.0
 30
37.82707534244413
 70
     1
  0
VERTEX
  5
141
330
140
100
AcDbEntity
  8
Default
100
AcDbVertex
100
AcDb2dVertex
 10
2844.04792640533
 20
-1948.62457140785
 30
37.82707534244413
  0
VERTEX
  5
142
330
140
100
AcDbEntity
  8
Default
100
AcDbVertex
100
AcDb2dVertex
 10
3819.79089794704
 20
-1948.62457140785
 30
37.82707534244413
  0
VERTEX
  5
143
330
140
100
AcDbEntity
  8
Default
100
AcDbVertex
100
AcDb2dVertex
 10
3819.79089794704
 20
-1328.498365363442
 30
37.82707534244413
  0
VERTEX
  5
144
330
140
100
AcDbEntity
  8
Default
100
AcDbVertex
100
AcDb2dVertex
 10
2844.04792640533
 20
-1328.498365363442
 30
37.82707534244413
  0
SEQEND
  5
145
330
140
100
AcDbEntity
  8
Default
  0
ENDSEC
  0
SECTION
  2
OBJECTS
  0
DICTIONARY
  5
C
330
0
100
AcDbDictionary
281
     1
  3
ACAD_CIP_PREVIOUS_PRODUCT_INFO
350
18A
  3
ACAD_COLOR
350
185
  3
ACAD_DETAILVIEWSTYLE
350
181
  3
ACAD_GROUP
350
D
  3
ACAD_LAYOUT
350
1A
  3
ACAD_MATERIAL
350
43
  3
ACAD_MLEADERSTYLE
350
5B
  3
ACAD_MLINESTYLE
350
17
  3
ACAD_PLOTSETTINGS
350
19
  3
ACAD_PLOTSTYLENAME
350
E
  3
ACAD_RENDER_ACTIVE_RAPIDRT_SETTINGS
350
192
  3
ACAD_RENDER_ACTIVE_SETTINGS
350
1D2
  3
ACAD_SCALELIST
350
47
  3
ACAD_SECTIONVIEWSTYLE
350
182
  3
ACAD_TABLESTYLE
350
59
  3
ACAD_VISUALSTYLE
350
2A
  3
ACDB_RECOMPOSE_DATA
350
19D
  3
AcDbVariableDictionary
350
146
  0
SUN
  5
5D
330
29
100
AcDbSun
 90
        1
290
     1
 63
     7
421
 16777215
 40
1.0
291
     1
 91
  2455826
 92
 54000000
292
     0
 70
     0
 71
   256
280
     1
1001
ACAD
1000
AcDbSavedByObjectVersion
1070
     0
  0
DICTIONARY
  5
193
330
10
100
AcDbDictionary
280
     1
281
     1
  3
ADSK_XREC_LAYER_RECONCILED
360
194
  0
DICTIONARY
  5
195
330
5F
100
AcDbDictionary
280
     1
281
     1
  3
ADSK_XREC_LAYER_RECONCILED
360
196
  0
XRECORD
  5
18A
102
{ACAD_REACTORS
330
C
102
}
330
C
100
AcDbXrecord
280
     1
300
ACD
300
2016
300
ACD_F_S
  0
DICTIONARY
  5
185
102
{ACAD_REACTORS
330
C
102
}
330
C
100
AcDbDictionary
281
     1
  0
DICTIONARY
  5
181
102
{ACAD_REACTORS
330
C
102
}
330
C
100
AcDbDictionary
281
     1
  3
Metric50
350
187
  0
DICTIONARY
  5
D
102
{ACAD_REACTORS
330
C
102
}
330
C
100
AcDbDictionary
281
     1
  0
DICTIONARY
  5
1A
102
{ACAD_REACTORS
330
C
102
}
330
C
100
AcDbDictionary
281
     1
  3
Layout1
350
1E
  3
Layout2
350
26
  3
Model
350
22
  0
DICTIONARY
  5
43
102
{ACAD_REACTORS
330
C
102
}
330
C
100
AcDbDictionary
281
     1
  3
ByBlock
350
45
  3
ByLayer
350
44
  3
Global
350
46
  0
DICTIONARY
  5
5B
102
{ACAD_REACTORS
330
C
102
}
330
C
100
AcDbDictionary
281
     1
  3
Standard
350
5C
  0
DICTIONARY
  5
17
102
{ACAD_REACTORS
330
C
102
}
330
C
100
AcDbDictionary
281
     1
  3
Standard
350
18
  0
DICTIONARY
  5
19
102
{ACAD_REACTORS
330
C
102
}
330
C
100
AcDbDictionary
281
     1
  0
ACDBDICTIONARYWDFLT
  5
E
102
{ACAD_REACTORS
330
C
102
}
330
C
100
AcDbDictionary
281
     1
  3
Normal
350
F
100
AcDbDictionaryWithDefault
340
F
  0
RAPIDRTRENDERSETTINGS
  5
192
102
{ACAD_REACTORS
330
C
102
}
330
C
100
AcDbRenderSettings
 90
        2
  1
Medium
290
     1
290
     0
290
     1
290
     1
  1

  1
Applies 5 rendering levels
 90
        0
100
AcDbRapidRTRenderSettings
 90
        3
 70
     0
 90
        5
 90
        1
 70
     1
 70
     2
 40
3.0
 40
3.0
290
     1
  0
MENTALRAYRENDERSETTINGS
  5
1D2
102
{ACAD_XDICTIONARY
360
1D3
102
}
102
{ACAD_REACTORS
330
C
102
}
330
C
100
AcDbRenderSettings
 90
        2
  1
Medium
290
     1
290
     1
290
     1
290
     1
  1

  1

 90
        0
100
AcDbMentalRayRenderSettings
 90
        2
 90
        0
 90
        1
 70
     2
 40
3.0
 40
3.0
 40
0.0500000007450581
 40
0.0500000007450581
 40
0.0500000007450581
 40
0.0500000007450581
 70
     0
290
     0
290
     1
 90
        5
 90
        5
 90
        5
290
     0
 90
      500
290
     0
 40
1.0
 90
    10000
 90
        5
 90
        5
 90
        5
290
     0
 90
      200
290
     0
290
     0
290
     0
 40
1.0
 40
1.0
 40
1500.0
 70
     0
 70
     0
 40
10.0
 70
     0
 70
     0
290
     0
  1

 90
       32
 70
     0
 90
     1048
290
     0
 40
1.0
  0
DICTIONARY
  5
47
102
{ACAD_REACTORS
330
C
102
}
330
C
100
AcDbDictionary
281
     1
  3
A0
350
48
  3
A1
350
49
  3
A2
350
4A
  3
A3
350
4B
  3
A4
350
4C
  3
A5
350
4D
  3
A6
350
4E
  3
A7
350
4F
  3
A8
350
50
  3
A9
350
51
  3
B1
350
52
  3
B2
350
53
  3
B3
350
54
  3
B4
350
55
  3
B5
350
56
  3
B6
350
57
  3
B7
350
58
  0
DICTIONARY
  5
182
102
{ACAD_REACTORS
330
C
102
}
330
C
100
AcDbDictionary
281
     1
  3
Metric50
350
186
  0
DICTIONARY
  5
59
102
{ACAD_REACTORS
330
C
102
}
330
C
100
AcDbDictionary
281
     1
  3
Standard
350
5A
  0
DICTIONARY
  5
2A
102
{ACAD_REACTORS
330
C
102
}
330
C
100
AcDbDictionary
281
     1
  3
2dWireframe
350
2F
  3
Basic
350
32
  3
Brighten
350
36
  3
ColorChange
350
3A
  3
Conceptual
350
34
  3
Dim
350
35
  3
EdgeColorOff
350
3D
  3
Facepattern
350
39
  3
Flat
350
2B
  3
FlatWithEdges
350
2C
  3
Gouraud
350
2D
  3
GouraudWithEdges
350
2E
  3
Hidden
350
31
  3
JitterOff
350
3B
  3
Linepattern
350
38
  3
OverhangOff
350
3C
  3
Realistic
350
33
  3
Shaded
350
42
  3
Shaded with edges
350
41
  3
Shades of Gray
350
3E
  3
Sketchy
350
3F
  3
Thicken
350
37
  3
Wireframe
350
30
  3
X-Ray
350
40
  0
XRECORD
  5
19D
102
{ACAD_REACTORS
330
C
102
}
330
C
100
AcDbXrecord
280
     1
 90
        1
330
5A
  0
DICTIONARY
  5
146
102
{ACAD_REACTORS
330
C
102
}
330
C
100
AcDbDictionary
281
     1
  3
CANNOSCALE
350
147
  3
CMLEADERSTYLE
350
180
  3
CTABLESTYLE
350
17F
  3
CVIEWDETAILSTYLE
350
197
  3
CVIEWSECTIONSTYLE
350
198
  3
LAYEREVAL
350
199
  3
LAYERNOTIFY
350
19A
  0
XRECORD
  5
194
102
{ACAD_REACTORS
330
193
102
}
330
193
100
AcDbXrecord
280
     1
290
     1
  0
XRECORD
  5
196
102
{ACAD_REACTORS
330
195
102
}
330
195
100
AcDbXrecord
280
     1
290
     1
  0
ACDBDETAILVIEWSTYLE
  5
187
102
{ACAD_XDICTIONARY
360
1D0
102
}
102
{ACAD_REACTORS
330
181
102
}
330
181
100
AcDbModelDocViewStyle
 70
     0
  3
Metric50
290
     0
100
AcDbDetailViewStyle
 70
     0
 71
     0
 90
        3
 71
     1
340
11
 62
   256
 40
5.0
340
0
 62
   256
 40
5.0
300

 40
0.0
280
     1
 71
     2
340
16
 90
       25
 62
   256
 71
     3
340
11
 62
   256
 40
5.0
 90
        0
 40
15.0
 90
        1
300
%<\AcVar ViewDetailId>% (%<\AcVar ViewScale \f "%sn">%)
 71
     4
340
16
 90
       25
 62
   256
340
16
 90
       25
 62
   256
280
     0
  0
LAYOUT
  5
1E
102
{ACAD_REACTORS
330
1A
102
}
330
1A
100
AcDbPlotSettings
  1

  2
none_device
  4

  6

 40
0.0
 41
0.0
 42
0.0
 43
0.0
 44
0.0
 45
0.0
 46
0.0
 47
0.0
 48
0.0
 49
0.0
140
0.0
141
0.0
142
1.0
143
1.0
 70
   688
 72
     0
 73
     0
 74
     5
  7

 75
    16
147
1.0
 76
     0
 77
     2
 78
   300
148
0.0
149
0.0
100
AcDbLayout
  1
Layout1
 70
     1
 71
     1
 10
0.0
 20
0.0
 11
12.0
 21
9.0
 12
0.0
 22
0.0
 32
0.0
 14
1.000000000000000E+20
 24
1.000000000000000E+20
 34
1.000000000000000E+20
 15
-1.000000000000000E+20
 25
-1.000000000000000E+20
 35
-1.000000000000000E+20
146
0.0
 13
0.0
 23
0.0
 33
0.0
 16
1.0
 26
0.0
 36
0.0
 17
0.0
 27
1.0
 37
0.0
 76
     0
330
1B
  0
LAYOUT
  5
26
102
{ACAD_REACTORS
330
1A
102
}
330
1A
100
AcDbPlotSettings
  1

  2
none_device
  4

  6

 40
0.0
 41
0.0
 42
0.0
 43
0.0
 44
0.0
 45
0.0
 46
0.0
 47
0.0
 48
0.0
 49
0.0
140
0.0
141
0.0
142
1.0
143
1.0
 70
   688
 72
     0
 73
     0
 74
     5
  7

 75
    16
147
1.0
 76
     0
 77
     2
 78
   300
148
0.0
149
0.0
100
AcDbLayout
  1
Layout2
 70
     1
 71
     2
 10
0.0
 20
0.0
 11
0.0
 21
0.0
 12
0.0
 22
0.0
 32
0.0
 14
0.0
 24
0.0
 34
0.0
 15
0.0
 25
0.0
 35
0.0
146
0.0
 13
0.0
 23
0.0
 33
0.0
 16
1.0
 26
0.0
 36
0.0
 17
0.0
 27
1.0
 37
0.0
 76
     0
330
23
  0
LAYOUT
  5
22
102
{ACAD_REACTORS
330
1A
102
}
330
1A
100
AcDbPlotSettings
  1

  2
none_device
  4
Letter_(8.50_x_11.00_Inches)
  6

 40
6.349999999999999
 41
6.349999999999999
 42
6.350005079999999
 43
6.350005079999999
 44
215.9
 45
279.4
 46
0.0
 47
0.0
 48
0.0
 49
0.0
140
0.0
141
0.0
142
1.0
143
1.0
 70
  1712
 72
     0
 73
     0
 74
     0
  7

 75
     0
147
1.0
 76
     0
 77
     2
 78
   300
148
0.0
149
0.0
100
AcDbLayout
  1
Model
 70
     1
 71
     0
 10
0.0
 20
0.0
 11
12.0
 21
9.0
 12
0.0
 22
0.0
 32
0.0
 14
2844.04792640533
 24
-1948.62457140785
 34
37.82707534244413
 15
3819.79089794704
 25
-1328.498365363442
 35
37.8270753424442
146
0.0
 13
0.0
 23
0.0
 33
0.0
 16
1.0
 26
0.0
 36
0.0
 17
0.0
 27
1.0
 37
0.0
 76
     0
330
1F
331
29
  0
MATERIAL
  5
45
102
{ACAD_REACTORS
330
43
102
}
330
43
100
AcDbMaterial
  1
ByBlock
  0
MATERIAL
  5
44
102
{ACAD_REACTORS
330
43
102
}
330
43
100
AcDbMaterial
  1
ByLayer
  0
MATERIAL
  5
46
102
{ACAD_REACTORS
330
43
102
}
330
43
100
AcDbMaterial
  1
Global
  0
MLEADERSTYLE
  5
5C
102
{ACAD_REACTORS
330
5B
102
}
330
5B
100
AcDbMLeaderStyle
179
     2
170
     2
171
     1
172
     0
 90
        2
 40
0.0
 41
0.0
173
     1
 91
-1056964608
340
14
 92
       -2
290
     1
 42
0.09
291
     1
 43
0.36
  3
Standard
 44
0.18
300

342
11
174
     1
178
     6
175
     1
176
     0
 93
-1056964608
 45
0.18
292
     0
297
     0
 46
0.18
 94
-1056964608
 47
1.0
 49
1.0
140
1.0
293
     1
141
0.0
294
     1
177
     0
142
1.0
295
     0
296
     0
143
0.125
271
     0
272
     9
273
     9
1001
ACAD_MLEADERVER
1070
     2
  0
MLINESTYLE
  5
18
102
{ACAD_REACTORS
330
17
102
}
330
17
100
AcDbMlineStyle
  2
STANDARD
 70
     0
  3

 62
   256
 51
90.0
 52
90.0
 71
     2
 49
0.5
 62
   256
  6
BYLAYER
 49
-0.5
 62
   256
  6
BYLAYER
  0
ACDBPLACEHOLDER
  5
F
102
{ACAD_REACTORS
330
E
102
}
330
E
  0
DICTIONARY
  5
1D3
330
1D2
100
AcDbDictionary
280
     1
281
     1
  3
ADSK_XREC_MENTALRAYSETTINGSINFO
360
1D4
  0
SCALE
  5
48
102
{ACAD_REACTORS
330
47
102
}
330
47
100
AcDbScale
 70
     0
300
1:1
140
1.0
141
1.0
290
     1
  0
SCALE
  5
49
102
{ACAD_REACTORS
330
47
102
}
330
47
100
AcDbScale
 70
     0
300
1/128" = 1'-0"
140
0.0078125
141
12.0
290
     0
  0
SCALE
  5
4A
102
{ACAD_REACTORS
330
47
102
}
330
47
100
AcDbScale
 70
     0
300
1/64" = 1'-0"
140
0.015625
141
12.0
290
     0
  0
SCALE
  5
4B
102
{ACAD_REACTORS
330
47
102
}
330
47
100
AcDbScale
 70
     0
300
1/32" = 1'-0"
140
0.03125
141
12.0
290
     0
  0
SCALE
  5
4C
102
{ACAD_REACTORS
330
47
102
}
330
47
100
AcDbScale
 70
     0
300
1/16" = 1'-0"
140
0.0625
141
12.0
290
     0
  0
SCALE
  5
4D
102
{ACAD_REACTORS
330
47
102
}
330
47
100
AcDbScale
 70
     0
300
3/32" = 1'-0"
140
0.09375
141
12.0
290
     0
  0
SCALE
  5
4E
102
{ACAD_REACTORS
330
47
102
}
330
47
100
AcDbScale
 70
     0
300
1/8" = 1'-0"
140
0.125
141
12.0
290
     0
  0
SCALE
  5
4F
102
{ACAD_REACTORS
330
47
102
}
330
47
100
AcDbScale
 70
     0
300
3/16" = 1'-0"
140
0.1875
141
12.0
290
     0
  0
SCALE
  5
50
102
{ACAD_REACTORS
330
47
102
}
330
47
100
AcDbScale
 70
     0
300
1/4" = 1'-0"
140
0.25
141
12.0
290
     0
  0
SCALE
  5
51
102
{ACAD_REACTORS
330
47
102
}
330
47
100
AcDbScale
 70
     0
300
3/8" = 1'-0"
140
0.375
141
12.0
290
     0
  0
SCALE
  5
52
102
{ACAD_REACTORS
330
47
102
}
330
47
100
AcDbScale
 70
     0
300
1/2" = 1'-0"
140
0.5
141
12.0
290
     0
  0
SCALE
  5
53
102
{ACAD_REACTORS
330
47
102
}
330
47
100
AcDbScale
 70
     0
300
3/4" = 1'-0"
140
0.75
141
12.0
290
     0
  0
SCALE
  5
54
102
{ACAD_REACTORS
330
47
102
}
330
47
100
AcDbScale
 70
     0
300
1" = 1'-0"
140
1.0
141
12.0
290
     0
  0
SCALE
  5
55
102
{ACAD_REACTORS
330
47
102
}
330
47
100
AcDbScale
 70
     0
300
1-1/2" = 1'-0"
140
1.5
141
12.0
290
     0
  0
SCALE
  5
56
102
{ACAD_REACTORS
330
47
102
}
330
47
100
AcDbScale
 70
     0
300
3" = 1'-0"
140
3.0
141
12.0
290
     0
  0
SCALE
  5
57
102
{ACAD_REACTORS
330
47
102
}
330
47
100
AcDbScale
 70
     0
300
6" = 1'-0"
140
6.0
141
12.0
290
     0
  0
SCALE
  5
58
102
{ACAD_REACTORS
330
47
102
}
330
47
100
AcDbScale
 70
     0
300
1'-0" = 1'-0"
140
12.0
141
12.0
290
     0
  0
ACDBSECTIONVIEWSTYLE
  5
186
102
{ACAD_XDICTIONARY
360
1CE
102
}
102
{ACAD_REACTORS
330
182
102
}
330
182
100
AcDbModelDocViewStyle
 70
     0
  3
Metric50
290
     0
100
AcDbSectionViewStyle
 70
     0
 71
     0
 90
      102
 71
     1
340
11
 62
   256
 40
5.0
340
0
340
0
 62
   256
 40
5.0
300
I, O, Q, S, X, Z
 40
10.0
 90
        0
 40
2.5
 90
        0
 71
     2
340
16
 90
       25
 62
   256
340
16
 90
       50
 62
   256
 40
5.0
 40
2.5
 40
5.0
 71
     3
340
11
 62
   256
 40
5.0
 90
        0
 40
15.0
 90
        1
300
%<\AcVar ViewSectionStartId>%-%<\AcVar ViewSectionEndId>% (%<\AcVar ViewScale \f "%sn">%)
 71
     4
 62
   256
 62
   257
300
ANSI31
 40
1.0
 90
        0
290
     0
290
     0
 90
        6
 40
0.0
 40
1.570796326794896
 40
0.2617993877991494
 40
1.308996938995747
 40
-0.2617993877991494
 40
1.832595714594046
  0
TABLESTYLE
  5
5A
102
{ACAD_XDICTIONARY
360
179
102
}
102
{ACAD_REACTORS
330
59
102
}
330
59
100
AcDbTableStyle
280
     0
  3
Standard
 70
     0
 71
     0
 40
0.06
 41
0.06
280
     0
281
     0
  7
Standard
140
0.18
170
     2
 62
     0
 63
     7
283
     0
 90
        4
 91
        0
  1

274
    -2
284
     1
 64
     0
275
    -2
285
     1
 65
     0
276
    -2
286
     1
 66
     0
277
    -2
287
     1
 67
     0
278
    -2
288
     1
 68
     0
279
    -2
289
     1
 69
     0
  7
Standard
140
0.25
170
     5
 62
     0
 63
     7
283
     0
 90
        4
 91
        0
  1

274
    -2
284
     1
 64
     0
275
    -2
285
     1
 65
     0
276
    -2
286
     1
 66
     0
277
    -2
287
     1
 67
     0
278
    -2
288
     1
 68
     0
279
    -2
289
     1
 69
     0
  7
Standard
140
0.18
170
     5
 62
     0
 63
     7
283
     0
 90
        4
 91
        0
  1

274
    -2
284
     1
 64
     0
275
    -2
285
     1
 65
     0
276
    -2
286
     1
 66
     0
277
    -2
287
     1
 67
     0
278
    -2
288
     1
 68
     0
279
    -2
289
     1
 69
     0
  0
VISUALSTYLE
  5
2F
102
{ACAD_XDICTIONARY
360
1A6
102
}
102
{ACAD_REACTORS
330
2A
102
}
330
2A
100
AcDbVisualStyle
  2

 70
     4
177
     2
291
     0
 71
     0
176
     1
 72
     2
176
     1
 73
     0
176
     1
 90
        0
176
     1
 40
0.6
176
     1
 41
30.0
176
     1
 63
     7
421
 16777215
176
     1
 74
     1
176
     1
 91
        4
176
     1
 64
     7
176
     1
 65
   257
176
     1
 75
     1
176
     1
175
     1
176
     1
 42
1.0
176
     1
 92
        0
176
     1
 66
   257
176
     1
 43
1.0
176
     1
 76
     1
176
     1
 77
     6
176
     1
 78
     2
176
     1
 67
     7
176
     1
 79
     5
176
     1
170
     0
176
     1
171
     0
176
     1
290
     0
176
     1
 93
        1
176
     1
 44
0.0
176
     1
173
     0
176
     1
1001
ACAD
1000
AcDbSavedByObjectVersion
1070
     0
  0
VISUALSTYLE
  5
32
102
{ACAD_XDICTIONARY
360
1AC
102
}
102
{ACAD_REACTORS
330
2A
102
}
330
2A
100
AcDbVisualStyle
  2

 70
     7
177
     2
291
     1
 71
     1
176
     1
 72
     0
176
     1
 73
     1
176
     1
 90
        0
176
     1
 40
0.6
176
     1
 41
30.0
176
     1
 63
     7
421
 16777215
176
     1
 74
     0
176
     1
 91
        4
176
     1
 64
     7
176
     1
 65
   257
176
     1
 75
     1
176
     1
175
     1
176
     1
 42
1.0
176
     1
 92
        8
176
     1
 66
     7
176
     1
 43
1.0
176
     1
 76
     1
176
     1
 77
     6
176
     1
 78
     2
176
     1
 67
     7
176
     1
 79
     5
176
     1
170
     0
176
     1
171
     0
176
     1
290
     0
176
     1
 93
        1
176
     1
 44
0.0
176
     1
173
     0
176
     1
1001
ACAD
1000
AcDbSavedByObjectVersion
1070
     0
  0
VISUALSTYLE
  5
36
102
{ACAD_XDICTIONARY
360
1B4
102
}
102
{ACAD_REACTORS
330
2A
102
}
330
2A
100
AcDbVisualStyle
  2

 70
    12
177
     2
291
     1
 71
     2
176
     1
 72
     2
176
     1
 73
     0
176
     1
 90
        0
176
     1
 40
0.6
176
     1
 41
30.0
176
     1
 63
     7
421
 16777215
176
     1
 74
     1
176
     1
 91
        4
176
     1
 64
     7
176
     1
 65
   257
176
     1
 75
     1
176
     1
175
     1
176
     1
 42
1.0
176
     1
 92
        8
176
     1
 66
     7
176
     1
 43
1.0
176
     1
 76
     1
176
     1
 77
     6
176
     1
 78
     2
176
     1
 67
     7
176
     1
 79
     5
176
     1
170
     0
176
     1
171
     0
176
     1
290
     0
176
     1
 93
        1
176
     1
 44
50.0
176
     1
173
     0
176
     1
1001
ACAD
1000
AcDbSavedByObjectVersion
1070
     0
  0
VISUALSTYLE
  5
3A
102
{ACAD_XDICTIONARY
360
1BC
102
}
102
{ACAD_REACTORS
330
2A
102
}
330
2A
100
AcDbVisualStyle
  2

 70
    16
177
     2
291
     1
 71
     2
176
     1
 72
     2
176
     1
 73
     3
176
     1
 90
        0
176
     1
 40
0.6
176
     1
 41
30.0
176
     1
 63
     8
421
  8421504
176
     1
 74
     1
176
     1
 91
        4
176
     1
 64
     7
176
     1
 65
   257
176
     1
 75
     1
176
     1
175
     1
176
     1
 42
1.0
176
     1
 92
        8
176
     1
 66
     8
424
  8421504
176
     1
 43
1.0
176
     1
 76
     1
176
     1
 77
     6
176
     1
 78
     2
176
     1
 67
     7
176
     1
 79
     5
176
     1
170
     0
176
     1
171
     0
176
     1
290
     0
176
     1
 93
        1
176
     1
 44
0.0
176
     1
173
     0
176
     1
1001
ACAD
1000
AcDbSavedByObjectVersion
1070
     0
  0
VISUALSTYLE
  5
34
102
{ACAD_XDICTIONARY
360
1B0
102
}
102
{ACAD_REACTORS
330
2A
102
}
330
2A
100
AcDbVisualStyle
  2

 70
     9
177
     2
291
     0
 71
     3
176
     1
 72
     2
176
     1
 73
     0
176
     1
 90
        0
176
     1
 40
0.6
176
     1
 41
30.0
176
     1
 63
     7
421
 16777215
176
     1
 74
     2
176
     1
 91
        2
176
     1
 64
     7
176
     1
 65
   257
176
     1
 75
     1
176
     1
175
     1
176
     1
 42
179.0
176
     1
 92
        8
176
     1
 66
     7
176
     1
 43
1.0
176
     1
 76
     1
176
     1
 77
     6
176
     1
 78
     2
176
     1
 67
     7
176
     1
 79
     3
176
     1
170
     0
176
     1
171
     0
176
     1
290
     0
176
     1
 93
        1
176
     1
 44
0.0
176
     1
173
     0
176
     1
1001
ACAD
1000
AcDbSavedByObjectVersion
1070
     0
  0
VISUALSTYLE
  5
35
102
{ACAD_XDICTIONARY
360
1B2
102
}
102
{ACAD_REACTORS
330
2A
102
}
330
2A
100
AcDbVisualStyle
  2

 70
    11
177
     2
291
     1
 71
     2
176
     1
 72
     2
176
     1
 73
     0
176
     1
 90
        0
176
     1
 40
0.6
176
     1
 41
30.0
176
     1
 63
     7
421
 16777215
176
     1
 74
     1
176
     1
 91
        4
176
     1
 64
     7
176
     1
 65
   257
176
     1
 75
     1
176
     1
175
     1
176
     1
 42
1.0
176
     1
 92
        8
176
     1
 66
     7
176
     1
 43
1.0
176
     1
 76
     1
176
     1
 77
     6
176
     1
 78
     2
176
     1
 67
     7
176
     1
 79
     5
176
     1
170
     0
176
     1
171
     0
176
     1
290
     0
176
     1
 93
        1
176
     1
 44
-50.0
176
     1
173
     0
176
     1
1001
ACAD
1000
AcDbSavedByObjectVersion
1070
     0
  0
VISUALSTYLE
  5
3D
102
{ACAD_XDICTIONARY
360
1C2
102
}
102
{ACAD_REACTORS
330
2A
102
}
330
2A
100
AcDbVisualStyle
  2

 70
    22
177
     2
291
     1
 71
     2
176
     0
 72
     2
176
     0
 73
     0
176
     0
 90
        0
176
     0
 40
0.6
176
     0
 41
30.0
176
     0
 63
     7
421
 16777215
176
     0
 74
     1
176
     0
 91
        4
176
     0
 64
     7
176
     0
 65
   257
176
     0
 75
     1
176
     0
175
     1
176
     0
 42
1.0
176
     0
 92
        8
176
     2
 66
     7
176
     0
 43
1.0
176
     0
 76
     1
176
     0
 77
     6
176
     0
 78
     2
176
     0
 67
     7
176
     0
 79
     5
176
     0
170
     0
176
     0
171
     0
176
     0
290
     0
176
     0
 93
        1
176
     0
 44
0.0
176
     0
173
     0
176
     0
1001
ACAD
1000
AcDbSavedByObjectVersion
1070
     0
  0
VISUALSTYLE
  5
39
102
{ACAD_XDICTIONARY
360
1BA
102
}
102
{ACAD_REACTORS
330
2A
102
}
330
2A
100
AcDbVisualStyle
  2

 70
    15
177
     2
291
     1
 71
     2
176
     1
 72
     2
176
     1
 73
     0
176
     1
 90
        0
176
     1
 40
0.6
176
     1
 41
30.0
176
     1
 63
     7
421
 16777215
176
     1
 74
     1
176
     1
 91
        4
176
     1
 64
     7
176
     1
 65
   257
176
     1
 75
     1
176
     1
175
     1
176
     1
 42
1.0
176
     1
 92
        8
176
     1
 66
     7
176
     1
 43
1.0
176
     1
 76
     1
176
     1
 77
     6
176
     1
 78
     2
176
     1
 67
     7
176
     1
 79
     5
176
     1
170
     0
176
     1
171
     0
176
     1
290
     0
176
     1
 93
        1
176
     1
 44
0.0
176
     1
173
     0
176
     1
1001
ACAD
1000
AcDbSavedByObjectVersion
1070
     0
  0
VISUALSTYLE
  5
2B
102
{ACAD_XDICTIONARY
360
19E
102
}
102
{ACAD_REACTORS
330
2A
102
}
330
2A
100
AcDbVisualStyle
  2

 70
     0
177
     2
291
     1
 71
     2
176
     1
 72
     1
176
     1
 73
     1
176
     1
 90
        2
176
     1
 40
0.6
176
     1
 41
30.0
176
     1
 63
     7
421
 16777215
176
     1
 74
     0
176
     1
 91
        0
176
     1
 64
     7
176
     1
 65
   257
176
     1
 75
     1
176
     1
175
     1
176
     1
 42
1.0
176
     1
 92
        8
176
     1
 66
     7
176
     1
 43
1.0
176
     1
 76
     1
176
     1
 77
     6
176
     1
 78
     2
176
     1
 67
     7
176
     1
 79
     5
176
     1
170
     0
176
     1
171
     0
176
     1
290
     0
176
     1
 93
       13
176
     1
 44
0.0
176
     1
173
     0
176
     1
1001
ACAD
1000
AcDbSavedByObjectVersion
1070
     0
  0
VISUALSTYLE
  5
2C
102
{ACAD_XDICTIONARY
360
1A0
102
}
102
{ACAD_REACTORS
330
2A
102
}
330
2A
100
AcDbVisualStyle
  2

 70
     1
177
     2
291
     1
 71
     2
176
     1
 72
     1
176
     1
 73
     1
176
     1
 90
        2
176
     1
 40
0.6
176
     1
 41
30.0
176
     1
 63
     7
421
 16777215
176
     1
 74
     1
176
     1
 91
        0
176
     1
 64
     7
176
     1
 65
   257
176
     1
 75
     1
176
     1
175
     1
176
     1
 42
1.0
176
     1
 92
        0
176
     1
 66
   257
176
     1
 43
1.0
176
     1
 76
     1
176
     1
 77
     6
176
     1
 78
     2
176
     1
 67
     7
176
     1
 79
     5
176
     1
170
     0
176
     1
171
     0
176
     1
290
     0
176
     1
 93
       13
176
     1
 44
0.0
176
     1
173
     0
176
     1
1001
ACAD
1000
AcDbSavedByObjectVersion
1070
     0
  0
VISUALSTYLE
  5
2D
102
{ACAD_XDICTIONARY
360
1A2
102
}
102
{ACAD_REACTORS
330
2A
102
}
330
2A
100
AcDbVisualStyle
  2

 70
     2
177
     2
291
     1
 71
     2
176
     1
 72
     2
176
     1
 73
     1
176
     1
 90
        2
176
     1
 40
0.6
176
     1
 41
30.0
176
     1
 63
     7
421
 16777215
176
     1
 74
     0
176
     1
 91
        0
176
     1
 64
     7
176
     1
 65
   257
176
     1
 75
     1
176
     1
175
     1
176
     1
 42
1.0
176
     1
 92
        0
176
     1
 66
     7
176
     1
 43
1.0
176
     1
 76
     1
176
     1
 77
     6
176
     1
 78
     2
176
     1
 67
     7
176
     1
 79
     5
176
     1
170
     0
176
     1
171
     0
176
     1
290
     0
176
     1
 93
       13
176
     1
 44
0.0
176
     1
173
     0
176
     1
1001
ACAD
1000
AcDbSavedByObjectVersion
1070
     0
  0
VISUALSTYLE
  5
2E
102
{ACAD_XDICTIONARY
360
1A4
102
}
102
{ACAD_REACTORS
330
2A
102
}
330
2A
100
AcDbVisualStyle
  2

 70
     3
177
     2
291
     1
 71
     2
176
     1
 72
     2
176
     1
 73
     1
176
     1
 90
        2
176
     1
 40
0.6
176
     1
 41
30.0
176
     1
 63
     7
421
 16777215
176
     1
 74
     1
176
     1
 91
        0
176
     1
 64
     7
176
     1
 65
   257
176
     1
 75
     1
176
     1
175
     1
176
     1
 42
1.0
176
     1
 92
        0
176
     1
 66
   257
176
     1
 43
1.0
176
     1
 76
     1
176
     1
 77
     6
176
     1
 78
     2
176
     1
 67
     7
176
     1
 79
     5
176
     1
170
     0
176
     1
171
     0
176
     1
290
     0
176
     1
 93
       13
176
     1
 44
0.0
176
     1
173
     0
176
     1
1001
ACAD
1000
AcDbSavedByObjectVersion
1070
     0
  0
VISUALSTYLE
  5
31
102
{ACAD_XDICTIONARY
360
1AA
102
}
102
{ACAD_REACTORS
330
2A
102
}
330
2A
100
AcDbVisualStyle
  2

 70
     6
177
     2
291
     0
 71
     1
176
     1
 72
     2
176
     1
 73
     2
176
     1
 90
        0
176
     1
 40
0.6
176
     1
 41
30.0
176
     1
 63
     7
421
 16777215
176
     1
 74
     2
176
     1
 91
        2
176
     1
 64
     7
176
     1
 65
   257
176
     1
 75
     2
176
     1
175
     1
176
     1
 42
40.0
176
     1
 92
        0
176
     1
 66
   257
176
     1
 43
1.0
176
     1
 76
     1
176
     1
 77
     6
176
     1
 78
     2
176
     1
 67
     7
176
     1
 79
     3
176
     1
170
     0
176
     1
171
     0
176
     1
290
     0
176
     1
 93
        1
176
     1
 44
0.0
176
     1
173
     0
176
     1
1001
ACAD
1000
AcDbSavedByObjectVersion
1070
     0
  0
VISUALSTYLE
  5
3B
102
{ACAD_XDICTIONARY
360
1BE
102
}
102
{ACAD_REACTORS
330
2A
102
}
330
2A
100
AcDbVisualStyle
  2

 70
    20
177
     2
291
     1
 71
     2
176
     0
 72
     2
176
     0
 73
     0
176
     0
 90
        0
176
     0
 40
0.6
176
     0
 41
30.0
176
     0
 63
     7
421
 16777215
176
     0
 74
     1
176
     0
 91
        4
176
     0
 64
     7
176
     0
 65
   257
176
     0
 75
     1
176
     0
175
     1
176
     0
 42
1.0
176
     0
 92
       10
176
     2
 66
     7
176
     0
 43
1.0
176
     0
 76
     1
176
     0
 77
     6
176
     0
 78
     2
176
     0
 67
     7
176
     0
 79
     5
176
     0
170
     0
176
     0
171
     0
176
     0
290
     0
176
     0
 93
        1
176
     0
 44
0.0
176
     0
173
     0
176
     0
1001
ACAD
1000
AcDbSavedByObjectVersion
1070
     0
  0
VISUALSTYLE
  5
38
102
{ACAD_XDICTIONARY
360
1B8
102
}
102
{ACAD_REACTORS
330
2A
102
}
330
2A
100
AcDbVisualStyle
  2

 70
    14
177
     2
291
     1
 71
     2
176
     1
 72
     2
176
     1
 73
     0
176
     1
 90
        0
176
     1
 40
0.6
176
     1
 41
30.0
176
     1
 63
     7
421
 16777215
176
     1
 74
     1
176
     1
 91
        4
176
     1
 64
     7
176
     1
 65
   257
176
     1
 75
     7
176
     1
175
     7
176
     1
 42
1.0
176
     1
 92
        8
176
     1
 66
     7
176
     1
 43
1.0
176
     1
 76
     1
176
     1
 77
     6
176
     1
 78
     2
176
     1
 67
     7
176
     1
 79
     5
176
     1
170
     0
176
     1
171
     0
176
     1
290
     0
176
     1
 93
        1
176
     1
 44
0.0
176
     1
173
     0
176
     1
1001
ACAD
1000
AcDbSavedByObjectVersion
1070
     0
  0
VISUALSTYLE
  5
3C
102
{ACAD_XDICTIONARY
360
1C0
102
}
102
{ACAD_REACTORS
330
2A
102
}
330
2A
100
AcDbVisualStyle
  2

 70
    21
177
     2
291
     1
 71
     2
176
     0
 72
     2
176
     0
 73
     0
176
     0
 90
        0
176
     0
 40
0.6
176
     0
 41
30.0
176
     0
 63
     7
421
 16777215
176
     0
 74
     1
176
     0
 91
        4
176
     0
 64
     7
176
     0
 65
   257
176
     0
 75
     1
176
     0
175
     1
176
     0
 42
1.0
176
     0
 92
        9
176
     2
 66
     7
176
     0
 43
1.0
176
     0
 76
     1
176
     0
 77
     6
176
     0
 78
     2
176
     0
 67
     7
176
     0
 79
     5
176
     0
170
     0
176
     0
171
     0
176
     0
290
     0
176
     0
 93
        1
176
     0
 44
0.0
176
     0
173
     0
176
     0
1001
ACAD
1000
AcDbSavedByObjectVersion
1070
     0
  0
VISUALSTYLE
  5
33
102
{ACAD_XDICTIONARY
360
1AE
102
}
102
{ACAD_REACTORS
330
2A
102
}
330
2A
100
AcDbVisualStyle
  2

 70
     8
177
     2
291
     0
 71
     2
176
     1
 72
     3
176
     1
 73
     0
176
     1
 90
        2
176
     1
 40
0.6
176
     1
 41
30.0
176
     1
 63
     7
421
 16777215
176
     1
 74
     0
176
     1
 91
        0
176
     1
 64
     7
176
     1
 65
   257
176
     1
 75
     1
176
     1
175
     1
176
     1
 42
1.0
176
     1
 92
        8
176
     1
 66
   257
176
     1
 43
1.0
176
     1
 76
     1
176
     1
 77
     6
176
     1
 78
     2
176
     1
 67
     7
176
     1
 79
     3
176
     1
170
     0
176
     1
171
     0
176
     1
290
     0
176
     1
 93
       13
176
     1
 44
0.0
176
     1
173
     0
176
     1
1001
ACAD
1000
AcDbSavedByObjectVersion
1070
     0
  0
VISUALSTYLE
  5
42
102
{ACAD_XDICTIONARY
360
1CC
102
}
102
{ACAD_REACTORS
330
2A
102
}
330
2A
100
AcDbVisualStyle
  2

 70
    27
177
     2
291
     0
 71
     2
176
     1
 72
     2
176
     1
 73
     1
176
     1
 90
        2
176
     1
 40
0.6
176
     1
 41
30.0
176
     1
 63
     7
421
 16777215
176
     1
 74
     0
176
     1
 91
        4
176
     1
 64
     7
176
     1
 65
   257
176
     1
 75
     1
176
     1
175
     1
176
     1
 42
1.0
176
     1
 92
        8
176
     1
 66
   257
176
     1
 43
1.0
176
     1
 76
     1
176
     1
 77
     6
176
     1
 78
     2
176
     1
 67
     8
425
  7895160
176
     1
 79
     3
176
     1
170
     0
176
     1
171
     0
176
     1
290
     0
176
     1
 93
        5
176
     1
 44
0.0
176
     1
173
     0
176
     1
1001
ACAD
1000
AcDbSavedByObjectVersion
1070
     0
  0
VISUALSTYLE
  5
41
102
{ACAD_XDICTIONARY
360
1CA
102
}
102
{ACAD_REACTORS
330
2A
102
}
330
2A
100
AcDbVisualStyle
  2

 70
    26
177
     2
291
     0
 71
     2
176
     1
 72
     2
176
     1
 73
     1
176
     1
 90
        2
176
     1
 40
0.6
176
     1
 41
30.0
176
     1
 63
     7
421
 16777215
176
     1
 74
     1
176
     1
 91
       10
176
     1
 64
     7
176
     1
 65
   257
176
     1
 75
     2
176
     1
175
     1
176
     1
 42
1.0
176
     1
 92
        8
176
     1
 66
   257
176
     1
 43
1.0
176
     1
 76
     1
176
     1
 77
     6
176
     1
 78
     2
176
     1
 67
     7
176
     1
 79
     3
176
     1
170
     0
176
     1
171
     0
176
     1
290
     0
176
     1
 93
        5
176
     1
 44
0.0
176
     1
173
     0
176
     1
1001
ACAD
1000
AcDbSavedByObjectVersion
1070
     0
  0
VISUALSTYLE
  5
3E
102
{ACAD_XDICTIONARY
360
1C4
102
}
102
{ACAD_REACTORS
330
2A
102
}
330
2A
100
AcDbVisualStyle
  2

 70
    23
177
     2
291
     0
 71
     2
176
     1
 72
     2
176
     1
 73
     3
176
     1
 90
        0
176
     1
 40
0.6
176
     1
 41
30.0
176
     1
 63
     7
421
 16777215
176
     1
 74
     2
176
     1
 91
        2
176
     1
 64
     7
176
     1
 65
     7
176
     1
 75
     1
176
     1
175
     1
176
     1
 42
40.0
176
     1
 92
        8
176
     1
 66
     7
176
     1
 43
1.0
176
     1
 76
     1
176
     1
 77
     6
176
     1
 78
     2
176
     1
 67
     7
176
     1
 79
     3
176
     1
170
     0
176
     1
171
     0
176
     1
290
     0
176
     1
 93
        1
176
     1
 44
0.0
176
     1
173
     0
176
     1
1001
ACAD
1000
AcDbSavedByObjectVersion
1070
     0
  0
VISUALSTYLE
  5
3F
102
{ACAD_XDICTIONARY
360
1C6
102
}
102
{ACAD_REACTORS
330
2A
102
}
330
2A
100
AcDbVisualStyle
  2

 70
    24
177
     2
291
     0
 71
     1
176
     1
 72
     2
176
     1
 73
     2
176
     1
 90
        0
176
     1
 40
0.6
176
     1
 41
30.0
176
     1
 63
     7
421
 16777215
176
     1
 74
     2
176
     1
 91
        2
176
     1
 64
     7
176
     1
 65
     7
176
     1
 75
     1
176
     1
175
     1
176
     1
 42
40.0
176
     1
 92
       11
176
     1
 66
     7
176
     1
 43
1.0
176
     1
 76
     1
176
     1
 77
     6
176
     1
 78
     2
176
     1
 67
     7
176
     1
 79
     6
176
     1
170
     0
176
     1
171
     0
176
     1
290
     0
176
     1
 93
        1
176
     1
 44
0.0
176
     1
173
     0
176
     1
1001
ACAD
1000
AcDbSavedByObjectVersion
1070
     0
  0
VISUALSTYLE
  5
37
102
{ACAD_XDICTIONARY
360
1B6
102
}
102
{ACAD_REACTORS
330
2A
102
}
330
2A
100
AcDbVisualStyle
  2

 70
    13
177
     2
291
     1
 71
     2
176
     1
 72
     2
176
     1
 73
     0
176
     1
 90
        0
176
     1
 40
0.6
176
     1
 41
30.0
176
     1
 63
     7
421
 16777215
176
     1
 74
     1
176
     1
 91
        4
176
     1
 64
     7
176
     1
 65
   257
176
     1
 75
     1
176
     1
175
     1
176
     1
 42
1.0
176
     1
 92
       12
176
     1
 66
     7
176
     1
 43
1.0
176
     1
 76
     1
176
     1
 77
     6
176
     1
 78
     2
176
     1
 67
     7
176
     1
 79
     5
176
     1
170
     0
176
     1
171
     0
176
     1
290
     0
176
     1
 93
        1
176
     1
 44
0.0
176
     1
173
     0
176
     1
1001
ACAD
1000
AcDbSavedByObjectVersion
1070
     0
  0
VISUALSTYLE
  5
30
102
{ACAD_XDICTIONARY
360
1A8
102
}
102
{ACAD_REACTORS
330
2A
102
}
330
2A
100
AcDbVisualStyle
  2

 70
     5
177
     2
291
     0
 71
     0
176
     1
 72
     2
176
     1
 73
     0
176
     1
 90
        0
176
     1
 40
0.6
176
     1
 41
30.0
176
     1
 63
     7
421
 16777215
176
     1
 74
     1
176
     1
 91
        4
176
     1
 64
     7
176
     1
 65
   257
176
     1
 75
     1
176
     1
175
     1
176
     1
 42
1.0
176
     1
 92
        0
176
     1
 66
   257
176
     1
 43
1.0
176
     1
 76
     1
176
     1
 77
     6
176
     1
 78
     2
176
     1
 67
     7
176
     1
 79
     3
176
     1
170
     0
176
     1
171
     0
176
     1
290
     0
176
     1
 93
        1
176
     1
 44
0.0
176
     1
173
     0
176
     1
1001
ACAD
1000
AcDbSavedByObjectVersion
1070
     0
  0
VISUALSTYLE
  5
40
102
{ACAD_XDICTIONARY
360
1C8
102
}
102
{ACAD_REACTORS
330
2A
102
}
330
2A
100
AcDbVisualStyle
  2

 70
    25
177
     2
291
     0
 71
     2
176
     1
 72
     2
176
     1
 73
     1
176
     1
 90
        1
176
     1
 40
0.5
176
     1
 41
30.0
176
     1
 63
     7
421
 16777215
176
     1
 74
     1
176
     1
 91
        0
176
     1
 64
     7
176
     1
 65
   257
176
     1
 75
     1
176
     1
175
     1
176
     1
 42
1.0
176
     1
 92
        8
176
     1
 66
     7
176
     1
 43
1.0
176
     1
 76
     1
176
     1
 77
     6
176
     1
 78
     2
176
     1
 67
     7
176
     1
 79
     3
176
     1
170
     0
176
     1
171
     0
176
     1
290
     0
176
     1
 93
       13
176
     1
 44
0.0
176
     1
173
     0
176
     1
1001
ACAD
1000
AcDbSavedByObjectVersion
1070
     0
  0
DICTIONARYVAR
  5
147
102
{ACAD_REACTORS
330
146
102
}
330
146
100
DictionaryVariables
280
     0
  1
1:1
  0
DICTIONARYVAR
  5
180
102
{ACAD_REACTORS
330
146
102
}
330
146
100
DictionaryVariables
280
     0
  1
STANDARD
  0
DICTIONARYVAR
  5
17F
102
{ACAD_REACTORS
330
146
102
}
330
146
100
DictionaryVariables
280
     0
  1
STANDARD
  0
DICTIONARYVAR
  5
197
102
{ACAD_REACTORS
330
146
102
}
330
146
100
DictionaryVariables
280
     0
  1
Metric50
  0
DICTIONARYVAR
  5
198
102
{ACAD_REACTORS
330
146
102
}
330
146
100
DictionaryVariables
280
     0
  1
Metric50
  0
DICTIONARYVAR
  5
199
102
{ACAD_REACTORS
330
146
102
}
330
146
100
DictionaryVariables
280
     0
  1
1
  0
DICTIONARYVAR
  5
19A
102
{ACAD_REACTORS
330
146
102
}
330
146
100
DictionaryVariables
280
     0
  1
15
  0
DICTIONARY
  5
1D0
330
187
100
AcDbDictionary
280
     1
281
     1
  3
ACAD_XREC_ROUNDTRIP
360
1D1
  0
XRECORD
  5
1D4
102
{ACAD_REACTORS
330
1D3
102
}
330
1D3
100
AcDbXrecord
280
     1
 70
     2
 71
     3
 72
     0
  0
DICTIONARY
  5
1CE
330
186
100
AcDbDictionary
280
     1
281
     1
  3
ACAD_XREC_ROUNDTRIP
360
1CF
  0
DICTIONARY
  5
179
330
5A
100
AcDbDictionary
280
     1
281
     1
  3
ACAD_ROUNDTRIP_2008_TABLESTYLE_CELLSTYLEMAP
360
19C
  0
DICTIONARY
  5
1A6
330
2F
100
AcDbDictionary
280
     1
281
     1
  3
ACAD_XREC_ROUNDTRIP
360
1A7
  0
DICTIONARY
  5
1AC
330
32
100
AcDbDictionary
280
     1
281
     1
  3
ACAD_XREC_ROUNDTRIP
360
1AD
  0
DICTIONARY
  5
1B4
330
36
100
AcDbDictionary
280
     1
281
     1
  3
ACAD_XREC_ROUNDTRIP
360
1B5
  0
DICTIONARY
  5
1BC
330
3A
100
AcDbDictionary
280
     1
281
     1
  3
ACAD_XREC_ROUNDTRIP
360
1BD
  0
DICTIONARY
  5
1B0
330
34
100
AcDbDictionary
280
     1
281
     1
  3
ACAD_XREC_ROUNDTRIP
360
1B1
  0
DICTIONARY
  5
1B2
330
35
100
AcDbDictionary
280
     1
281
     1
  3
ACAD_XREC_ROUNDTRIP
360
1B3
  0
DICTIONARY
  5
1C2
330
3D
100
AcDbDictionary
280
     1
281
     1
  3
ACAD_XREC_ROUNDTRIP
360
1C3
  0
DICTIONARY
  5
1BA
330
39
100
AcDbDictionary
280
     1
281
     1
  3
ACAD_XREC_ROUNDTRIP
360
1BB
  0
DICTIONARY
  5
19E
330
2B
100
AcDbDictionary
280
     1
281
     1
  3
ACAD_XREC_ROUNDTRIP
360
19F
  0
DICTIONARY
  5
1A0
330
2C
100
AcDbDictionary
280
     1
281
     1
  3
ACAD_XREC_ROUNDTRIP
360
1A1
  0
DICTIONARY
  5
1A2
330
2D
100
AcDbDictionary
280
     1
281
     1
  3
ACAD_XREC_ROUNDTRIP
360
1A3
  0
DICTIONARY
  5
1A4
330
2E
100
AcDbDictionary
280
     1
281
     1
  3
ACAD_XREC_ROUNDTRIP
360
1A5
  0
DICTIONARY
  5
1AA
330
31
100
AcDbDictionary
280
     1
281
     1
  3
ACAD_XREC_ROUNDTRIP
360
1AB
  0
DICTIONARY
  5
1BE
330
3B
100
AcDbDictionary
280
     1
281
     1
  3
ACAD_XREC_ROUNDTRIP
360
1BF
  0
DICTIONARY
  5
1B8
330
38
100
AcDbDictionary
280
     1
281
     1
  3
ACAD_XREC_ROUNDTRIP
360
1B9
  0
DICTIONARY
  5
1C0
330
3C
100
AcDbDictionary
280
     1
281
     1
  3
ACAD_XREC_ROUNDTRIP
360
1C1
  0
DICTIONARY
  5
1AE
330
33
100
AcDbDictionary
280
     1
281
     1
  3
ACAD_XREC_ROUNDTRIP
360
1AF
  0
DICTIONARY
  5
1CC
330
42
100
AcDbDictionary
280
     1
281
     1
  3
ACAD_XREC_ROUNDTRIP
360
1CD
  0
DICTIONARY
  5
1CA
330
41
100
AcDbDictionary
280
     1
281
     1
  3
ACAD_XREC_ROUNDTRIP
360
1CB
  0
DICTIONARY
  5
1C4
330
3E
100
AcDbDictionary
280
     1
281
     1
  3
ACAD_XREC_ROUNDTRIP
360
1C5
  0
DICTIONARY
  5
1C6
330
3F
100
AcDbDictionary
280
     1
281
     1
  3
ACAD_XREC_ROUNDTRIP
360
1C7
  0
DICTIONARY
  5
1B6
330
37
100
AcDbDictionary
280
     1
281
     1
  3
ACAD_XREC_ROUNDTRIP
360
1B7
  0
DICTIONARY
  5
1A8
330
30
100
AcDbDictionary
280
     1
281
     1
  3
ACAD_XREC_ROUNDTRIP
360
1A9
  0
DICTIONARY
  5
1C8
330
40
100
AcDbDictionary
280
     1
281
     1
  3
ACAD_XREC_ROUNDTRIP
360
1C9
  0
XRECORD
  5
1D1
102
{ACAD_REACTORS
330
1D0
102
}
330
1D0
100
AcDbXrecord
280
     1
102
DISPLAYNAME
  1
Metric50
102
FLAGS
 90
        0
  0
XRECORD
  5
1CF
102
{ACAD_REACTORS
330
1CE
102
}
330
1CE
100
AcDbXrecord
280
     1
102
DISPLAYNAME
  1
Metric50
102
FLAGS
 90
        0
  0
CELLSTYLEMAP
  5
19C
102
{ACAD_REACTORS
330
179
102
}
330
179
100
AcDbCellStyleMap
 90
        3
300
CELLSTYLE
  1
TABLEFORMAT_BEGIN
 90
        5
170
     1
 91
        0
 92
    32768
 62
   257
 93
        1
300
CONTENTFORMAT
  1
CONTENTFORMAT_BEGIN
 90
        0
 91
        0
 92
        4
 93
        0
300

 40
0.0
140
1.0
 94
        5
 62
     0
340
11
144
0.25
309
CONTENTFORMAT_END
171
     1
301
MARGIN
  1
CELLMARGIN_BEGIN
 40
0.06
 40
0.06
 40
0.06
 40
0.06
 40
0.18
 40
0.18
309
CELLMARGIN_END
 94
        6
 95
        1
302
GRIDFORMAT
  1
GRIDFORMAT_BEGIN
 90
        0
 91
        1
 62
     0
 92
       -2
340
14
 93
        0
 40
0.045
309
GRIDFORMAT_END
 95
        2
302
GRIDFORMAT
  1
GRIDFORMAT_BEGIN
 90
        0
 91
        1
 62
     0
 92
       -2
340
14
 93
        0
 40
0.045
309
GRIDFORMAT_END
 95
        4
302
GRIDFORMAT
  1
GRIDFORMAT_BEGIN
 90
        0
 91
        1
 62
     0
 92
       -2
340
14
 93
        0
 40
0.045
309
GRIDFORMAT_END
 95
        8
302
GRIDFORMAT
  1
GRIDFORMAT_BEGIN
 90
        0
 91
        1
 62
     0
 92
       -2
340
14
 93
        0
 40
0.045
309
GRIDFORMAT_END
 95
       16
302
GRIDFORMAT
  1
GRIDFORMAT_BEGIN
 90
        0
 91
        1
 62
     0
 92
       -2
340
14
 93
        0
 40
0.045
309
GRIDFORMAT_END
 95
       32
302
GRIDFORMAT
  1
GRIDFORMAT_BEGIN
 90
        0
 91
        1
 62
     0
 92
       -2
340
14
 93
        0
 40
0.045
309
GRIDFORMAT_END
309
TABLEFORMAT_END
  1
CELLSTYLE_BEGIN
 90
        1
 91
        1
300
_TITLE
309
CELLSTYLE_END
300
CELLSTYLE
  1
TABLEFORMAT_BEGIN
 90
        5
170
     1
 91
        0
 92
        0
 62
   257
 93
        1
300
CONTENTFORMAT
  1
CONTENTFORMAT_BEGIN
 90
        0
 91
        0
 92
        4
 93
        0
300

 40
0.0
140
1.0
 94
        5
 62
     0
340
11
144
0.18
309
CONTENTFORMAT_END
171
     1
301
MARGIN
  1
CELLMARGIN_BEGIN
 40
0.06
 40
0.06
 40
0.06
 40
0.06
 40
0.18
 40
0.18
309
CELLMARGIN_END
 94
        6
 95
        1
302
GRIDFORMAT
  1
GRIDFORMAT_BEGIN
 90
        0
 91
        1
 62
     0
 92
       -2
340
14
 93
        0
 40
0.045
309
GRIDFORMAT_END
 95
        2
302
GRIDFORMAT
  1
GRIDFORMAT_BEGIN
 90
        0
 91
        1
 62
     0
 92
       -2
340
14
 93
        0
 40
0.045
309
GRIDFORMAT_END
 95
        4
302
GRIDFORMAT
  1
GRIDFORMAT_BEGIN
 90
        0
 91
        1
 62
     0
 92
       -2
340
14
 93
        0
 40
0.045
309
GRIDFORMAT_END
 95
        8
302
GRIDFORMAT
  1
GRIDFORMAT_BEGIN
 90
        0
 91
        1
 62
     0
 92
       -2
340
14
 93
        0
 40
0.045
309
GRIDFORMAT_END
 95
       16
302
GRIDFORMAT
  1
GRIDFORMAT_BEGIN
 90
        0
 91
        1
 62
     0
 92
       -2
340
14
 93
        0
 40
0.045
309
GRIDFORMAT_END
 95
       32
302
GRIDFORMAT
  1
GRIDFORMAT_BEGIN
 90
        0
 91
        1
 62
     0
 92
       -2
340
14
 93
        0
 40
0.045
309
GRIDFORMAT_END
309
TABLEFORMAT_END
  1
CELLSTYLE_BEGIN
 90
        2
 91
        1
300
_HEADER
309
CELLSTYLE_END
300
CELLSTYLE
  1
TABLEFORMAT_BEGIN
 90
        5
170
     1
 91
        0
 92
        0
 62
   257
 93
        1
300
CONTENTFORMAT
  1
CONTENTFORMAT_BEGIN
 90
        0
 91
        0
 92
        4
 93
        0
300

 40
0.0
140
1.0
 94
        2
 62
     0
340
11
144
0.18
309
CONTENTFORMAT_END
171
     1
301
MARGIN
  1
CELLMARGIN_BEGIN
 40
0.06
 40
0.06
 40
0.06
 40
0.06
 40
0.18
 40
0.18
309
CELLMARGIN_END
 94
        6
 95
        1
302
GRIDFORMAT
  1
GRIDFORMAT_BEGIN
 90
        0
 91
        1
 62
     0
 92
       -2
340
14
 93
        0
 40
0.045
309
GRIDFORMAT_END
 95
        2
302
GRIDFORMAT
  1
GRIDFORMAT_BEGIN
 90
        0
 91
        1
 62
     0
 92
       -2
340
14
 93
        0
 40
0.045
309
GRIDFORMAT_END
 95
        4
302
GRIDFORMAT
  1
GRIDFORMAT_BEGIN
 90
        0
 91
        1
 62
     0
 92
       -2
340
14
 93
        0
 40
0.045
309
GRIDFORMAT_END
 95
        8
302
GRIDFORMAT
  1
GRIDFORMAT_BEGIN
 90
        0
 91
        1
 62
     0
 92
       -2
340
14
 93
        0
 40
0.045
309
GRIDFORMAT_END
 95
       16
302
GRIDFORMAT
  1
GRIDFORMAT_BEGIN
 90
        0
 91
        1
 62
     0
 92
       -2
340
14
 93
        0
 40
0.045
309
GRIDFORMAT_END
 95
       32
302
GRIDFORMAT
  1
GRIDFORMAT_BEGIN
 90
        0
 91
        1
 62
     0
 92
       -2
340
14
 93
        0
 40
0.045
309
GRIDFORMAT_END
309
TABLEFORMAT_END
  1
CELLSTYLE_BEGIN
 90
        3
 91
        2
300
_DATA
309
CELLSTYLE_END
  0
XRECORD
  5
1A7
102
{ACAD_REACTORS
330
1A6
102
}
330
1A6
100
AcDbXrecord
280
     1
102
RTVSPost2010Prop28
280
     1
102
RTVSPost2010PropOp28
 70
     1
102
RTVSPost2010Prop29
280
     1
102
RTVSPost2010PropOp29
 70
     1
102
RTVSPost2010Prop30
280
     0
102
RTVSPost2010PropOp30
 70
     1
102
RTVSPost2010Prop31
280
     0
102
RTVSPost2010PropOp31
 70
     1
102
RTVSPost2010Prop32
280
     0
102
RTVSPost2010PropOp32
 70
     1
102
RTVSPost2010Prop33
280
     0
102
RTVSPost2010PropOp33
 70
     1
102
RTVSPost2010Prop34
280
     0
102
RTVSPost2010PropOp34
 70
     1
102
RTVSPost2010Prop35
280
     0
102
RTVSPost2010PropOp35
 70
     1
102
RTVSPost2010Prop36
280
     0
102
RTVSPost2010PropOp36
 70
     1
102
RTVSPost2010Prop37
 90
       50
102
RTVSPost2010PropOp37
 70
     1
102
RTVSPost2010Prop38
140
0.0
102
RTVSPost2010PropOp38
 70
     1
102
RTVSPost2010Prop39
140
1.0
102
RTVSPost2010PropOp39
 70
     1
102
RTVSPost2010Prop40
 90
        0
102
RTVSPost2010PropOp40
 70
     1
102
RTVSPost2010Prop41ColorIndex
 90
       18
102
RTVSPost2010Prop41ColorRGB
 90
        0
102
RTVSPost2010PropOp41
 70
     1
102
RTVSPost2010Prop42
 90
       50
102
RTVSPost2010PropOp42
 70
     1
102
RTVSPost2010Prop43
 90
        3
102
RTVSPost2010PropOp43
 70
     1
102
RTVSPost2010Prop44ColorIndex
 90
        5
102
RTVSPost2010Prop44ColorRGB
 90
      255
102
RTVSPost2010PropOp44
 70
     1
102
RTVSPost2010Prop45
280
     0
102
RTVSPost2010PropOp45
 70
     1
102
RTVSPost2010Prop46
 90
       50
102
RTVSPost2010PropOp46
 70
     1
102
RTVSPost2010Prop47
 90
       50
102
RTVSPost2010PropOp47
 70
     1
102
RTVSPost2010Prop48
 90
       50
102
RTVSPost2010PropOp48
 70
     1
102
RTVSPost2010Prop49
280
     0
102
RTVSPost2010PropOp49
 70
     1
102
RTVSPost2010Prop50
 90
       50
102
RTVSPost2010PropOp50
 70
     1
102
RTVSPost2010Prop51ColorIndex
 90
      256
102
RTVSPost2010Prop51ColorRGB
 90
-16777216
102
RTVSPost2010PropOp51
 70
     0
102
RTVSPost2010Prop52
140
1.0
102
RTVSPost2010PropOp52
 70
     0
102
RTVSPost2010Prop53
 90
        2
102
RTVSPost2010PropOp53
 70
     1
102
RTVSPost2010Prop54
  1
strokes_ogs.tif
102
RTVSPost2010PropOp54
 70
     1
102
RTVSPost2010Prop55
280
     0
102
RTVSPost2010PropOp55
 70
     1
102
RTVSPost2010Prop56
140
1.0
102
RTVSPost2010PropOp56
 70
     1
102
RTVSPost2010Prop57
140
1.0
102
RTVSPost2010PropOp57
 70
     1
  0
XRECORD
  5
1AD
102
{ACAD_REACTORS
330
1AC
102
}
330
1AC
100
AcDbXrecord
280
     1
102
RTVSPost2010Prop28
280
     0
102
RTVSPost2010PropOp28
 70
     1
102
RTVSPost2010Prop29
280
     1
102
RTVSPost2010PropOp29
 70
     1
102
RTVSPost2010Prop30
280
     1
102
RTVSPost2010PropOp30
 70
     1
102
RTVSPost2010Prop31
280
     0
102
RTVSPost2010PropOp31
 70
     1
102
RTVSPost2010Prop32
280
     0
102
RTVSPost2010PropOp32
 70
     1
102
RTVSPost2010Prop33
280
     0
102
RTVSPost2010PropOp33
 70
     1
102
RTVSPost2010Prop34
280
     0
102
RTVSPost2010PropOp34
 70
     1
102
RTVSPost2010Prop35
280
     0
102
RTVSPost2010PropOp35
 70
     1
102
RTVSPost2010Prop36
280
     0
102
RTVSPost2010PropOp36
 70
     1
102
RTVSPost2010Prop37
 90
       50
102
RTVSPost2010PropOp37
 70
     1
102
RTVSPost2010Prop38
140
0.0
102
RTVSPost2010PropOp38
 70
     1
102
RTVSPost2010Prop39
140
1.0
102
RTVSPost2010PropOp39
 70
     1
102
RTVSPost2010Prop40
 90
        0
102
RTVSPost2010PropOp40
 70
     1
102
RTVSPost2010Prop41ColorIndex
 90
       18
102
RTVSPost2010Prop41ColorRGB
 90
        0
102
RTVSPost2010PropOp41
 70
     1
102
RTVSPost2010Prop42
 90
       50
102
RTVSPost2010PropOp42
 70
     1
102
RTVSPost2010Prop43
 90
        3
102
RTVSPost2010PropOp43
 70
     1
102
RTVSPost2010Prop44ColorIndex
 90
        5
102
RTVSPost2010Prop44ColorRGB
 90
      255
102
RTVSPost2010PropOp44
 70
     1
102
RTVSPost2010Prop45
280
     0
102
RTVSPost2010PropOp45
 70
     1
102
RTVSPost2010Prop46
 90
       50
102
RTVSPost2010PropOp46
 70
     1
102
RTVSPost2010Prop47
 90
       50
102
RTVSPost2010PropOp47
 70
     1
102
RTVSPost2010Prop48
 90
       50
102
RTVSPost2010PropOp48
 70
     1
102
RTVSPost2010Prop49
280
     0
102
RTVSPost2010PropOp49
 70
     1
102
RTVSPost2010Prop50
 90
       50
102
RTVSPost2010PropOp50
 70
     1
102
RTVSPost2010Prop51ColorIndex
 90
      256
102
RTVSPost2010Prop51ColorRGB
 90
-16777216
102
RTVSPost2010PropOp51
 70
     0
102
RTVSPost2010Prop52
140
1.0
102
RTVSPost2010PropOp52
 70
     0
102
RTVSPost2010Prop53
 90
        2
102
RTVSPost2010PropOp53
 70
     1
102
RTVSPost2010Prop54
  1
strokes_ogs.tif
102
RTVSPost2010PropOp54
 70
     1
102
RTVSPost2010Prop55
280
     0
102
RTVSPost2010PropOp55
 70
     1
102
RTVSPost2010Prop56
140
1.0
102
RTVSPost2010PropOp56
 70
     1
102
RTVSPost2010Prop57
140
1.0
102
RTVSPost2010PropOp57
 70
     1
  0
XRECORD
  5
1B5
102
{ACAD_REACTORS
330
1B4
102
}
330
1B4
100
AcDbXrecord
280
     1
102
RTVSPost2010Prop28
280
     0
102
RTVSPost2010PropOp28
 70
     1
102
RTVSPost2010Prop29
280
     1
102
RTVSPost2010PropOp29
 70
     1
102
RTVSPost2010Prop30
280
     1
102
RTVSPost2010PropOp30
 70
     1
102
RTVSPost2010Prop31
280
     0
102
RTVSPost2010PropOp31
 70
     1
102
RTVSPost2010Prop32
280
     0
102
RTVSPost2010PropOp32
 70
     1
102
RTVSPost2010Prop33
280
     0
102
RTVSPost2010PropOp33
 70
     1
102
RTVSPost2010Prop34
280
     0
102
RTVSPost2010PropOp34
 70
     1
102
RTVSPost2010Prop35
280
     0
102
RTVSPost2010PropOp35
 70
     1
102
RTVSPost2010Prop36
280
     0
102
RTVSPost2010PropOp36
 70
     1
102
RTVSPost2010Prop37
 90
       50
102
RTVSPost2010PropOp37
 70
     1
102
RTVSPost2010Prop38
140
0.0
102
RTVSPost2010PropOp38
 70
     1
102
RTVSPost2010Prop39
140
1.0
102
RTVSPost2010PropOp39
 70
     1
102
RTVSPost2010Prop40
 90
        0
102
RTVSPost2010PropOp40
 70
     1
102
RTVSPost2010Prop41ColorIndex
 90
       18
102
RTVSPost2010Prop41ColorRGB
 90
        0
102
RTVSPost2010PropOp41
 70
     1
102
RTVSPost2010Prop42
 90
       50
102
RTVSPost2010PropOp42
 70
     1
102
RTVSPost2010Prop43
 90
        3
102
RTVSPost2010PropOp43
 70
     1
102
RTVSPost2010Prop44ColorIndex
 90
        5
102
RTVSPost2010Prop44ColorRGB
 90
      255
102
RTVSPost2010PropOp44
 70
     1
102
RTVSPost2010Prop45
280
     0
102
RTVSPost2010PropOp45
 70
     1
102
RTVSPost2010Prop46
 90
       50
102
RTVSPost2010PropOp46
 70
     1
102
RTVSPost2010Prop47
 90
       50
102
RTVSPost2010PropOp47
 70
     1
102
RTVSPost2010Prop48
 90
       50
102
RTVSPost2010PropOp48
 70
     1
102
RTVSPost2010Prop49
280
     0
102
RTVSPost2010PropOp49
 70
     1
102
RTVSPost2010Prop50
 90
       50
102
RTVSPost2010PropOp50
 70
     1
102
RTVSPost2010Prop51ColorIndex
 90
      256
102
RTVSPost2010Prop51ColorRGB
 90
-16777216
102
RTVSPost2010PropOp51
 70
     0
102
RTVSPost2010Prop52
140
1.0
102
RTVSPost2010PropOp52
 70
     0
102
RTVSPost2010Prop53
 90
        2
102
RTVSPost2010PropOp53
 70
     1
102
RTVSPost2010Prop54
  1
strokes_ogs.tif
102
RTVSPost2010PropOp54
 70
     1
102
RTVSPost2010Prop55
280
     0
102
RTVSPost2010PropOp55
 70
     1
102
RTVSPost2010Prop56
140
1.0
102
RTVSPost2010PropOp56
 70
     1
102
RTVSPost2010Prop57
140
1.0
102
RTVSPost2010PropOp57
 70
     1
  0
XRECORD
  5
1BD
102
{ACAD_REACTORS
330
1BC
102
}
330
1BC
100
AcDbXrecord
280
     1
102
RTVSPost2010Prop28
280
     0
102
RTVSPost2010PropOp28
 70
     1
102
RTVSPost2010Prop29
280
     1
102
RTVSPost2010PropOp29
 70
     1
102
RTVSPost2010Prop30
280
     1
102
RTVSPost2010PropOp30
 70
     1
102
RTVSPost2010Prop31
280
     0
102
RTVSPost2010PropOp31
 70
     1
102
RTVSPost2010Prop32
280
     0
102
RTVSPost2010PropOp32
 70
     1
102
RTVSPost2010Prop33
280
     0
102
RTVSPost2010PropOp33
 70
     1
102
RTVSPost2010Prop34
280
     0
102
RTVSPost2010PropOp34
 70
     1
102
RTVSPost2010Prop35
280
     0
102
RTVSPost2010PropOp35
 70
     1
102
RTVSPost2010Prop36
280
     0
102
RTVSPost2010PropOp36
 70
     1
102
RTVSPost2010Prop37
 90
       50
102
RTVSPost2010PropOp37
 70
     1
102
RTVSPost2010Prop38
140
0.0
102
RTVSPost2010PropOp38
 70
     1
102
RTVSPost2010Prop39
140
1.0
102
RTVSPost2010PropOp39
 70
     1
102
RTVSPost2010Prop40
 90
        0
102
RTVSPost2010PropOp40
 70
     1
102
RTVSPost2010Prop41ColorIndex
 90
       18
102
RTVSPost2010Prop41ColorRGB
 90
        0
102
RTVSPost2010PropOp41
 70
     1
102
RTVSPost2010Prop42
 90
       50
102
RTVSPost2010PropOp42
 70
     1
102
RTVSPost2010Prop43
 90
        3
102
RTVSPost2010PropOp43
 70
     1
102
RTVSPost2010Prop44ColorIndex
 90
        5
102
RTVSPost2010Prop44ColorRGB
 90
      255
102
RTVSPost2010PropOp44
 70
     1
102
RTVSPost2010Prop45
280
     0
102
RTVSPost2010PropOp45
 70
     1
102
RTVSPost2010Prop46
 90
       50
102
RTVSPost2010PropOp46
 70
     1
102
RTVSPost2010Prop47
 90
       50
102
RTVSPost2010PropOp47
 70
     1
102
RTVSPost2010Prop48
 90
       50
102
RTVSPost2010PropOp48
 70
     1
102
RTVSPost2010Prop49
280
     0
102
RTVSPost2010PropOp49
 70
     1
102
RTVSPost2010Prop50
 90
       50
102
RTVSPost2010PropOp50
 70
     1
102
RTVSPost2010Prop51ColorIndex
 90
      256
102
RTVSPost2010Prop51ColorRGB
 90
-16777216
102
RTVSPost2010PropOp51
 70
     0
102
RTVSPost2010Prop52
140
1.0
102
RTVSPost2010PropOp52
 70
     0
102
RTVSPost2010Prop53
 90
        2
102
RTVSPost2010PropOp53
 70
     1
102
RTVSPost2010Prop54
  1
strokes_ogs.tif
102
RTVSPost2010PropOp54
 70
     1
102
RTVSPost2010Prop55
280
     0
102
RTVSPost2010PropOp55
 70
     1
102
RTVSPost2010Prop56
140
1.0
102
RTVSPost2010PropOp56
 70
     1
102
RTVSPost2010Prop57
140
1.0
102
RTVSPost2010PropOp57
 70
     1
  0
XRECORD
  5
1B1
102
{ACAD_REACTORS
330
1B0
102
}
330
1B0
100
AcDbXrecord
280
     1
102
RTVSPost2010Prop28
280
     0
102
RTVSPost2010PropOp28
 70
     1
102
RTVSPost2010Prop29
280
     1
102
RTVSPost2010PropOp29
 70
     1
102
RTVSPost2010Prop30
280
     1
102
RTVSPost2010PropOp30
 70
     1
102
RTVSPost2010Prop31
280
     0
102
RTVSPost2010PropOp31
 70
     1
102
RTVSPost2010Prop32
280
     0
102
RTVSPost2010PropOp32
 70
     1
102
RTVSPost2010Prop33
280
     0
102
RTVSPost2010PropOp33
 70
     1
102
RTVSPost2010Prop34
280
     0
102
RTVSPost2010PropOp34
 70
     1
102
RTVSPost2010Prop35
280
     0
102
RTVSPost2010PropOp35
 70
     1
102
RTVSPost2010Prop36
280
     0
102
RTVSPost2010PropOp36
 70
     1
102
RTVSPost2010Prop37
 90
       50
102
RTVSPost2010PropOp37
 70
     1
102
RTVSPost2010Prop38
140
0.0
102
RTVSPost2010PropOp38
 70
     1
102
RTVSPost2010Prop39
140
1.0
102
RTVSPost2010PropOp39
 70
     1
102
RTVSPost2010Prop40
 90
        0
102
RTVSPost2010PropOp40
 70
     1
102
RTVSPost2010Prop41ColorIndex
 90
       18
102
RTVSPost2010Prop41ColorRGB
 90
        0
102
RTVSPost2010PropOp41
 70
     1
102
RTVSPost2010Prop42
 90
       50
102
RTVSPost2010PropOp42
 70
     1
102
RTVSPost2010Prop43
 90
        3
102
RTVSPost2010PropOp43
 70
     1
102
RTVSPost2010Prop44ColorIndex
 90
        5
102
RTVSPost2010Prop44ColorRGB
 90
      255
102
RTVSPost2010PropOp44
 70
     1
102
RTVSPost2010Prop45
280
     0
102
RTVSPost2010PropOp45
 70
     1
102
RTVSPost2010Prop46
 90
       50
102
RTVSPost2010PropOp46
 70
     1
102
RTVSPost2010Prop47
 90
       50
102
RTVSPost2010PropOp47
 70
     1
102
RTVSPost2010Prop48
 90
       50
102
RTVSPost2010PropOp48
 70
     1
102
RTVSPost2010Prop49
280
     0
102
RTVSPost2010PropOp49
 70
     1
102
RTVSPost2010Prop50
 90
       50
102
RTVSPost2010PropOp50
 70
     1
102
RTVSPost2010Prop51ColorIndex
 90
      256
102
RTVSPost2010Prop51ColorRGB
 90
-16777216
102
RTVSPost2010PropOp51
 70
     0
102
RTVSPost2010Prop52
140
1.0
102
RTVSPost2010PropOp52
 70
     0
102
RTVSPost2010Prop53
 90
        2
102
RTVSPost2010PropOp53
 70
     1
102
RTVSPost2010Prop54
  1
strokes_ogs.tif
102
RTVSPost2010PropOp54
 70
     1
102
RTVSPost2010Prop55
280
     0
102
RTVSPost2010PropOp55
 70
     1
102
RTVSPost2010Prop56
140
1.0
102
RTVSPost2010PropOp56
 70
     1
102
RTVSPost2010Prop57
140
1.0
102
RTVSPost2010PropOp57
 70
     1
  0
XRECORD
  5
1B3
102
{ACAD_REACTORS
330
1B2
102
}
330
1B2
100
AcDbXrecord
280
     1
102
RTVSPost2010Prop28
280
     0
102
RTVSPost2010PropOp28
 70
     1
102
RTVSPost2010Prop29
280
     1
102
RTVSPost2010PropOp29
 70
     1
102
RTVSPost2010Prop30
280
     1
102
RTVSPost2010PropOp30
 70
     1
102
RTVSPost2010Prop31
280
     0
102
RTVSPost2010PropOp31
 70
     1
102
RTVSPost2010Prop32
280
     0
102
RTVSPost2010PropOp32
 70
     1
102
RTVSPost2010Prop33
280
     0
102
RTVSPost2010PropOp33
 70
     1
102
RTVSPost2010Prop34
280
     0
102
RTVSPost2010PropOp34
 70
     1
102
RTVSPost2010Prop35
280
     0
102
RTVSPost2010PropOp35
 70
     1
102
RTVSPost2010Prop36
280
     0
102
RTVSPost2010PropOp36
 70
     1
102
RTVSPost2010Prop37
 90
       50
102
RTVSPost2010PropOp37
 70
     1
102
RTVSPost2010Prop38
140
0.0
102
RTVSPost2010PropOp38
 70
     1
102
RTVSPost2010Prop39
140
1.0
102
RTVSPost2010PropOp39
 70
     1
102
RTVSPost2010Prop40
 90
        0
102
RTVSPost2010PropOp40
 70
     1
102
RTVSPost2010Prop41ColorIndex
 90
       18
102
RTVSPost2010Prop41ColorRGB
 90
        0
102
RTVSPost2010PropOp41
 70
     1
102
RTVSPost2010Prop42
 90
       50
102
RTVSPost2010PropOp42
 70
     1
102
RTVSPost2010Prop43
 90
        3
102
RTVSPost2010PropOp43
 70
     1
102
RTVSPost2010Prop44ColorIndex
 90
        5
102
RTVSPost2010Prop44ColorRGB
 90
      255
102
RTVSPost2010PropOp44
 70
     1
102
RTVSPost2010Prop45
280
     0
102
RTVSPost2010PropOp45
 70
     1
102
RTVSPost2010Prop46
 90
       50
102
RTVSPost2010PropOp46
 70
     1
102
RTVSPost2010Prop47
 90
       50
102
RTVSPost2010PropOp47
 70
     1
102
RTVSPost2010Prop48
 90
       50
102
RTVSPost2010PropOp48
 70
     1
102
RTVSPost2010Prop49
280
     0
102
RTVSPost2010PropOp49
 70
     1
102
RTVSPost2010Prop50
 90
       50
102
RTVSPost2010PropOp50
 70
     1
102
RTVSPost2010Prop51ColorIndex
 90
      256
102
RTVSPost2010Prop51ColorRGB
 90
-16777216
102
RTVSPost2010PropOp51
 70
     0
102
RTVSPost2010Prop52
140
1.0
102
RTVSPost2010PropOp52
 70
     0
102
RTVSPost2010Prop53
 90
        2
102
RTVSPost2010PropOp53
 70
     1
102
RTVSPost2010Prop54
  1
strokes_ogs.tif
102
RTVSPost2010PropOp54
 70
     1
102
RTVSPost2010Prop55
280
     0
102
RTVSPost2010PropOp55
 70
     1
102
RTVSPost2010Prop56
140
1.0
102
RTVSPost2010PropOp56
 70
     1
102
RTVSPost2010Prop57
140
1.0
102
RTVSPost2010PropOp57
 70
     1
  0
XRECORD
  5
1C3
102
{ACAD_REACTORS
330
1C2
102
}
330
1C2
100
AcDbXrecord
280
     1
102
RTVSPost2010Prop28
280
     0
102
RTVSPost2010PropOp28
 70
     0
102
RTVSPost2010Prop29
280
     1
102
RTVSPost2010PropOp29
 70
     0
102
RTVSPost2010Prop30
280
     1
102
RTVSPost2010PropOp30
 70
     0
102
RTVSPost2010Prop31
280
     0
102
RTVSPost2010PropOp31
 70
     0
102
RTVSPost2010Prop32
280
     0
102
RTVSPost2010PropOp32
 70
     0
102
RTVSPost2010Prop33
280
     0
102
RTVSPost2010PropOp33
 70
     0
102
RTVSPost2010Prop34
280
     0
102
RTVSPost2010PropOp34
 70
     0
102
RTVSPost2010Prop35
280
     0
102
RTVSPost2010PropOp35
 70
     0
102
RTVSPost2010Prop36
280
     0
102
RTVSPost2010PropOp36
 70
     0
102
RTVSPost2010Prop37
 90
       50
102
RTVSPost2010PropOp37
 70
     0
102
RTVSPost2010Prop38
140
0.0
102
RTVSPost2010PropOp38
 70
     0
102
RTVSPost2010Prop39
140
1.0
102
RTVSPost2010PropOp39
 70
     0
102
RTVSPost2010Prop40
 90
        0
102
RTVSPost2010PropOp40
 70
     0
102
RTVSPost2010Prop41ColorIndex
 90
       18
102
RTVSPost2010Prop41ColorRGB
 90
        0
102
RTVSPost2010PropOp41
 70
     0
102
RTVSPost2010Prop42
 90
       50
102
RTVSPost2010PropOp42
 70
     0
102
RTVSPost2010Prop43
 90
        3
102
RTVSPost2010PropOp43
 70
     0
102
RTVSPost2010Prop44ColorIndex
 90
        5
102
RTVSPost2010Prop44ColorRGB
 90
      255
102
RTVSPost2010PropOp44
 70
     0
102
RTVSPost2010Prop45
280
     0
102
RTVSPost2010PropOp45
 70
     0
102
RTVSPost2010Prop46
 90
       50
102
RTVSPost2010PropOp46
 70
     0
102
RTVSPost2010Prop47
 90
       50
102
RTVSPost2010PropOp47
 70
     0
102
RTVSPost2010Prop48
 90
       50
102
RTVSPost2010PropOp48
 70
     0
102
RTVSPost2010Prop49
280
     0
102
RTVSPost2010PropOp49
 70
     0
102
RTVSPost2010Prop50
 90
       50
102
RTVSPost2010PropOp50
 70
     0
102
RTVSPost2010Prop51ColorIndex
 90
      256
102
RTVSPost2010Prop51ColorRGB
 90
-16777216
102
RTVSPost2010PropOp51
 70
     0
102
RTVSPost2010Prop52
140
1.0
102
RTVSPost2010PropOp52
 70
     0
102
RTVSPost2010Prop53
 90
        2
102
RTVSPost2010PropOp53
 70
     0
102
RTVSPost2010Prop54
  1
strokes_ogs.tif
102
RTVSPost2010PropOp54
 70
     0
102
RTVSPost2010Prop55
280
     0
102
RTVSPost2010PropOp55
 70
     0
102
RTVSPost2010Prop56
140
1.0
102
RTVSPost2010PropOp56
 70
     0
102
RTVSPost2010Prop57
140
1.0
102
RTVSPost2010PropOp57
 70
     0
  0
XRECORD
  5
1BB
102
{ACAD_REACTORS
330
1BA
102
}
330
1BA
100
AcDbXrecord
280
     1
102
RTVSPost2010Prop28
280
     0
102
RTVSPost2010PropOp28
 70
     1
102
RTVSPost2010Prop29
280
     1
102
RTVSPost2010PropOp29
 70
     1
102
RTVSPost2010Prop30
280
     1
102
RTVSPost2010PropOp30
 70
     1
102
RTVSPost2010Prop31
280
     0
102
RTVSPost2010PropOp31
 70
     1
102
RTVSPost2010Prop32
280
     0
102
RTVSPost2010PropOp32
 70
     1
102
RTVSPost2010Prop33
280
     0
102
RTVSPost2010PropOp33
 70
     1
102
RTVSPost2010Prop34
280
     0
102
RTVSPost2010PropOp34
 70
     1
102
RTVSPost2010Prop35
280
     0
102
RTVSPost2010PropOp35
 70
     1
102
RTVSPost2010Prop36
280
     0
102
RTVSPost2010PropOp36
 70
     1
102
RTVSPost2010Prop37
 90
       50
102
RTVSPost2010PropOp37
 70
     1
102
RTVSPost2010Prop38
140
0.0
102
RTVSPost2010PropOp38
 70
     1
102
RTVSPost2010Prop39
140
1.0
102
RTVSPost2010PropOp39
 70
     1
102
RTVSPost2010Prop40
 90
        0
102
RTVSPost2010PropOp40
 70
     1
102
RTVSPost2010Prop41ColorIndex
 90
       18
102
RTVSPost2010Prop41ColorRGB
 90
        0
102
RTVSPost2010PropOp41
 70
     1
102
RTVSPost2010Prop42
 90
       50
102
RTVSPost2010PropOp42
 70
     1
102
RTVSPost2010Prop43
 90
        3
102
RTVSPost2010PropOp43
 70
     1
102
RTVSPost2010Prop44ColorIndex
 90
        5
102
RTVSPost2010Prop44ColorRGB
 90
      255
102
RTVSPost2010PropOp44
 70
     1
102
RTVSPost2010Prop45
280
     0
102
RTVSPost2010PropOp45
 70
     1
102
RTVSPost2010Prop46
 90
       50
102
RTVSPost2010PropOp46
 70
     1
102
RTVSPost2010Prop47
 90
       50
102
RTVSPost2010PropOp47
 70
     1
102
RTVSPost2010Prop48
 90
       50
102
RTVSPost2010PropOp48
 70
     1
102
RTVSPost2010Prop49
280
     0
102
RTVSPost2010PropOp49
 70
     1
102
RTVSPost2010Prop50
 90
       50
102
RTVSPost2010PropOp50
 70
     1
102
RTVSPost2010Prop51ColorIndex
 90
      256
102
RTVSPost2010Prop51ColorRGB
 90
-16777216
102
RTVSPost2010PropOp51
 70
     0
102
RTVSPost2010Prop52
140
1.0
102
RTVSPost2010PropOp52
 70
     0
102
RTVSPost2010Prop53
 90
        2
102
RTVSPost2010PropOp53
 70
     1
102
RTVSPost2010Prop54
  1
strokes_ogs.tif
102
RTVSPost2010PropOp54
 70
     1
102
RTVSPost2010Prop55
280
     0
102
RTVSPost2010PropOp55
 70
     1
102
RTVSPost2010Prop56
140
1.0
102
RTVSPost2010PropOp56
 70
     1
102
RTVSPost2010Prop57
140
1.0
102
RTVSPost2010PropOp57
 70
     1
  0
XRECORD
  5
19F
102
{ACAD_REACTORS
330
19E
102
}
330
19E
100
AcDbXrecord
280
     1
102
RTVSPost2010Prop28
280
     0
102
RTVSPost2010PropOp28
 70
     1
102
RTVSPost2010Prop29
280
     1
102
RTVSPost2010PropOp29
 70
     1
102
RTVSPost2010Prop30
280
     1
102
RTVSPost2010PropOp30
 70
     1
102
RTVSPost2010Prop31
280
     0
102
RTVSPost2010PropOp31
 70
     1
102
RTVSPost2010Prop32
280
     0
102
RTVSPost2010PropOp32
 70
     1
102
RTVSPost2010Prop33
280
     0
102
RTVSPost2010PropOp33
 70
     1
102
RTVSPost2010Prop34
280
     0
102
RTVSPost2010PropOp34
 70
     1
102
RTVSPost2010Prop35
280
     0
102
RTVSPost2010PropOp35
 70
     1
102
RTVSPost2010Prop36
280
     0
102
RTVSPost2010PropOp36
 70
     1
102
RTVSPost2010Prop37
 90
       50
102
RTVSPost2010PropOp37
 70
     1
102
RTVSPost2010Prop38
140
0.0
102
RTVSPost2010PropOp38
 70
     1
102
RTVSPost2010Prop39
140
1.0
102
RTVSPost2010PropOp39
 70
     1
102
RTVSPost2010Prop40
 90
        0
102
RTVSPost2010PropOp40
 70
     1
102
RTVSPost2010Prop41ColorIndex
 90
       18
102
RTVSPost2010Prop41ColorRGB
 90
        0
102
RTVSPost2010PropOp41
 70
     1
102
RTVSPost2010Prop42
 90
       50
102
RTVSPost2010PropOp42
 70
     1
102
RTVSPost2010Prop43
 90
        3
102
RTVSPost2010PropOp43
 70
     1
102
RTVSPost2010Prop44ColorIndex
 90
        5
102
RTVSPost2010Prop44ColorRGB
 90
      255
102
RTVSPost2010PropOp44
 70
     1
102
RTVSPost2010Prop45
280
     0
102
RTVSPost2010PropOp45
 70
     1
102
RTVSPost2010Prop46
 90
       50
102
RTVSPost2010PropOp46
 70
     1
102
RTVSPost2010Prop47
 90
       50
102
RTVSPost2010PropOp47
 70
     1
102
RTVSPost2010Prop48
 90
       50
102
RTVSPost2010PropOp48
 70
     1
102
RTVSPost2010Prop49
280
     0
102
RTVSPost2010PropOp49
 70
     1
102
RTVSPost2010Prop50
 90
       50
102
RTVSPost2010PropOp50
 70
     1
102
RTVSPost2010Prop51ColorIndex
 90
      256
102
RTVSPost2010Prop51ColorRGB
 90
-16777216
102
RTVSPost2010PropOp51
 70
     0
102
RTVSPost2010Prop52
140
1.0
102
RTVSPost2010PropOp52
 70
     0
102
RTVSPost2010Prop53
 90
        2
102
RTVSPost2010PropOp53
 70
     1
102
RTVSPost2010Prop54
  1
strokes_ogs.tif
102
RTVSPost2010PropOp54
 70
     1
102
RTVSPost2010Prop55
280
     0
102
RTVSPost2010PropOp55
 70
     1
102
RTVSPost2010Prop56
140
1.0
102
RTVSPost2010PropOp56
 70
     1
102
RTVSPost2010Prop57
140
1.0
102
RTVSPost2010PropOp57
 70
     1
  0
XRECORD
  5
1A1
102
{ACAD_REACTORS
330
1A0
102
}
330
1A0
100
AcDbXrecord
280
     1
102
RTVSPost2010Prop28
280
     0
102
RTVSPost2010PropOp28
 70
     1
102
RTVSPost2010Prop29
280
     1
102
RTVSPost2010PropOp29
 70
     1
102
RTVSPost2010Prop30
280
     1
102
RTVSPost2010PropOp30
 70
     1
102
RTVSPost2010Prop31
280
     0
102
RTVSPost2010PropOp31
 70
     1
102
RTVSPost2010Prop32
280
     0
102
RTVSPost2010PropOp32
 70
     1
102
RTVSPost2010Prop33
280
     0
102
RTVSPost2010PropOp33
 70
     1
102
RTVSPost2010Prop34
280
     0
102
RTVSPost2010PropOp34
 70
     1
102
RTVSPost2010Prop35
280
     0
102
RTVSPost2010PropOp35
 70
     1
102
RTVSPost2010Prop36
280
     0
102
RTVSPost2010PropOp36
 70
     1
102
RTVSPost2010Prop37
 90
       50
102
RTVSPost2010PropOp37
 70
     1
102
RTVSPost2010Prop38
140
0.0
102
RTVSPost2010PropOp38
 70
     1
102
RTVSPost2010Prop39
140
1.0
102
RTVSPost2010PropOp39
 70
     1
102
RTVSPost2010Prop40
 90
        0
102
RTVSPost2010PropOp40
 70
     1
102
RTVSPost2010Prop41ColorIndex
 90
       18
102
RTVSPost2010Prop41ColorRGB
 90
        0
102
RTVSPost2010PropOp41
 70
     1
102
RTVSPost2010Prop42
 90
       50
102
RTVSPost2010PropOp42
 70
     1
102
RTVSPost2010Prop43
 90
        3
102
RTVSPost2010PropOp43
 70
     1
102
RTVSPost2010Prop44ColorIndex
 90
        5
102
RTVSPost2010Prop44ColorRGB
 90
      255
102
RTVSPost2010PropOp44
 70
     1
102
RTVSPost2010Prop45
280
     0
102
RTVSPost2010PropOp45
 70
     1
102
RTVSPost2010Prop46
 90
       50
102
RTVSPost2010PropOp46
 70
     1
102
RTVSPost2010Prop47
 90
       50
102
RTVSPost2010PropOp47
 70
     1
102
RTVSPost2010Prop48
 90
       50
102
RTVSPost2010PropOp48
 70
     1
102
RTVSPost2010Prop49
280
     0
102
RTVSPost2010PropOp49
 70
     1
102
RTVSPost2010Prop50
 90
       50
102
RTVSPost2010PropOp50
 70
     1
102
RTVSPost2010Prop51ColorIndex
 90
      256
102
RTVSPost2010Prop51ColorRGB
 90
-16777216
102
RTVSPost2010PropOp51
 70
     0
102
RTVSPost2010Prop52
140
1.0
102
RTVSPost2010PropOp52
 70
     0
102
RTVSPost2010Prop53
 90
        2
102
RTVSPost2010PropOp53
 70
     1
102
RTVSPost2010Prop54
  1
strokes_ogs.tif
102
RTVSPost2010PropOp54
 70
     1
102
RTVSPost2010Prop55
280
     0
102
RTVSPost2010PropOp55
 70
     1
102
RTVSPost2010Prop56
140
1.0
102
RTVSPost2010PropOp56
 70
     1
102
RTVSPost2010Prop57
140
1.0
102
RTVSPost2010PropOp57
 70
     1
  0
XRECORD
  5
1A3
102
{ACAD_REACTORS
330
1A2
102
}
330
1A2
100
AcDbXrecord
280
     1
102
RTVSPost2010Prop28
280
     0
102
RTVSPost2010PropOp28
 70
     1
102
RTVSPost2010Prop29
280
     1
102
RTVSPost2010PropOp29
 70
     1
102
RTVSPost2010Prop30
280
     1
102
RTVSPost2010PropOp30
 70
     1
102
RTVSPost2010Prop31
280
     0
102
RTVSPost2010PropOp31
 70
     1
102
RTVSPost2010Prop32
280
     0
102
RTVSPost2010PropOp32
 70
     1
102
RTVSPost2010Prop33
280
     0
102
RTVSPost2010PropOp33
 70
     1
102
RTVSPost2010Prop34
280
     0
102
RTVSPost2010PropOp34
 70
     1
102
RTVSPost2010Prop35
280
     0
102
RTVSPost2010PropOp35
 70
     1
102
RTVSPost2010Prop36
280
     0
102
RTVSPost2010PropOp36
 70
     1
102
RTVSPost2010Prop37
 90
       50
102
RTVSPost2010PropOp37
 70
     1
102
RTVSPost2010Prop38
140
0.0
102
RTVSPost2010PropOp38
 70
     1
102
RTVSPost2010Prop39
140
1.0
102
RTVSPost2010PropOp39
 70
     1
102
RTVSPost2010Prop40
 90
        0
102
RTVSPost2010PropOp40
 70
     1
102
RTVSPost2010Prop41ColorIndex
 90
       18
102
RTVSPost2010Prop41ColorRGB
 90
        0
102
RTVSPost2010PropOp41
 70
     1
102
RTVSPost2010Prop42
 90
       50
102
RTVSPost2010PropOp42
 70
     1
102
RTVSPost2010Prop43
 90
        3
102
RTVSPost2010PropOp43
 70
     1
102
RTVSPost2010Prop44ColorIndex
 90
        5
102
RTVSPost2010Prop44ColorRGB
 90
      255
102
RTVSPost2010PropOp44
 70
     1
102
RTVSPost2010Prop45
280
     0
102
RTVSPost2010PropOp45
 70
     1
102
RTVSPost2010Prop46
 90
       50
102
RTVSPost2010PropOp46
 70
     1
102
RTVSPost2010Prop47
 90
       50
102
RTVSPost2010PropOp47
 70
     1
102
RTVSPost2010Prop48
 90
       50
102
RTVSPost2010PropOp48
 70
     1
102
RTVSPost2010Prop49
280
     0
102
RTVSPost2010PropOp49
 70
     1
102
RTVSPost2010Prop50
 90
       50
102
RTVSPost2010PropOp50
 70
     1
102
RTVSPost2010Prop51ColorIndex
 90
      256
102
RTVSPost2010Prop51ColorRGB
 90
-16777216
102
RTVSPost2010PropOp51
 70
     0
102
RTVSPost2010Prop52
140
1.0
102
RTVSPost2010PropOp52
 70
     0
102
RTVSPost2010Prop53
 90
        2
102
RTVSPost2010PropOp53
 70
     1
102
RTVSPost2010Prop54
  1
strokes_ogs.tif
102
RTVSPost2010PropOp54
 70
     1
102
RTVSPost2010Prop55
280
     0
102
RTVSPost2010PropOp55
 70
     1
102
RTVSPost2010Prop56
140
1.0
102
RTVSPost2010PropOp56
 70
     1
102
RTVSPost2010Prop57
140
1.0
102
RTVSPost2010PropOp57
 70
     1
  0
XRECORD
  5
1A5
102
{ACAD_REACTORS
330
1A4
102
}
330
1A4
100
AcDbXrecord
280
     1
102
RTVSPost2010Prop28
280
     0
102
RTVSPost2010PropOp28
 70
     1
102
RTVSPost2010Prop29
280
     1
102
RTVSPost2010PropOp29
 70
     1
102
RTVSPost2010Prop30
280
     1
102
RTVSPost2010PropOp30
 70
     1
102
RTVSPost2010Prop31
280
     0
102
RTVSPost2010PropOp31
 70
     1
102
RTVSPost2010Prop32
280
     0
102
RTVSPost2010PropOp32
 70
     1
102
RTVSPost2010Prop33
280
     0
102
RTVSPost2010PropOp33
 70
     1
102
RTVSPost2010Prop34
280
     0
102
RTVSPost2010PropOp34
 70
     1
102
RTVSPost2010Prop35
280
     0
102
RTVSPost2010PropOp35
 70
     1
102
RTVSPost2010Prop36
280
     0
102
RTVSPost2010PropOp36
 70
     1
102
RTVSPost2010Prop37
 90
       50
102
RTVSPost2010PropOp37
 70
     1
102
RTVSPost2010Prop38
140
0.0
102
RTVSPost2010PropOp38
 70
     1
102
RTVSPost2010Prop39
140
1.0
102
RTVSPost2010PropOp39
 70
     1
102
RTVSPost2010Prop40
 90
        0
102
RTVSPost2010PropOp40
 70
     1
102
RTVSPost2010Prop41ColorIndex
 90
       18
102
RTVSPost2010Prop41ColorRGB
 90
        0
102
RTVSPost2010PropOp41
 70
     1
102
RTVSPost2010Prop42
 90
       50
102
RTVSPost2010PropOp42
 70
     1
102
RTVSPost2010Prop43
 90
        3
102
RTVSPost2010PropOp43
 70
     1
102
RTVSPost2010Prop44ColorIndex
 90
        5
102
RTVSPost2010Prop44ColorRGB
 90
      255
102
RTVSPost2010PropOp44
 70
     1
102
RTVSPost2010Prop45
280
     0
102
RTVSPost2010PropOp45
 70
     1
102
RTVSPost2010Prop46
 90
       50
102
RTVSPost2010PropOp46
 70
     1
102
RTVSPost2010Prop47
 90
       50
102
RTVSPost2010PropOp47
 70
     1
102
RTVSPost2010Prop48
 90
       50
102
RTVSPost2010PropOp48
 70
     1
102
RTVSPost2010Prop49
280
     0
102
RTVSPost2010PropOp49
 70
     1
102
RTVSPost2010Prop50
 90
       50
102
RTVSPost2010PropOp50
 70
     1
102
RTVSPost2010Prop51ColorIndex
 90
      256
102
RTVSPost2010Prop51ColorRGB
 90
-16777216
102
RTVSPost2010PropOp51
 70
     0
102
RTVSPost2010Prop52
140
1.0
102
RTVSPost2010PropOp52
 70
     0
102
RTVSPost2010Prop53
 90
        2
102
RTVSPost2010PropOp53
 70
     1
102
RTVSPost2010Prop54
  1
strokes_ogs.tif
102
RTVSPost2010PropOp54
 70
     1
102
RTVSPost2010Prop55
280
     0
102
RTVSPost2010PropOp55
 70
     1
102
RTVSPost2010Prop56
140
1.0
102
RTVSPost2010PropOp56
 70
     1
102
RTVSPost2010Prop57
140
1.0
102
RTVSPost2010PropOp57
 70
     1
  0
XRECORD
  5
1AB
102
{ACAD_REACTORS
330
1AA
102
}
330
1AA
100
AcDbXrecord
280
     1
102
RTVSPost2010Prop28
280
     0
102
RTVSPost2010PropOp28
 70
     1
102
RTVSPost2010Prop29
280
     1
102
RTVSPost2010PropOp29
 70
     1
102
RTVSPost2010Prop30
280
     1
102
RTVSPost2010PropOp30
 70
     1
102
RTVSPost2010Prop31
280
     0
102
RTVSPost2010PropOp31
 70
     1
102
RTVSPost2010Prop32
280
     0
102
RTVSPost2010PropOp32
 70
     1
102
RTVSPost2010Prop33
280
     0
102
RTVSPost2010PropOp33
 70
     1
102
RTVSPost2010Prop34
280
     0
102
RTVSPost2010PropOp34
 70
     1
102
RTVSPost2010Prop35
280
     0
102
RTVSPost2010PropOp35
 70
     1
102
RTVSPost2010Prop36
280
     0
102
RTVSPost2010PropOp36
 70
     1
102
RTVSPost2010Prop37
 90
       50
102
RTVSPost2010PropOp37
 70
     1
102
RTVSPost2010Prop38
140
0.0
102
RTVSPost2010PropOp38
 70
     1
102
RTVSPost2010Prop39
140
1.0
102
RTVSPost2010PropOp39
 70
     1
102
RTVSPost2010Prop40
 90
        0
102
RTVSPost2010PropOp40
 70
     1
102
RTVSPost2010Prop41ColorIndex
 90
       18
102
RTVSPost2010Prop41ColorRGB
 90
        0
102
RTVSPost2010PropOp41
 70
     1
102
RTVSPost2010Prop42
 90
       50
102
RTVSPost2010PropOp42
 70
     1
102
RTVSPost2010Prop43
 90
        3
102
RTVSPost2010PropOp43
 70
     1
102
RTVSPost2010Prop44ColorIndex
 90
        5
102
RTVSPost2010Prop44ColorRGB
 90
      255
102
RTVSPost2010PropOp44
 70
     1
102
RTVSPost2010Prop45
280
     0
102
RTVSPost2010PropOp45
 70
     1
102
RTVSPost2010Prop46
 90
       50
102
RTVSPost2010PropOp46
 70
     1
102
RTVSPost2010Prop47
 90
       50
102
RTVSPost2010PropOp47
 70
     1
102
RTVSPost2010Prop48
 90
       50
102
RTVSPost2010PropOp48
 70
     1
102
RTVSPost2010Prop49
280
     0
102
RTVSPost2010PropOp49
 70
     1
102
RTVSPost2010Prop50
 90
       50
102
RTVSPost2010PropOp50
 70
     1
102
RTVSPost2010Prop51ColorIndex
 90
      256
102
RTVSPost2010Prop51ColorRGB
 90
-16777216
102
RTVSPost2010PropOp51
 70
     0
102
RTVSPost2010Prop52
140
1.0
102
RTVSPost2010PropOp52
 70
     0
102
RTVSPost2010Prop53
 90
        2
102
RTVSPost2010PropOp53
 70
     1
102
RTVSPost2010Prop54
  1
strokes_ogs.tif
102
RTVSPost2010PropOp54
 70
     1
102
RTVSPost2010Prop55
280
     0
102
RTVSPost2010PropOp55
 70
     1
102
RTVSPost2010Prop56
140
1.0
102
RTVSPost2010PropOp56
 70
     1
102
RTVSPost2010Prop57
140
1.0
102
RTVSPost2010PropOp57
 70
     1
  0
XRECORD
  5
1BF
102
{ACAD_REACTORS
330
1BE
102
}
330
1BE
100
AcDbXrecord
280
     1
102
RTVSPost2010Prop28
280
     0
102
RTVSPost2010PropOp28
 70
     0
102
RTVSPost2010Prop29
280
     1
102
RTVSPost2010PropOp29
 70
     0
102
RTVSPost2010Prop30
280
     1
102
RTVSPost2010PropOp30
 70
     0
102
RTVSPost2010Prop31
280
     0
102
RTVSPost2010PropOp31
 70
     0
102
RTVSPost2010Prop32
280
     0
102
RTVSPost2010PropOp32
 70
     0
102
RTVSPost2010Prop33
280
     0
102
RTVSPost2010PropOp33
 70
     0
102
RTVSPost2010Prop34
280
     0
102
RTVSPost2010PropOp34
 70
     0
102
RTVSPost2010Prop35
280
     0
102
RTVSPost2010PropOp35
 70
     0
102
RTVSPost2010Prop36
280
     0
102
RTVSPost2010PropOp36
 70
     0
102
RTVSPost2010Prop37
 90
       50
102
RTVSPost2010PropOp37
 70
     0
102
RTVSPost2010Prop38
140
0.0
102
RTVSPost2010PropOp38
 70
     0
102
RTVSPost2010Prop39
140
1.0
102
RTVSPost2010PropOp39
 70
     0
102
RTVSPost2010Prop40
 90
        0
102
RTVSPost2010PropOp40
 70
     0
102
RTVSPost2010Prop41ColorIndex
 90
       18
102
RTVSPost2010Prop41ColorRGB
 90
        0
102
RTVSPost2010PropOp41
 70
     0
102
RTVSPost2010Prop42
 90
       50
102
RTVSPost2010PropOp42
 70
     0
102
RTVSPost2010Prop43
 90
        3
102
RTVSPost2010PropOp43
 70
     0
102
RTVSPost2010Prop44ColorIndex
 90
        5
102
RTVSPost2010Prop44ColorRGB
 90
      255
102
RTVSPost2010PropOp44
 70
     0
102
RTVSPost2010Prop45
280
     0
102
RTVSPost2010PropOp45
 70
     0
102
RTVSPost2010Prop46
 90
       50
102
RTVSPost2010PropOp46
 70
     0
102
RTVSPost2010Prop47
 90
       50
102
RTVSPost2010PropOp47
 70
     0
102
RTVSPost2010Prop48
 90
       50
102
RTVSPost2010PropOp48
 70
     0
102
RTVSPost2010Prop49
280
     0
102
RTVSPost2010PropOp49
 70
     0
102
RTVSPost2010Prop50
 90
       50
102
RTVSPost2010PropOp50
 70
     0
102
RTVSPost2010Prop51ColorIndex
 90
      256
102
RTVSPost2010Prop51ColorRGB
 90
-16777216
102
RTVSPost2010PropOp51
 70
     0
102
RTVSPost2010Prop52
140
1.0
102
RTVSPost2010PropOp52
 70
     0
102
RTVSPost2010Prop53
 90
        2
102
RTVSPost2010PropOp53
 70
     0
102
RTVSPost2010Prop54
  1
strokes_ogs.tif
102
RTVSPost2010PropOp54
 70
     0
102
RTVSPost2010Prop55
280
     0
102
RTVSPost2010PropOp55
 70
     0
102
RTVSPost2010Prop56
140
1.0
102
RTVSPost2010PropOp56
 70
     0
102
RTVSPost2010Prop57
140
1.0
102
RTVSPost2010PropOp57
 70
     0
  0
XRECORD
  5
1B9
102
{ACAD_REACTORS
330
1B8
102
}
330
1B8
100
AcDbXrecord
280
     1
102
RTVSPost2010Prop28
280
     0
102
RTVSPost2010PropOp28
 70
     1
102
RTVSPost2010Prop29
280
     1
102
RTVSPost2010PropOp29
 70
     1
102
RTVSPost2010Prop30
280
     1
102
RTVSPost2010PropOp30
 70
     1
102
RTVSPost2010Prop31
280
     0
102
RTVSPost2010PropOp31
 70
     1
102
RTVSPost2010Prop32
280
     0
102
RTVSPost2010PropOp32
 70
     1
102
RTVSPost2010Prop33
280
     0
102
RTVSPost2010PropOp33
 70
     1
102
RTVSPost2010Prop34
280
     0
102
RTVSPost2010PropOp34
 70
     1
102
RTVSPost2010Prop35
280
     0
102
RTVSPost2010PropOp35
 70
     1
102
RTVSPost2010Prop36
280
     0
102
RTVSPost2010PropOp36
 70
     1
102
RTVSPost2010Prop37
 90
       50
102
RTVSPost2010PropOp37
 70
     1
102
RTVSPost2010Prop38
140
0.0
102
RTVSPost2010PropOp38
 70
     1
102
RTVSPost2010Prop39
140
1.0
102
RTVSPost2010PropOp39
 70
     1
102
RTVSPost2010Prop40
 90
        0
102
RTVSPost2010PropOp40
 70
     1
102
RTVSPost2010Prop41ColorIndex
 90
       18
102
RTVSPost2010Prop41ColorRGB
 90
        0
102
RTVSPost2010PropOp41
 70
     1
102
RTVSPost2010Prop42
 90
       50
102
RTVSPost2010PropOp42
 70
     1
102
RTVSPost2010Prop43
 90
        3
102
RTVSPost2010PropOp43
 70
     1
102
RTVSPost2010Prop44ColorIndex
 90
        5
102
RTVSPost2010Prop44ColorRGB
 90
      255
102
RTVSPost2010PropOp44
 70
     1
102
RTVSPost2010Prop45
280
     0
102
RTVSPost2010PropOp45
 70
     1
102
RTVSPost2010Prop46
 90
       50
102
RTVSPost2010PropOp46
 70
     1
102
RTVSPost2010Prop47
 90
       50
102
RTVSPost2010PropOp47
 70
     1
102
RTVSPost2010Prop48
 90
       50
102
RTVSPost2010PropOp48
 70
     1
102
RTVSPost2010Prop49
280
     0
102
RTVSPost2010PropOp49
 70
     1
102
RTVSPost2010Prop50
 90
       50
102
RTVSPost2010PropOp50
 70
     1
102
RTVSPost2010Prop51ColorIndex
 90
      256
102
RTVSPost2010Prop51ColorRGB
 90
-16777216
102
RTVSPost2010PropOp51
 70
     0
102
RTVSPost2010Prop52
140
1.0
102
RTVSPost2010PropOp52
 70
     0
102
RTVSPost2010Prop53
 90
        2
102
RTVSPost2010PropOp53
 70
     1
102
RTVSPost2010Prop54
  1
strokes_ogs.tif
102
RTVSPost2010PropOp54
 70
     1
102
RTVSPost2010Prop55
280
     0
102
RTVSPost2010PropOp55
 70
     1
102
RTVSPost2010Prop56
140
1.0
102
RTVSPost2010PropOp56
 70
     1
102
RTVSPost2010Prop57
140
1.0
102
RTVSPost2010PropOp57
 70
     1
  0
XRECORD
  5
1C1
102
{ACAD_REACTORS
330
1C0
102
}
330
1C0
100
AcDbXrecord
280
     1
102
RTVSPost2010Prop28
280
     0
102
RTVSPost2010PropOp28
 70
     0
102
RTVSPost2010Prop29
280
     1
102
RTVSPost2010PropOp29
 70
     0
102
RTVSPost2010Prop30
280
     1
102
RTVSPost2010PropOp30
 70
     0
102
RTVSPost2010Prop31
280
     0
102
RTVSPost2010PropOp31
 70
     0
102
RTVSPost2010Prop32
280
     0
102
RTVSPost2010PropOp32
 70
     0
102
RTVSPost2010Prop33
280
     0
102
RTVSPost2010PropOp33
 70
     0
102
RTVSPost2010Prop34
280
     0
102
RTVSPost2010PropOp34
 70
     0
102
RTVSPost2010Prop35
280
     0
102
RTVSPost2010PropOp35
 70
     0
102
RTVSPost2010Prop36
280
     0
102
RTVSPost2010PropOp36
 70
     0
102
RTVSPost2010Prop37
 90
       50
102
RTVSPost2010PropOp37
 70
     0
102
RTVSPost2010Prop38
140
0.0
102
RTVSPost2010PropOp38
 70
     0
102
RTVSPost2010Prop39
140
1.0
102
RTVSPost2010PropOp39
 70
     0
102
RTVSPost2010Prop40
 90
        0
102
RTVSPost2010PropOp40
 70
     0
102
RTVSPost2010Prop41ColorIndex
 90
       18
102
RTVSPost2010Prop41ColorRGB
 90
        0
102
RTVSPost2010PropOp41
 70
     0
102
RTVSPost2010Prop42
 90
       50
102
RTVSPost2010PropOp42
 70
     0
102
RTVSPost2010Prop43
 90
        3
102
RTVSPost2010PropOp43
 70
     0
102
RTVSPost2010Prop44ColorIndex
 90
        5
102
RTVSPost2010Prop44ColorRGB
 90
      255
102
RTVSPost2010PropOp44
 70
     0
102
RTVSPost2010Prop45
280
     0
102
RTVSPost2010PropOp45
 70
     0
102
RTVSPost2010Prop46
 90
       50
102
RTVSPost2010PropOp46
 70
     0
102
RTVSPost2010Prop47
 90
       50
102
RTVSPost2010PropOp47
 70
     0
102
RTVSPost2010Prop48
 90
       50
102
RTVSPost2010PropOp48
 70
     0
102
RTVSPost2010Prop49
280
     0
102
RTVSPost2010PropOp49
 70
     0
102
RTVSPost2010Prop50
 90
       50
102
RTVSPost2010PropOp50
 70
     0
102
RTVSPost2010Prop51ColorIndex
 90
      256
102
RTVSPost2010Prop51ColorRGB
 90
-16777216
102
RTVSPost2010PropOp51
 70
     0
102
RTVSPost2010Prop52
140
1.0
102
RTVSPost2010PropOp52
 70
     0
102
RTVSPost2010Prop53
 90
        2
102
RTVSPost2010PropOp53
 70
     0
102
RTVSPost2010Prop54
  1
strokes_ogs.tif
102
RTVSPost2010PropOp54
 70
     0
102
RTVSPost2010Prop55
280
     0
102
RTVSPost2010PropOp55
 70
     0
102
RTVSPost2010Prop56
140
1.0
102
RTVSPost2010PropOp56
 70
     0
102
RTVSPost2010Prop57
140
1.0
102
RTVSPost2010PropOp57
 70
     0
  0
XRECORD
  5
1AF
102
{ACAD_REACTORS
330
1AE
102
}
330
1AE
100
AcDbXrecord
280
     1
102
RTVSPost2010Prop28
280
     0
102
RTVSPost2010PropOp28
 70
     1
102
RTVSPost2010Prop29
280
     1
102
RTVSPost2010PropOp29
 70
     1
102
RTVSPost2010Prop30
280
     1
102
RTVSPost2010PropOp30
 70
     1
102
RTVSPost2010Prop31
280
     0
102
RTVSPost2010PropOp31
 70
     1
102
RTVSPost2010Prop32
280
     0
102
RTVSPost2010PropOp32
 70
     1
102
RTVSPost2010Prop33
280
     0
102
RTVSPost2010PropOp33
 70
     1
102
RTVSPost2010Prop34
280
     0
102
RTVSPost2010PropOp34
 70
     1
102
RTVSPost2010Prop35
280
     0
102
RTVSPost2010PropOp35
 70
     1
102
RTVSPost2010Prop36
280
     0
102
RTVSPost2010PropOp36
 70
     1
102
RTVSPost2010Prop37
 90
       50
102
RTVSPost2010PropOp37
 70
     1
102
RTVSPost2010Prop38
140
0.0
102
RTVSPost2010PropOp38
 70
     1
102
RTVSPost2010Prop39
140
1.0
102
RTVSPost2010PropOp39
 70
     1
102
RTVSPost2010Prop40
 90
        0
102
RTVSPost2010PropOp40
 70
     1
102
RTVSPost2010Prop41ColorIndex
 90
       18
102
RTVSPost2010Prop41ColorRGB
 90
        0
102
RTVSPost2010PropOp41
 70
     1
102
RTVSPost2010Prop42
 90
       50
102
RTVSPost2010PropOp42
 70
     1
102
RTVSPost2010Prop43
 90
        3
102
RTVSPost2010PropOp43
 70
     1
102
RTVSPost2010Prop44ColorIndex
 90
        5
102
RTVSPost2010Prop44ColorRGB
 90
      255
102
RTVSPost2010PropOp44
 70
     1
102
RTVSPost2010Prop45
280
     0
102
RTVSPost2010PropOp45
 70
     1
102
RTVSPost2010Prop46
 90
       50
102
RTVSPost2010PropOp46
 70
     1
102
RTVSPost2010Prop47
 90
       50
102
RTVSPost2010PropOp47
 70
     1
102
RTVSPost2010Prop48
 90
       50
102
RTVSPost2010PropOp48
 70
     1
102
RTVSPost2010Prop49
280
     0
102
RTVSPost2010PropOp49
 70
     1
102
RTVSPost2010Prop50
 90
       50
102
RTVSPost2010PropOp50
 70
     1
102
RTVSPost2010Prop51ColorIndex
 90
      256
102
RTVSPost2010Prop51ColorRGB
 90
-16777216
102
RTVSPost2010PropOp51
 70
     0
102
RTVSPost2010Prop52
140
1.0
102
RTVSPost2010PropOp52
 70
     0
102
RTVSPost2010Prop53
 90
        2
102
RTVSPost2010PropOp53
 70
     1
102
RTVSPost2010Prop54
  1
strokes_ogs.tif
102
RTVSPost2010PropOp54
 70
     1
102
RTVSPost2010Prop55
280
     0
102
RTVSPost2010PropOp55
 70
     1
102
RTVSPost2010Prop56
140
1.0
102
RTVSPost2010PropOp56
 70
     1
102
RTVSPost2010Prop57
140
1.0
102
RTVSPost2010PropOp57
 70
     1
  0
XRECORD
  5
1CD
102
{ACAD_REACTORS
330
1CC
102
}
330
1CC
100
AcDbXrecord
280
     1
102
RTVSPost2010Prop28
280
     0
102
RTVSPost2010PropOp28
 70
     1
102
RTVSPost2010Prop29
280
     1
102
RTVSPost2010PropOp29
 70
     1
102
RTVSPost2010Prop30
280
     1
102
RTVSPost2010PropOp30
 70
     1
102
RTVSPost2010Prop31
280
     0
102
RTVSPost2010PropOp31
 70
     1
102
RTVSPost2010Prop32
280
     0
102
RTVSPost2010PropOp32
 70
     1
102
RTVSPost2010Prop33
280
     0
102
RTVSPost2010PropOp33
 70
     1
102
RTVSPost2010Prop34
280
     0
102
RTVSPost2010PropOp34
 70
     1
102
RTVSPost2010Prop35
280
     0
102
RTVSPost2010PropOp35
 70
     1
102
RTVSPost2010Prop36
280
     0
102
RTVSPost2010PropOp36
 70
     1
102
RTVSPost2010Prop37
 90
       50
102
RTVSPost2010PropOp37
 70
     1
102
RTVSPost2010Prop38
140
0.0
102
RTVSPost2010PropOp38
 70
     1
102
RTVSPost2010Prop39
140
1.0
102
RTVSPost2010PropOp39
 70
     1
102
RTVSPost2010Prop40
 90
        0
102
RTVSPost2010PropOp40
 70
     1
102
RTVSPost2010Prop41ColorIndex
 90
       18
102
RTVSPost2010Prop41ColorRGB
 90
        0
102
RTVSPost2010PropOp41
 70
     1
102
RTVSPost2010Prop42
 90
       50
102
RTVSPost2010PropOp42
 70
     1
102
RTVSPost2010Prop43
 90
        3
102
RTVSPost2010PropOp43
 70
     1
102
RTVSPost2010Prop44ColorIndex
 90
        5
102
RTVSPost2010Prop44ColorRGB
 90
      255
102
RTVSPost2010PropOp44
 70
     1
102
RTVSPost2010Prop45
280
     0
102
RTVSPost2010PropOp45
 70
     1
102
RTVSPost2010Prop46
 90
       50
102
RTVSPost2010PropOp46
 70
     1
102
RTVSPost2010Prop47
 90
       50
102
RTVSPost2010PropOp47
 70
     1
102
RTVSPost2010Prop48
 90
       50
102
RTVSPost2010PropOp48
 70
     1
102
RTVSPost2010Prop49
280
     0
102
RTVSPost2010PropOp49
 70
     1
102
RTVSPost2010Prop50
 90
       50
102
RTVSPost2010PropOp50
 70
     1
102
RTVSPost2010Prop51ColorIndex
 90
      256
102
RTVSPost2010Prop51ColorRGB
 90
-16777216
102
RTVSPost2010PropOp51
 70
     0
102
RTVSPost2010Prop52
140
1.0
102
RTVSPost2010PropOp52
 70
     0
102
RTVSPost2010Prop53
 90
        2
102
RTVSPost2010PropOp53
 70
     1
102
RTVSPost2010Prop54
  1
strokes_ogs.tif
102
RTVSPost2010PropOp54
 70
     1
102
RTVSPost2010Prop55
280
     0
102
RTVSPost2010PropOp55
 70
     1
102
RTVSPost2010Prop56
140
1.0
102
RTVSPost2010PropOp56
 70
     1
102
RTVSPost2010Prop57
140
1.0
102
RTVSPost2010PropOp57
 70
     1
  0
XRECORD
  5
1CB
102
{ACAD_REACTORS
330
1CA
102
}
330
1CA
100
AcDbXrecord
280
     1
102
RTVSPost2010Prop28
280
     0
102
RTVSPost2010PropOp28
 70
     1
102
RTVSPost2010Prop29
280
     1
102
RTVSPost2010PropOp29
 70
     1
102
RTVSPost2010Prop30
280
     1
102
RTVSPost2010PropOp30
 70
     1
102
RTVSPost2010Prop31
280
     0
102
RTVSPost2010PropOp31
 70
     1
102
RTVSPost2010Prop32
280
     0
102
RTVSPost2010PropOp32
 70
     1
102
RTVSPost2010Prop33
280
     0
102
RTVSPost2010PropOp33
 70
     1
102
RTVSPost2010Prop34
280
     0
102
RTVSPost2010PropOp34
 70
     1
102
RTVSPost2010Prop35
280
     0
102
RTVSPost2010PropOp35
 70
     1
102
RTVSPost2010Prop36
280
     0
102
RTVSPost2010PropOp36
 70
     1
102
RTVSPost2010Prop37
 90
       50
102
RTVSPost2010PropOp37
 70
     1
102
RTVSPost2010Prop38
140
0.0
102
RTVSPost2010PropOp38
 70
     1
102
RTVSPost2010Prop39
140
1.0
102
RTVSPost2010PropOp39
 70
     1
102
RTVSPost2010Prop40
 90
        0
102
RTVSPost2010PropOp40
 70
     1
102
RTVSPost2010Prop41ColorIndex
 90
       18
102
RTVSPost2010Prop41ColorRGB
 90
        0
102
RTVSPost2010PropOp41
 70
     1
102
RTVSPost2010Prop42
 90
       50
102
RTVSPost2010PropOp42
 70
     1
102
RTVSPost2010Prop43
 90
        3
102
RTVSPost2010PropOp43
 70
     1
102
RTVSPost2010Prop44ColorIndex
 90
        5
102
RTVSPost2010Prop44ColorRGB
 90
      255
102
RTVSPost2010PropOp44
 70
     1
102
RTVSPost2010Prop45
280
     0
102
RTVSPost2010PropOp45
 70
     1
102
RTVSPost2010Prop46
 90
       50
102
RTVSPost2010PropOp46
 70
     1
102
RTVSPost2010Prop47
 90
       50
102
RTVSPost2010PropOp47
 70
     1
102
RTVSPost2010Prop48
 90
       50
102
RTVSPost2010PropOp48
 70
     1
102
RTVSPost2010Prop49
280
     0
102
RTVSPost2010PropOp49
 70
     1
102
RTVSPost2010Prop50
 90
       50
102
RTVSPost2010PropOp50
 70
     1
102
RTVSPost2010Prop51ColorIndex
 90
      256
102
RTVSPost2010Prop51ColorRGB
 90
-16777216
102
RTVSPost2010PropOp51
 70
     0
102
RTVSPost2010Prop52
140
1.0
102
RTVSPost2010PropOp52
 70
     0
102
RTVSPost2010Prop53
 90
        2
102
RTVSPost2010PropOp53
 70
     1
102
RTVSPost2010Prop54
  1
strokes_ogs.tif
102
RTVSPost2010PropOp54
 70
     1
102
RTVSPost2010Prop55
280
     0
102
RTVSPost2010PropOp55
 70
     1
102
RTVSPost2010Prop56
140
1.0
102
RTVSPost2010PropOp56
 70
     1
102
RTVSPost2010Prop57
140
1.0
102
RTVSPost2010PropOp57
 70
     1
  0
XRECORD
  5
1C5
102
{ACAD_REACTORS
330
1C4
102
}
330
1C4
100
AcDbXrecord
280
     1
102
RTVSPost2010Prop28
280
     0
102
RTVSPost2010PropOp28
 70
     1
102
RTVSPost2010Prop29
280
     1
102
RTVSPost2010PropOp29
 70
     1
102
RTVSPost2010Prop30
280
     1
102
RTVSPost2010PropOp30
 70
     1
102
RTVSPost2010Prop31
280
     0
102
RTVSPost2010PropOp31
 70
     1
102
RTVSPost2010Prop32
280
     0
102
RTVSPost2010PropOp32
 70
     1
102
RTVSPost2010Prop33
280
     0
102
RTVSPost2010PropOp33
 70
     1
102
RTVSPost2010Prop34
280
     0
102
RTVSPost2010PropOp34
 70
     1
102
RTVSPost2010Prop35
280
     0
102
RTVSPost2010PropOp35
 70
     1
102
RTVSPost2010Prop36
280
     0
102
RTVSPost2010PropOp36
 70
     1
102
RTVSPost2010Prop37
 90
       50
102
RTVSPost2010PropOp37
 70
     1
102
RTVSPost2010Prop38
140
0.0
102
RTVSPost2010PropOp38
 70
     1
102
RTVSPost2010Prop39
140
1.0
102
RTVSPost2010PropOp39
 70
     1
102
RTVSPost2010Prop40
 90
        0
102
RTVSPost2010PropOp40
 70
     1
102
RTVSPost2010Prop41ColorIndex
 90
       18
102
RTVSPost2010Prop41ColorRGB
 90
        0
102
RTVSPost2010PropOp41
 70
     1
102
RTVSPost2010Prop42
 90
       50
102
RTVSPost2010PropOp42
 70
     1
102
RTVSPost2010Prop43
 90
        3
102
RTVSPost2010PropOp43
 70
     1
102
RTVSPost2010Prop44ColorIndex
 90
        5
102
RTVSPost2010Prop44ColorRGB
 90
      255
102
RTVSPost2010PropOp44
 70
     1
102
RTVSPost2010Prop45
280
     0
102
RTVSPost2010PropOp45
 70
     1
102
RTVSPost2010Prop46
 90
       50
102
RTVSPost2010PropOp46
 70
     1
102
RTVSPost2010Prop47
 90
       50
102
RTVSPost2010PropOp47
 70
     1
102
RTVSPost2010Prop48
 90
       50
102
RTVSPost2010PropOp48
 70
     1
102
RTVSPost2010Prop49
280
     0
102
RTVSPost2010PropOp49
 70
     1
102
RTVSPost2010Prop50
 90
       50
102
RTVSPost2010PropOp50
 70
     1
102
RTVSPost2010Prop51ColorIndex
 90
      256
102
RTVSPost2010Prop51ColorRGB
 90
-16777216
102
RTVSPost2010PropOp51
 70
     0
102
RTVSPost2010Prop52
140
1.0
102
RTVSPost2010PropOp52
 70
     0
102
RTVSPost2010Prop53
 90
        2
102
RTVSPost2010PropOp53
 70
     1
102
RTVSPost2010Prop54
  1
strokes_ogs.tif
102
RTVSPost2010PropOp54
 70
     1
102
RTVSPost2010Prop55
280
     0
102
RTVSPost2010PropOp55
 70
     1
102
RTVSPost2010Prop56
140
1.0
102
RTVSPost2010PropOp56
 70
     1
102
RTVSPost2010Prop57
140
1.0
102
RTVSPost2010PropOp57
 70
     1
  0
XRECORD
  5
1C7
102
{ACAD_REACTORS
330
1C6
102
}
330
1C6
100
AcDbXrecord
280
     1
102
RTVSPost2010Prop28
280
     0
102
RTVSPost2010PropOp28
 70
     1
102
RTVSPost2010Prop29
280
     1
102
RTVSPost2010PropOp29
 70
     1
102
RTVSPost2010Prop30
280
     1
102
RTVSPost2010PropOp30
 70
     1
102
RTVSPost2010Prop31
280
     0
102
RTVSPost2010PropOp31
 70
     1
102
RTVSPost2010Prop32
280
     0
102
RTVSPost2010PropOp32
 70
     1
102
RTVSPost2010Prop33
280
     0
102
RTVSPost2010PropOp33
 70
     1
102
RTVSPost2010Prop34
280
     0
102
RTVSPost2010PropOp34
 70
     1
102
RTVSPost2010Prop35
280
     0
102
RTVSPost2010PropOp35
 70
     1
102
RTVSPost2010Prop36
280
     0
102
RTVSPost2010PropOp36
 70
     1
102
RTVSPost2010Prop37
 90
       50
102
RTVSPost2010PropOp37
 70
     1
102
RTVSPost2010Prop38
140
0.0
102
RTVSPost2010PropOp38
 70
     1
102
RTVSPost2010Prop39
140
1.0
102
RTVSPost2010PropOp39
 70
     1
102
RTVSPost2010Prop40
 90
        0
102
RTVSPost2010PropOp40
 70
     1
102
RTVSPost2010Prop41ColorIndex
 90
       18
102
RTVSPost2010Prop41ColorRGB
 90
        0
102
RTVSPost2010PropOp41
 70
     1
102
RTVSPost2010Prop42
 90
       50
102
RTVSPost2010PropOp42
 70
     1
102
RTVSPost2010Prop43
 90
        3
102
RTVSPost2010PropOp43
 70
     1
102
RTVSPost2010Prop44ColorIndex
 90
        5
102
RTVSPost2010Prop44ColorRGB
 90
      255
102
RTVSPost2010PropOp44
 70
     1
102
RTVSPost2010Prop45
280
     0
102
RTVSPost2010PropOp45
 70
     1
102
RTVSPost2010Prop46
 90
       50
102
RTVSPost2010PropOp46
 70
     1
102
RTVSPost2010Prop47
 90
       50
102
RTVSPost2010PropOp47
 70
     1
102
RTVSPost2010Prop48
 90
       50
102
RTVSPost2010PropOp48
 70
     1
102
RTVSPost2010Prop49
280
     0
102
RTVSPost2010PropOp49
 70
     1
102
RTVSPost2010Prop50
 90
       50
102
RTVSPost2010PropOp50
 70
     1
102
RTVSPost2010Prop51ColorIndex
 90
      256
102
RTVSPost2010Prop51ColorRGB
 90
-16777216
102
RTVSPost2010PropOp51
 70
     0
102
RTVSPost2010Prop52
140
1.0
102
RTVSPost2010PropOp52
 70
     0
102
RTVSPost2010Prop53
 90
        2
102
RTVSPost2010PropOp53
 70
     1
102
RTVSPost2010Prop54
  1
strokes_ogs.tif
102
RTVSPost2010PropOp54
 70
     1
102
RTVSPost2010Prop55
280
     0
102
RTVSPost2010PropOp55
 70
     1
102
RTVSPost2010Prop56
140
1.0
102
RTVSPost2010PropOp56
 70
     1
102
RTVSPost2010Prop57
140
1.0
102
RTVSPost2010PropOp57
 70
     1
  0
XRECORD
  5
1B7
102
{ACAD_REACTORS
330
1B6
102
}
330
1B6
100
AcDbXrecord
280
     1
102
RTVSPost2010Prop28
280
     0
102
RTVSPost2010PropOp28
 70
     1
102
RTVSPost2010Prop29
280
     1
102
RTVSPost2010PropOp29
 70
     1
102
RTVSPost2010Prop30
280
     1
102
RTVSPost2010PropOp30
 70
     1
102
RTVSPost2010Prop31
280
     0
102
RTVSPost2010PropOp31
 70
     1
102
RTVSPost2010Prop32
280
     0
102
RTVSPost2010PropOp32
 70
     1
102
RTVSPost2010Prop33
280
     0
102
RTVSPost2010PropOp33
 70
     1
102
RTVSPost2010Prop34
280
     0
102
RTVSPost2010PropOp34
 70
     1
102
RTVSPost2010Prop35
280
     0
102
RTVSPost2010PropOp35
 70
     1
102
RTVSPost2010Prop36
280
     0
102
RTVSPost2010PropOp36
 70
     1
102
RTVSPost2010Prop37
 90
       50
102
RTVSPost2010PropOp37
 70
     1
102
RTVSPost2010Prop38
140
0.0
102
RTVSPost2010PropOp38
 70
     1
102
RTVSPost2010Prop39
140
1.0
102
RTVSPost2010PropOp39
 70
     1
102
RTVSPost2010Prop40
 90
        0
102
RTVSPost2010PropOp40
 70
     1
102
RTVSPost2010Prop41ColorIndex
 90
       18
102
RTVSPost2010Prop41ColorRGB
 90
        0
102
RTVSPost2010PropOp41
 70
     1
102
RTVSPost2010Prop42
 90
       50
102
RTVSPost2010PropOp42
 70
     1
102
RTVSPost2010Prop43
 90
        3
102
RTVSPost2010PropOp43
 70
     1
102
RTVSPost2010Prop44ColorIndex
 90
        5
102
RTVSPost2010Prop44ColorRGB
 90
      255
102
RTVSPost2010PropOp44
 70
     1
102
RTVSPost2010Prop45
280
     0
102
RTVSPost2010PropOp45
 70
     1
102
RTVSPost2010Prop46
 90
       50
102
RTVSPost2010PropOp46
 70
     1
102
RTVSPost2010Prop47
 90
       50
102
RTVSPost2010PropOp47
 70
     1
102
RTVSPost2010Prop48
 90
       50
102
RTVSPost2010PropOp48
 70
     1
102
RTVSPost2010Prop49
280
     0
102
RTVSPost2010PropOp49
 70
     1
102
RTVSPost2010Prop50
 90
       50
102
RTVSPost2010PropOp50
 70
     1
102
RTVSPost2010Prop51ColorIndex
 90
      256
102
RTVSPost2010Prop51ColorRGB
 90
-16777216
102
RTVSPost2010PropOp51
 70
     0
102
RTVSPost2010Prop52
140
1.0
102
RTVSPost2010PropOp52
 70
     0
102
RTVSPost2010Prop53
 90
        2
102
RTVSPost2010PropOp53
 70
     1
102
RTVSPost2010Prop54
  1
strokes_ogs.tif
102
RTVSPost2010PropOp54
 70
     1
102
RTVSPost2010Prop55
280
     0
102
RTVSPost2010PropOp55
 70
     1
102
RTVSPost2010Prop56
140
1.0
102
RTVSPost2010PropOp56
 70
     1
102
RTVSPost2010Prop57
140
1.0
102
RTVSPost2010PropOp57
 70
     1
  0
XRECORD
  5
1A9
102
{ACAD_REACTORS
330
1A8
102
}
330
1A8
100
AcDbXrecord
280
     1
102
RTVSPost2010Prop28
280
     0
102
RTVSPost2010PropOp28
 70
     1
102
RTVSPost2010Prop29
280
     1
102
RTVSPost2010PropOp29
 70
     1
102
RTVSPost2010Prop30
280
     1
102
RTVSPost2010PropOp30
 70
     1
102
RTVSPost2010Prop31
280
     0
102
RTVSPost2010PropOp31
 70
     1
102
RTVSPost2010Prop32
280
     0
102
RTVSPost2010PropOp32
 70
     1
102
RTVSPost2010Prop33
280
     0
102
RTVSPost2010PropOp33
 70
     1
102
RTVSPost2010Prop34
280
     0
102
RTVSPost2010PropOp34
 70
     1
102
RTVSPost2010Prop35
280
     0
102
RTVSPost2010PropOp35
 70
     1
102
RTVSPost2010Prop36
280
     0
102
RTVSPost2010PropOp36
 70
     1
102
RTVSPost2010Prop37
 90
       50
102
RTVSPost2010PropOp37
 70
     1
102
RTVSPost2010Prop38
140
0.0
102
RTVSPost2010PropOp38
 70
     1
102
RTVSPost2010Prop39
140
1.0
102
RTVSPost2010PropOp39
 70
     1
102
RTVSPost2010Prop40
 90
        0
102
RTVSPost2010PropOp40
 70
     1
102
RTVSPost2010Prop41ColorIndex
 90
       18
102
RTVSPost2010Prop41ColorRGB
 90
        0
102
RTVSPost2010PropOp41
 70
     1
102
RTVSPost2010Prop42
 90
       50
102
RTVSPost2010PropOp42
 70
     1
102
RTVSPost2010Prop43
 90
        3
102
RTVSPost2010PropOp43
 70
     1
102
RTVSPost2010Prop44ColorIndex
 90
        5
102
RTVSPost2010Prop44ColorRGB
 90
      255
102
RTVSPost2010PropOp44
 70
     1
102
RTVSPost2010Prop45
280
     0
102
RTVSPost2010PropOp45
 70
     1
102
RTVSPost2010Prop46
 90
       50
102
RTVSPost2010PropOp46
 70
     1
102
RTVSPost2010Prop47
 90
       50
102
RTVSPost2010PropOp47
 70
     1
102
RTVSPost2010Prop48
 90
       50
102
RTVSPost2010PropOp48
 70
     1
102
RTVSPost2010Prop49
280
     0
102
RTVSPost2010PropOp49
 70
     1
102
RTVSPost2010Prop50
 90
       50
102
RTVSPost2010PropOp50
 70
     1
102
RTVSPost2010Prop51ColorIndex
 90
      256
102
RTVSPost2010Prop51ColorRGB
 90
-16777216
102
RTVSPost2010PropOp51
 70
     0
102
RTVSPost2010Prop52
140
1.0
102
RTVSPost2010PropOp52
 70
     0
102
RTVSPost2010Prop53
 90
        2
102
RTVSPost2010PropOp53
 70
     1
102
RTVSPost2010Prop54
  1
strokes_ogs.tif
102
RTVSPost2010PropOp54
 70
     1
102
RTVSPost2010Prop55
280
     0
102
RTVSPost2010PropOp55
 70
     1
102
RTVSPost2010Prop56
140
1.0
102
RTVSPost2010PropOp56
 70
     1
102
RTVSPost2010Prop57
140
1.0
102
RTVSPost2010PropOp57
 70
     1
  0
XRECORD
  5
1C9
102
{ACAD_REACTORS
330
1C8
102
}
330
1C8
100
AcDbXrecord
280
     1
102
RTVSPost2010Prop28
280
     0
102
RTVSPost2010PropOp28
 70
     1
102
RTVSPost2010Prop29
280
     1
102
RTVSPost2010PropOp29
 70
     1
102
RTVSPost2010Prop30
280
     1
102
RTVSPost2010PropOp30
 70
     1
102
RTVSPost2010Prop31
280
     0
102
RTVSPost2010PropOp31
 70
     1
102
RTVSPost2010Prop32
280
     0
102
RTVSPost2010PropOp32
 70
     1
102
RTVSPost2010Prop33
280
     0
102
RTVSPost2010PropOp33
 70
     1
102
RTVSPost2010Prop34
280
     0
102
RTVSPost2010PropOp34
 70
     1
102
RTVSPost2010Prop35
280
     0
102
RTVSPost2010PropOp35
 70
     1
102
RTVSPost2010Prop36
280
     0
102
RTVSPost2010PropOp36
 70
     1
102
RTVSPost2010Prop37
 90
       50
102
RTVSPost2010PropOp37
 70
     1
102
RTVSPost2010Prop38
140
0.0
102
RTVSPost2010PropOp38
 70
     1
102
RTVSPost2010Prop39
140
1.0
102
RTVSPost2010PropOp39
 70
     1
102
RTVSPost2010Prop40
 90
        0
102
RTVSPost2010PropOp40
 70
     1
102
RTVSPost2010Prop41ColorIndex
 90
       18
102
RTVSPost2010Prop41ColorRGB
 90
        0
102
RTVSPost2010PropOp41
 70
     1
102
RTVSPost2010Prop42
 90
       50
102
RTVSPost2010PropOp42
 70
     1
102
RTVSPost2010Prop43
 90
        3
102
RTVSPost2010PropOp43
 70
     1
102
RTVSPost2010Prop44ColorIndex
 90
        5
102
RTVSPost2010Prop44ColorRGB
 90
      255
102
RTVSPost2010PropOp44
 70
     1
102
RTVSPost2010Prop45
280
     0
102
RTVSPost2010PropOp45
 70
     1
102
RTVSPost2010Prop46
 90
       50
102
RTVSPost2010PropOp46
 70
     1
102
RTVSPost2010Prop47
 90
       50
102
RTVSPost2010PropOp47
 70
     1
102
RTVSPost2010Prop48
 90
       50
102
RTVSPost2010PropOp48
 70
     1
102
RTVSPost2010Prop49
280
     0
102
RTVSPost2010PropOp49
 70
     1
102
RTVSPost2010Prop50
 90
       50
102
RTVSPost2010PropOp50
 70
     1
102
RTVSPost2010Prop51ColorIndex
 90
      256
102
RTVSPost2010Prop51ColorRGB
 90
-16777216
102
RTVSPost2010PropOp51
 70
     0
102
RTVSPost2010Prop52
140
1.0
102
RTVSPost2010PropOp52
 70
     0
102
RTVSPost2010Prop53
 90
        2
102
RTVSPost2010PropOp53
 70
     1
102
RTVSPost2010Prop54
  1
strokes_ogs.tif
102
RTVSPost2010PropOp54
 70
     1
102
RTVSPost2010Prop55
280
     0
102
RTVSPost2010PropOp55
 70
     1
102
RTVSPost2010Prop56
140
1.0
102
RTVSPost2010PropOp56
 70
     1
102
RTVSPost2010Prop57
140
1.0
102
RTVSPost2010PropOp57
 70
     1
  0
ENDSEC
  0
EOF
