0
SECTION
2
HEADER
9
$INSUNITS
70
4
9
$ACADVER
1
AC1014
9
$HANDSEED
5
FFFF
0
ENDSEC
0
SECTION
2
TABLES
0
TABLE
2
VPORT
5
8
100
AcDbSymbolTable
0
ENDTAB
0
TABLE
2
LTYPE
5
5
100
AcDbSymbolTable
0
LTYPE
5
14
100
AcDbSymbolTableRecord
100
AcDbLinetypeTableRecord
2
BYBLOCK
70
0
0
LTYPE
5
15
100
AcDbSymbolTableRecord
100
AcDbLinetypeTableRecord
2
BYLAYER
70
0
0
ENDTAB
0
TABLE
2
LAYER
5
2
100
AcDbSymbolTable
70
2
0
LAYER
5
50
100
AcDbSymbolTableRecord
100
AcDbLayerTableRecord
2
0
70
0
6
CONTINUOUS
0
ENDTAB
0
TABLE
2
STYLE
5
3
100
AcDbSymbolTable
70
1
0
STYLE
5
11
100
AcDbSymbolTableRecord
100
AcDbTextStyleTableRecord
2
STANDARD
70
0
0
ENDTAB
0
TABLE
2
VIEW
5
6
100
AcDbSymbolTable
70
0
0
ENDTAB
0
TABLE
2
UCS
5
7
100
AcDbSymbolTable
70
0
0
ENDTAB
0
TABLE
2
APPID
5
9
100
AcDbSymbolTable
70
2
0
APPID
5
12
100
AcDbSymbolTableRecord
100
AcDbRegAppTableRecord
2
ACAD
70
0
0
ENDTAB
0
TABLE
2
DIMSTYLE
5
A
100
AcDbSymbolTable
70
1
0
ENDTAB
0
TABLE
2
BLOCK_RECORD
5
1
100
AcDbSymbolTable
70
1
0
BLOCK_RECORD
5
1F
100
AcDbSymbolTableRecord
100
AcDbBlockTableRecord
2
*MODEL_SPACE
0
BLOCK_RECORD
5
1B
100
AcDbSymbolTableRecord
100
AcDbBlockTableRecord
2
*PAPER_SPACE
0
ENDTAB
0
ENDSEC
0
SECTION
2
BLOCKS
0
BLOCK
5
20
100
AcDbEntity
100
AcDbBlockBegin
2
*MODEL_SPACE
0
ENDBLK
5
21
100
AcDbEntity
100
AcDbBlockEnd
0
BLOCK
5
1C
100
AcDbEntity
100
AcDbBlockBegin
2
*PAPER_SPACE
0
ENDBLK
5
1D
100
AcDbEntity
100
AcDbBlockEnd
0
ENDSEC
0
SECTION
2
ENTITIES
0
ARC
5
100
100
AcDbEntity
8
0
100
AcDbCircle
10
-26.180248115904895
20
8.5064782651219382
30
0
40
20.000000060399078
210
0
220
-0
230
1
100
AcDbArc
50
71.862007688351099
51
251.86200768835107
0
ARC
5
101
100
AcDbEntity
8
0
100
AcDbCircle
10
-16.217309573282389
20
-22.243389938823679
30
0
40
20.000000005732307
210
0
220
0
230
1
100
AcDbArc
50
144.04257779107866
51
324.0425777910786
0
ARC
5
102
100
AcDbEntity
8
0
100
AcDbCircle
10
16.180283169534615
20
-22.270249222651465
30
0
40
20.00000005966562
210
0
220
0
230
1
100
AcDbArc
50
-144.13758022389044
51
35.999723564925766
0
ARC
5
103
100
AcDbEntity
8
0
100
AcDbCircle
10
26.180248115904895
20
8.5064782651219311
30
0
40
20.000000000001027
210
0
220
0
230
1
100
AcDbArc
50
-71.99972340236225
51
107.86158561747862
0
ARC
5
104
100
AcDbEntity
8
0
100
AcDbCircle
10
0.045885380006282436
20
27.52195411496059
30
0
40
20.000002349448049
210
-0
220
0
230
1
100
AcDbArc
50
0.058812398863913165
51
180.02660091885227
0
LINE
5
105
100
AcDbEntity
8
0
100
AcDbLine
10
-19.954115304238311
20
27.5126686416138
30
0
11
0.045885380006282436
21
27.52195411496059
31
0
0
LINE
5
106
100
AcDbEntity
8
0
100
AcDbLine
10
0.045885380006282436
20
27.52195411496059
30
0
11
0.044980046483488759
21
29.471953904799353
31
0
0
LINE
5
107
100
AcDbEntity
8
0
100
AcDbLine
10
0.044980046483488759
20
29.471953904799353
30
0
11
-19.859730666750835
21
29.462712672075067
31
0
0
LINE
5
108
100
AcDbEntity
8
0
100
AcDbLine
10
-19.859730666750835
20
29.462712672075067
30
0
11
-19.954115304238311
21
27.5126686416138
31
0
0
LINE
5
109
100
AcDbEntity
8
0
100
AcDbLine
10
-26.160754439994186
20
8.5483911295879924
30
0
11
-28.015594210338644
21
9.1501131803294733
31
0
0
LINE
5
110
100
AcDbEntity
8
0
100
AcDbLine
10
-28.015594210338644
20
9.1501131803294733
30
0
11
-34.157699154244099
21
-9.7832473464227618
31
0
0
LINE
5
111
100
AcDbEntity
8
0
100
AcDbLine
10
-34.157699154244099
20
-9.7832473464227618
30
0
11
-32.332263529002994
21
-10.475609216135329
31
0
0
LINE
5
112
100
AcDbEntity
8
0
100
AcDbLine
10
-32.332263529002994
20
-10.475609216135329
30
0
11
-26.160754439994186
21
8.5483911295879924
31
0
0
LINE
5
113
100
AcDbEntity
8
0
100
AcDbLine
10
-16.214120795262417
20
-22.238757847747106
30
0
11
-17.359569483497548
21
-23.816872958447341
31
0
0
LINE
5
114
100
AcDbEntity
8
0
100
AcDbLine
10
-17.359569483497548
20
-23.816872958447341
30
0
11
-1.2508883880655619
21
-35.509092052511548
31
0
0
LINE
5
115
100
AcDbEntity
8
0
100
AcDbLine
10
-1.2508883880655619
20
-35.509092052511548
30
0
11
-0.028322489904167844
21
-33.98695119004708
31
0
0
LINE
5
116
100
AcDbEntity
8
0
100
AcDbLine
10
-0.028322489904167844
20
-33.98695119004708
30
0
11
-16.214120795262417
21
-22.238757847747106
31
0
0
LINE
5
117
100
AcDbEntity
8
0
100
AcDbLine
10
16.139876690825542
20
-22.292699347074162
30
0
11
17.286790239471706
21
-23.869750174388194
31
0
0
LINE
5
118
100
AcDbEntity
8
0
100
AcDbLine
10
17.286790239471706
20
-23.869750174388194
30
0
11
33.38460761428702
21
-12.162578451678147
31
0
0
LINE
5
119
100
AcDbEntity
8
0
100
AcDbLine
10
33.38460761428702
20
-12.162578451678147
30
0
11
32.314759267596195
21
-10.52948179329745
31
0
0
LINE
5
120
100
AcDbEntity
8
0
100
AcDbLine
10
32.314759267596195
20
-10.52948179329745
30
0
11
16.139876690825542
21
-22.292699347074162
31
0
0
LINE
5
121
100
AcDbEntity
8
0
100
AcDbLine
10
26.189113164424789
20
8.4611119502726773
30
0
11
28.043393407880998
21
9.0645560477067058
31
0
0
LINE
5
122
100
AcDbEntity
8
0
100
AcDbLine
10
28.043393407880998
20
9.0645560477067058
30
0
11
21.883710594773479
21
27.992205178537386
31
0
0
LINE
5
123
100
AcDbEntity
8
0
100
AcDbLine
10
21.883710594773479
20
27.992205178537386
30
0
11
19.999942055549276
21
27.479373557866055
31
0
0
LINE
5
124
100
AcDbEntity
8
0
100
AcDbLine
10
19.999942055549276
20
27.479373557866055
30
0
11
26.189113164424789
21
8.4611119502726773
31
0
0
ENDSEC
0
SECTION
2
OBJECTS
0
DICTIONARY
5
C
100
AcDbDictionary
3
ACAD_GROUP
350
D
3
ACAD_MLINESTYLE
350
17
0
DICTIONARY
5
D
100
AcDbDictionary
0
DICTIONARY
5
1A
330
C
100
AcDbDictionary
0
DICTIONARY
5
17
100
AcDbDictionary
0
ENDSEC
0
EOF
